  0
SECTION
  2
HEADER
  9
$ACADVER
  1
AC1015
  9
$ACADMAINTVER
 70
     6
  9
$DWGCODEPAGE
  3
ANSI_1252
  9
$INSBASE
 10
0.0
 20
0.0
 30
0.0
  9
$EXTMIN
 10
69.395417
 20
287.976483
 30
-1.0
  9
$EXTMAX
 10
1026.514554
 20
492.804657
 30
0.7
  9
$LIMMIN
 10
0.0
 20
0.0
  9
$LIMMAX
 10
12.0
 20
9.0
  9
$ORTHOMODE
 70
     0
  9
$REGENMODE
 70
     1
  9
$FILLMODE
 70
     1
  9
$QTEXTMODE
 70
     0
  9
$MIRRTEXT
 70
     0
  9
$LTSCALE
 40
20.0
  9
$ATTMODE
 70
     1
  9
$TEXTSIZE
 40
0.2
  9
$TRACEWID
 40
0.05
  9
$TEXTSTYLE
  7
STANDARD
  9
$CLAYER
  8
0
  9
$CELTYPE
  6
ByLayer
  9
$CECOLOR
 62
   256
  9
$CELTSCALE
 40
1.0
  9
$DISPSILH
 70
     0
  9
$DIMSCALE
 40
1.0
  9
$DIMASZ
 40
0.18
  9
$DIMEXO
 40
0.0625
  9
$DIMDLI
 40
0.38
  9
$DIMRND
 40
0.0
  9
$DIMDLE
 40
0.0
  9
$DIMEXE
 40
0.18
  9
$DIMTP
 40
0.0
  9
$DIMTM
 40
0.0
  9
$DIMTXT
 40
0.18
  9
$DIMCEN
 40
0.09
  9
$DIMTSZ
 40
0.0
  9
$DIMTOL
 70
     0
  9
$DIMLIM
 70
     0
  9
$DIMTIH
 70
     1
  9
$DIMTOH
 70
     1
  9
$DIMSE1
 70
     0
  9
$DIMSE2
 70
     0
  9
$DIMTAD
 70
     0
  9
$DIMZIN
 70
     0
  9
$DIMBLK
  1

  9
$DIMASO
 70
     1
  9
$DIMSHO
 70
     1
  9
$DIMPOST
  1

  9
$DIMAPOST
  1

  9
$DIMALT
 70
     0
  9
$DIMALTD
 70
     2
  9
$DIMALTF
 40
25.4
  9
$DIMLFAC
 40
1.0
  9
$DIMTOFL
 70
     0
  9
$DIMTVP
 40
0.0
  9
$DIMTIX
 70
     0
  9
$DIMSOXD
 70
     0
  9
$DIMSAH
 70
     0
  9
$DIMBLK1
  1

  9
$DIMBLK2
  1

  9
$DIMSTYLE
  2
STANDARD
  9
$DIMCLRD
 70
     0
  9
$DIMCLRE
 70
     0
  9
$DIMCLRT
 70
     0
  9
$DIMTFAC
 40
1.0
  9
$DIMGAP
 40
0.09
  9
$DIMJUST
 70
     0
  9
$DIMSD1
 70
     0
  9
$DIMSD2
 70
     0
  9
$DIMTOLJ
 70
     1
  9
$DIMTZIN
 70
     0
  9
$DIMALTZ
 70
     0
  9
$DIMALTTZ
 70
     0
  9
$DIMUPT
 70
     0
  9
$DIMDEC
 70
     4
  9
$DIMTDEC
 70
     4
  9
$DIMALTU
 70
     2
  9
$DIMALTTD
 70
     2
  9
$DIMTXSTY
  7
STANDARD
  9
$DIMAUNIT
 70
     0
  9
$DIMADEC
 70
     0
  9
$DIMALTRND
 40
0.0
  9
$DIMAZIN
 70
     0
  9
$DIMDSEP
 70
     0
  9
$DIMATFIT
 70
     3
  9
$DIMFRAC
 70
     0
  9
$DIMLDRBLK
  1

  9
$DIMLUNIT
 70
     2
  9
$DIMLWD
 70
     0
  9
$DIMLWE
 70
     0
  9
$DIMTMOVE
 70
     0
  9
$LUNITS
 70
     2
  9
$LUPREC
 70
     4
  9
$SKETCHINC
 40
0.1
  9
$FILLETRAD
 40
0.0
  9
$AUNITS
 70
     0
  9
$AUPREC
 70
     0
  9
$MENU
  1
.
  9
$ELEVATION
 40
0.0
  9
$PELEVATION
 40
0.0
  9
$THICKNESS
 40
0.0
  9
$LIMCHECK
 70
     0
  9
$CHAMFERA
 40
0.0
  9
$CHAMFERB
 40
0.0
  9
$CHAMFERC
 40
0.0
  9
$CHAMFERD
 40
0.0
  9
$SKPOLY
 70
     0
  9
$TDCREATE
 40
2453353.758792454
  9
$TDUCREATE
 40
0.000000000
  9
$TDUPDATE
 40
0.000000000
  9
$TDUUPDATE
 40
2447892.958333334
  9
$TDINDWG
 40
19583144.0627810880
  9
$TDUSRTIMER
 40
0.0000000000
  9
$USRTIMER
 70
     1
  9
$ANGBASE
 50
0.0
  9
$ANGDIR
 70
     0
  9
$PDMODE
 70
     0
  9
$PDSIZE
 40
0.0
  9
$PLINEWID
 40
0.0
  9
$SPLFRAME
 70
     0
  9
$SPLINETYPE
 70
     6
  9
$SPLINESEGS
 70
     8
  9
$HANDSEED
  5
1293
  9
$SURFTAB1
 70
     6
  9
$SURFTAB2
 70
     6
  9
$SURFTYPE
 70
     6
  9
$SURFU
 70
     6
  9
$SURFV
 70
     6
  9
$UCSBASE
  2

  9
$UCSNAME
  2

  9
$UCSORG
 10
0.0
 20
0.0
 30
0.0
  9
$UCSXDIR
 10
1.0
 20
0.0
 30
0.0
  9
$UCSYDIR
 10
0.0
 20
1.0
 30
0.0
  9
$UCSORTHOREF
  2

  9
$UCSORTHOVIEW
 70
     0
  9
$UCSORGTOP
 10
0.0
 20
0.0
 30
0.0
  9
$UCSORGBOTTOM
 10
0.0
 20
0.0
 30
0.0
  9
$UCSORGLEFT
 10
0.0
 20
0.0
 30
0.0
  9
$UCSORGRIGHT
 10
0.0
 20
0.0
 30
0.0
  9
$UCSORGFRONT
 10
0.0
 20
0.0
 30
0.0
  9
$UCSORGBACK
 10
0.0
 20
0.0
 30
0.0
  9
$PUCSBASE
  2

  9
$PUCSNAME
  2

  9
$PUCSORG
 10
0.0
 20
0.0
 30
0.0
  9
$PUCSXDIR
 10
1.0
 20
0.0
 30
0.0
  9
$PUCSYDIR
 10
0.0
 20
1.0
 30
0.0
  9
$PUCSORTHOREF
  2

  9
$PUCSORTHOVIEW
 70
     0
  9
$PUCSORGTOP
 10
0.0
 20
0.0
 30
0.0
  9
$PUCSORGBOTTOM
 10
0.0
 20
0.0
 30
0.0
  9
$PUCSORGLEFT
 10
0.0
 20
0.0
 30
0.0
  9
$PUCSORGRIGHT
 10
0.0
 20
0.0
 30
0.0
  9
$PUCSORGFRONT
 10
0.0
 20
0.0
 30
0.0
  9
$PUCSORGBACK
 10
0.0
 20
0.0
 30
0.0
  9
$USERI1
 70
     0
  9
$USERI2
 70
     0
  9
$USERI3
 70
     0
  9
$USERI4
 70
     0
  9
$USERI5
 70
     0
  9
$USERR1
 40
0.0
  9
$USERR2
 40
0.0
  9
$USERR3
 40
0.0
  9
$USERR4
 40
0.0
  9
$USERR5
 40
0.0
  9
$WORLDVIEW
 70
     1
  9
$SHADEDGE
 70
     3
  9
$SHADEDIF
 70
    70
  9
$TILEMODE
 70
     1
  9
$MAXACTVP
 70
    64
  9
$PINSBASE
 10
0.0
 20
0.0
 30
0.0
  9
$PLIMCHECK
 70
     0
  9
$PEXTMIN
 10
0.0
 20
0.0
 30
0.0
  9
$PEXTMAX
 10
0.0
 20
0.0
 30
0.0
  9
$PLIMMIN
 10
0.0
 20
0.0
  9
$PLIMMAX
 10
0.0
 20
0.0
  9
$UNITMODE
 70
     0
  9
$VISRETAIN
 70
     1
  9
$PLINEGEN
 70
     0
  9
$PSLTSCALE
 70
     1
  9
$TREEDEPTH
 70
  3020
  9
$CMLSTYLE
  2
Standard
  9
$CMLJUST
 70
     0
  9
$CMLSCALE
 40
1.0
  9
$PROXYGRAPHICS
 70
     0
  9
$MEASUREMENT
 70
     0
  9
$CELWEIGHT
370
     0
  9
$ENDCAPS
280
     0
  9
$JOINSTYLE
280
     0
  9
$LWDISPLAY
290
     0
  9
$INSUNITS
 70
     0
  9
$HYPERLINKBASE
  1

  9
$STYLESHEET
  1

  9
$XEDIT
290
     1
  9
$CEPSNTYPE
380
     0
  9
$PSTYLEMODE
290
     1
  9
$FINGERPRINTGUID
  2

  9
$VERSIONGUID
  2

  9
$EXTNAMES
290
     1
  9
$PSVPSCALE
 40
0.0
  0
ENDSEC
  0
SECTION
  2
CLASSES
  0
CLASS
  1
LWPOLYLINE
  2
AcDbPolyline
  3
AutoCAD 2000
 90
        0
280
     0
281
     1
  0
CLASS
  1
IMAGE
  2
AcDbRasterImage
  3
ISM
 90
      127
280
     0
281
     1
  0
CLASS
  1
OLE2FRAME
  2
AcDbOle2Frame
  3
AutoCAD 2000
 90
        0
280
     0
281
     1
  0
CLASS
  1
HATCH
  2
AcDbHatch
  3
AutoCAD 2000
 90
        0
280
     0
281
     1
  0
CLASS
  1
DICTIONARYVAR
  2
AcDbDictionaryVar
  3
AutoCAD 2000
 90
        0
280
     0
281
     0
  0
CLASS
  1
RASTERVARIABLES
  2
AcDbRasterVariables
  3
ISM
 90
        0
280
     0
281
     0
  0
CLASS
  1
IMAGEDEF
  2
AcDbRasterImageDef
  3
ISM
 90
        0
280
     0
281
     0
  0
CLASS
  1
IMAGEDEF_REACTOR
  2
AcDbRasterImageDefReactor
  3
ISM
 90
        1
280
     0
281
     0
  0
CLASS
  1
IDBUFFER
  2
AcDbIdBuffer
  3
AutoCAD 2000
 90
        0
280
     0
281
     0
  0
CLASS
  1
SPATIAL_FILTER
  2
AcDbSpatialFilter
  3
AutoCAD 2000
 90
        0
280
     0
281
     0
  0
CLASS
  1
XRECORD
  2
AcDbXrecord
  3
AutoCAD 2000
 90
        0
280
     0
281
     0
  0
CLASS
  1
SORTENTSTABLE
  2
AcDbSortentsTable
  3
AutoCAD 2000
 90
        0
280
     0
281
     0
  0
CLASS
  1
LAYER_INDEX
  2
AcDbLayerIndex
  3
AutoCAD 2000
 90
        0
280
     0
281
     0
  0
CLASS
  1
SPATIAL_INDEX
  2
AcDbSpatialIndex
  3
AutoCAD 2000
 90
        0
280
     0
281
     0
  0
CLASS
  1
OBJECT_PTR
  2
CAseDLPNTableRecord
  3
"ASE-LPNTableRecord"
 90
        1
280
     0
281
     0
  0
CLASS
  1
LAYOUT
  2
AcDbLayout
  3
AutoCAD 2000
 90
        0
280
     0
281
     0
  0
CLASS
  1
PLOTSETTINGS
  2
AcDbPlotSettings
  3
AutoCAD 2000
 90
        0
280
     0
281
     0
  0
CLASS
  1
ACDBDICTIONARYWDFLT
  2
AcDbDictionaryWithDefault
  3
AutoCAD 2000
 90
        0
280
     0
281
     0
  0
CLASS
  1
ACDBPLACEHOLDER
  2
AcDbPlaceHolder
  3
AutoCAD 2000
 90
        0
280
     0
281
     0
  0
CLASS
  1
VBA_PROJECT
  2
AcDbVbaProject
  3
acadvba
 90
        0
280
     0
281
     0
  0
CLASS
  1
WIPEOUT
  2
AcDbWipeout
  3
WipeOut|AutoCAD Express Tool|expresstools@autodesk.com
 90
      127
280
     0
281
     1
  0
CLASS
  1
WIPEOUTVARIABLES
  2
AcDbWipeoutVariables
  3
WipeOut|AutoCAD Express Tool|expresstools@autodesk.com
 90
        0
280
     0
281
     0
  0
CLASS
  1
RTEXT
  2
RText
  3
RText|AutoCAD Express Tool|expresstools@autodesk.com
 90
        0
280
     0
281
     1
  0
CLASS
  1
ARCALIGNEDTEXT
  2
AcDbArcAlignedText
  3
ATEXT|AutoCAD Express Tool|expresstools@autodesk.com
 90
        0
280
     0
281
     1
  0
ENDSEC
  0
SECTION
  2
TABLES
  0
TABLE
  2
VPORT
  5
FB2
100
AcDbSymbolTable
 70
     1
  0
VPORT
  5
FD1
100
AcDbSymbolTableRecord
100
AcDbViewportTableRecord
  2
*ACTIVE
 70
     0
 10
0.0
 20
0.0
 11
1.0
 21
1.0
 12
450.328833
 22
266.374849
 13
0.0
 23
0.0
 14
0.5
 24
0.5
 15
0.5
 25
0.5
 16
0.0
 26
0.0
 36
1.0
 17
0.0
 27
0.0
 37
0.0
 40
620.078606
 41
1.701534
 42
50.0
 43
0.0
 44
0.0
 50
0.0
 51
0.0
 71
    16
 72
  1000
 73
     1
 74
     3
 75
     0
 76
     0
 77
     0
 78
     0
281
     0
 65
     0
110
0.0
120
0.0
130
0.0
111
1.0
121
0.0
131
0.0
112
0.0
122
1.0
132
0.0
345
0
346
0
 79
     0
146
0.0
  0
ENDTAB
  0
TABLE
  2
LTYPE
  5
FAF
100
AcDbSymbolTable
 70
     6
  0
LTYPE
  5
FB8
100
AcDbSymbolTableRecord
100
AcDbLinetypeTableRecord
  2
ByBlock
 70
    64
  3

 72
    65
 73
     0
 40
0.0
  0
LTYPE
  5
FB9
100
AcDbSymbolTableRecord
100
AcDbLinetypeTableRecord
  2
ByLayer
 70
    64
  3

 72
    65
 73
     0
 40
0.0
  0
LTYPE
  5
FBA
100
AcDbSymbolTableRecord
100
AcDbLinetypeTableRecord
  2
CONTINUOUS
 70
     0
  3
Solid line
 72
    65
 73
     0
 40
0.0
  0
LTYPE
  5
FBB
100
AcDbSymbolTableRecord
100
AcDbLinetypeTableRecord
  2
CENTER
 70
     0
  3
____ _ ____ _ ____ _ ____ _ ____ _ ____ _ ____
 72
    65
 73
     4
 40
0.6
 49
0.375
 74
     0
 49
-0.075
 74
     0
 49
0.075
 74
     0
 49
-0.075
 74
     0
  0
LTYPE
  5
FBC
100
AcDbSymbolTableRecord
100
AcDbLinetypeTableRecord
  2
ACAD_ISO02W100
 70
     0
  3
ISO Strichlinie __ __ __ __ __ __ __ __ __ __ _
 72
    65
 73
     2
 40
15.0
 49
12.0
 74
     0
 49
-3.0
 74
     0
  0
LTYPE
  5
FBD
100
AcDbSymbolTableRecord
100
AcDbLinetypeTableRecord
  2
DASHED
 70
     0
  3
_ _ _ _ _ _ _ _ _ _ _ _ _ _ _ _ _ _ _ _ _ _ _ _
 72
    65
 73
     2
 40
0.375
 49
0.25
 74
     0
 49
-0.125
 74
     0
  0
ENDTAB
  0
TABLE
  2
LAYER
  5
FAD
100
AcDbSymbolTable
 70
    10
  0
LAYER
  5
FBE
100
AcDbSymbolTableRecord
100
AcDbLayerTableRecord
  2
0
 70
     0
 62
     7
  6
CONTINUOUS
290
     1
370
    -3
390
0
  0
LAYER
  5
FBF
100
AcDbSymbolTableRecord
100
AcDbLayerTableRecord
  2
90000_FRAME
 70
     0
 62
     7
  6
CONTINUOUS
290
     1
370
    -3
390
0
  0
LAYER
  5
FC0
100
AcDbSymbolTableRecord
100
AcDbLayerTableRecord
  2
91000_TIP
 70
     0
 62
     7
  6
CONTINUOUS
290
     1
370
    -3
390
0
  0
LAYER
  5
FC1
100
AcDbSymbolTableRecord
100
AcDbLayerTableRecord
  2
10000_FRONT
 70
     0
 62
     7
  6
CONTINUOUS
290
     1
370
    -3
390
0
  0
LAYER
  5
FC2
100
AcDbSymbolTableRecord
100
AcDbLayerTableRecord
  2
11000_LEFT
 70
     0
 62
     7
  6
CONTINUOUS
290
     1
370
    -3
390
0
  0
LAYER
  5
FC5
100
AcDbSymbolTableRecord
100
AcDbLayerTableRecord
  2
DEFPOINTS
 70
     0
 62
     7
  6
CONTINUOUS
290
     0
370
    -3
390
0
  0
LAYER
  5
FC6
100
AcDbSymbolTableRecord
100
AcDbLayerTableRecord
  2
10100_FRONT_DIM
 70
     0
 62
     7
  6
CONTINUOUS
290
     1
370
    -3
390
0
  0
LAYER
  5
FC7
100
AcDbSymbolTableRecord
100
AcDbLayerTableRecord
  2
11100_LEFT_DIM
 70
     0
 62
     7
  6
CONTINUOUS
290
     1
370
    -3
390
0
  0
LAYER
  5
FCF
100
AcDbSymbolTableRecord
100
AcDbLayerTableRecord
  2
15000_BACK
 70
     0
 62
     7
  6
CONTINUOUS
290
     1
370
    -3
390
0
  0
LAYER
  5
FD0
100
AcDbSymbolTableRecord
100
AcDbLayerTableRecord
  2
15100_BACK_DIM
 70
     0
 62
     7
  6
CONTINUOUS
290
     1
370
    -3
390
0
  0
ENDTAB
  0
TABLE
  2
STYLE
  5
FAE
100
AcDbSymbolTable
 70
     1
  0
STYLE
  5
FD5
100
AcDbSymbolTableRecord
100
AcDbTextStyleTableRecord
  2
STANDARD
 70
     0
 40
0.0
 41
1.0
 50
0.0
 71
     0
 42
0.2
  3
txt.shx
  4

  0
ENDTAB
  0
TABLE
  2
VIEW
  5
FB0
100
AcDbSymbolTable
 70
     0
  0
ENDTAB
  0
TABLE
  2
UCS
  5
FB1
100
AcDbSymbolTable
 70
     0
  0
ENDTAB
  0
TABLE
  2
APPID
  5
FB3
100
AcDbSymbolTable
 70
     3
  0
APPID
  5
FD2
100
AcDbSymbolTableRecord
100
AcDbRegAppTableRecord
  2
ACAD
 70
     0
  0
APPID
  5
FD3
100
AcDbSymbolTableRecord
100
AcDbRegAppTableRecord
  2
AUSTER_ANSICHT
 70
     0
  0
APPID
  5
FD4
100
AcDbSymbolTableRecord
100
AcDbRegAppTableRecord
  2
AUSTER_FOLIE
 70
     0
  0
ENDTAB
  0
TABLE
  2
DIMSTYLE
  5
FB4
100
AcDbSymbolTable
 70
     3
100
AcDbDimStyleTable
 71
     0
  0
DIMSTYLE
105
FDF
100
AcDbSymbolTableRecord
100
AcDbDimStyleTableRecord
  2
STANDARD
 70
     0
  3

  4

 40
1.0
 41
0.18
 42
0.0625
 43
0.38
 44
0.18
 45
0.0
 46
0.0
 47
0.0
 48
0.0
 71
     0
 72
     0
 73
     1
 74
     1
 75
     0
 76
     0
 77
     0
 78
     0
 79
     0
140
0.18
141
0.09
142
0.0
143
25.4
144
1.0
145
0.0
146
1.0
147
0.09
148
0.0
170
     0
171
     2
172
     0
173
     0
174
     0
175
     0
176
     0
177
     0
178
     0
179
     0
271
     4
272
     4
273
     2
274
     2
275
     0
276
     0
277
     2
278
    46
279
     0
280
     0
281
     0
282
     0
283
     1
284
     0
285
     0
286
     0
288
     0
289
     3
340
FD5
341
0
342
0
343
0
344
0
371
    -2
372
    -2
  0
DIMSTYLE
105
FE0
100
AcDbSymbolTableRecord
100
AcDbDimStyleTableRecord
  2
DSTYLE1
 70
     0
  3

  4

 40
1.0
 41
3.0
 42
0.0
 43
0.38
 44
1.0
 45
0.0
 46
0.0
 47
0.0
 48
0.0
 71
     0
 72
     0
 73
     0
 74
     0
 75
     0
 76
     0
 77
     1
 78
     3
 79
     0
140
2.5
141
0.09
142
0.0
143
0.03937
144
1.0
145
0.0
146
1.0
147
1.0
148
0.0
170
     0
171
     2
172
     0
173
     0
174
     0
175
     0
176
     0
177
     0
178
     0
179
     0
271
     4
272
     4
273
     2
274
     2
275
     0
276
     0
277
     2
278
    46
279
     0
280
     0
281
     0
282
     0
283
     1
284
     0
285
     0
286
     0
288
     0
289
     3
340
FD5
341
0
342
0
343
0
344
0
371
    -2
372
    -2
  0
DIMSTYLE
105
FE1
100
AcDbSymbolTableRecord
100
AcDbDimStyleTableRecord
  2
H035
 70
     0
  3

  4

 40
0.0
 41
3.5
 42
0.0
 43
3.75
 44
2.0
 45
0.0
 46
0.0
 47
0.0
 48
0.0
 71
     0
 72
     0
 73
     0
 74
     0
 75
     0
 76
     0
 77
     1
 78
     8
 79
     0
140
3.5
141
2.5
142
0.0
143
0.039
144
1.0
145
0.0
146
1.0
147
0.5
148
0.0
170
     0
171
     4
172
     1
173
     0
174
     0
175
     0
176
   256
177
     7
178
     7
179
     0
271
     4
272
     4
273
     2
274
     2
275
     0
276
     0
277
     2
278
    46
279
     0
280
     0
281
     0
282
     0
283
     1
284
     0
285
     0
286
     0
288
     0
289
     3
340
FD5
341
0
342
0
343
0
344
0
371
    -2
372
    -2
  0
ENDTAB
  0
TABLE
  2
BLOCK_RECORD
  5
FDA
100
AcDbSymbolTable
 70
     2
  0
BLOCK_RECORD
  5
FD8
100
AcDbSymbolTableRecord
100
AcDbBlockTableRecord
  2
*Model_Space
340
0
  0
BLOCK_RECORD
  5
FD9
100
AcDbSymbolTableRecord
100
AcDbBlockTableRecord
  2
*Paper_Space
340
0
  0
BLOCK_RECORD
  5
FD6
100
AcDbSymbolTableRecord
100
AcDbBlockTableRecord
  2
$MODEL_SPACE
340
0
  0
BLOCK_RECORD
  5
FD7
100
AcDbSymbolTableRecord
100
AcDbBlockTableRecord
  2
$PAPER_SPACE
340
0
  0
ENDTAB
  0
ENDSEC
  0
SECTION
  2
BLOCKS
  0
BLOCK
  5
FDB
100
AcDbEntity
  8
0
390
0
100
AcDbBlockBegin
  2
*Model_Space
 70
     0
 10
0.0
 20
0.0
 30
0.0
  3
*Model_Space
  1

  0
ENDBLK
  5
FDC
100
AcDbEntity
  8
0
390
0
100
AcDbBlockEnd
  0
BLOCK
  5
FDD
100
AcDbEntity
 67
     1
  8
0
390
0
100
AcDbBlockBegin
  2
*Paper_Space
 70
     0
 10
0.0
 20
0.0
 30
0.0
  3
*Paper_Space
  1

  0
ENDBLK
  5
FDE
100
AcDbEntity
 67
     1
  8
0
390
0
100
AcDbBlockEnd
  0
BLOCK
  5
FE2
100
AcDbEntity
  8
0
100
AcDbBlockBegin
  2
$MODEL_SPACE
 70
     0
 10
0.0
 20
0.0
 30
0.0
  3
$MODEL_SPACE
  1

  0
ENDBLK
  5
21
100
AcDbEntity
  8
0
100
AcDbBlockEnd
  0
BLOCK
  5
FE3
100
AcDbEntity
  8
0
100
AcDbBlockBegin
  2
$PAPER_SPACE
 70
     0
 10
0.0
 20
0.0
 30
0.0
  3
$PAPER_SPACE
  1

  0
ENDBLK
  5
76
100
AcDbEntity
  8
0
100
AcDbBlockEnd
  0
ENDSEC
  0
SECTION
  2
ENTITIES
  0
LINE
  5
FE9
100
AcDbEntity
  8
10000_FRONT
370
    25
390
0
  6
CONTINUOUS
 62
     7
100
AcDbLine
 10
437.225
 20
907.083221
 30
0.0
 11
437.225
 21
927.875
 31
0.0
  0
LINE
  5
FEA
100
AcDbEntity
  8
10000_FRONT
370
    25
390
0
  6
CONTINUOUS
 62
     7
100
AcDbLine
 10
437.225
 20
906.175003
 30
0.0
 11
437.225
 21
907.083221
 31
0.0
  0
LINE
  5
FEB
100
AcDbEntity
  8
10000_FRONT
370
    25
390
0
  6
CONTINUOUS
 62
     7
100
AcDbLine
 10
344.325002
 20
906.175003
 30
0.0
 11
437.225
 21
906.175003
 31
0.0
  0
LINE
  5
FEC
100
AcDbEntity
  8
10000_FRONT
370
    25
390
0
  6
CONTINUOUS
 62
     7
100
AcDbLine
 10
344.325002
 20
907.083221
 30
0.0
 11
437.225
 21
907.083221
 31
0.0
  0
LINE
  5
FED
100
AcDbEntity
  8
10000_FRONT
370
    25
390
0
  6
CONTINUOUS
 62
     7
100
AcDbLine
 10
344.325002
 20
906.175003
 30
0.0
 11
344.325002
 21
907.083221
 31
0.0
  0
LINE
  5
FEE
100
AcDbEntity
  8
10000_FRONT
370
    25
390
0
  6
CONTINUOUS
 62
     7
100
AcDbLine
 10
344.325002
 20
927.875
 30
0.0
 11
344.325002
 21
907.083221
 31
0.0
  0
LINE
  5
FEF
100
AcDbEntity
  8
10000_FRONT
370
    25
390
0
  6
CONTINUOUS
 62
     7
100
AcDbLine
 10
344.325002
 20
1096.666777
 30
0.0
 11
344.325002
 21
1075.875
 31
0.0
  0
LINE
  5
FF0
100
AcDbEntity
  8
10000_FRONT
370
    25
390
0
  6
CONTINUOUS
 62
     7
100
AcDbLine
 10
344.325002
 20
1096.666777
 30
0.0
 11
344.325002
 21
1097.575
 31
0.0
  0
LINE
  5
FF1
100
AcDbEntity
  8
10000_FRONT
370
    25
390
0
  6
CONTINUOUS
 62
     7
100
AcDbLine
 10
437.225
 20
1097.575
 30
0.0
 11
344.325002
 21
1097.575
 31
0.0
  0
LINE
  5
FF2
100
AcDbEntity
  8
10000_FRONT
370
    25
390
0
  6
CONTINUOUS
 62
     7
100
AcDbLine
 10
437.225
 20
1096.666777
 30
0.0
 11
344.325002
 21
1096.666777
 31
0.0
  0
LINE
  5
FF3
100
AcDbEntity
  8
10000_FRONT
370
    25
390
0
  6
CONTINUOUS
 62
     7
100
AcDbLine
 10
437.225
 20
1096.666777
 30
0.0
 11
437.225
 21
1097.575
 31
0.0
  0
LINE
  5
FF4
100
AcDbEntity
  8
10000_FRONT
370
    25
390
0
  6
CONTINUOUS
 62
     7
100
AcDbLine
 10
437.225
 20
1075.875
 30
0.0
 11
437.225
 21
1096.666777
 31
0.0
  0
ARC
  5
FF5
100
AcDbEntity
  8
10000_FRONT
370
    25
390
0
  6
CONTINUOUS
 62
     7
100
AcDbCircle
 10
395.274999
 20
935.075
 30
0.0
 40
3.1
100
AcDbArc
 50
180.000056
 51
0.0
  0
ARC
  5
FF6
100
AcDbEntity
  8
10000_FRONT
370
    25
390
0
  6
CONTINUOUS
 62
     7
100
AcDbCircle
 10
402.474999
 20
935.075
 30
0.0
 40
3.1
100
AcDbArc
 50
180.000056
 51
0.0
  0
ARC
  5
FF7
100
AcDbEntity
  8
10000_FRONT
370
    25
390
0
  6
CONTINUOUS
 62
     7
100
AcDbCircle
 10
409.674999
 20
935.075
 30
0.0
 40
3.1
100
AcDbArc
 50
180.000056
 51
0.0
  0
ARC
  5
FF8
100
AcDbEntity
  8
10000_FRONT
370
    25
390
0
  6
CONTINUOUS
 62
     7
100
AcDbCircle
 10
416.874999
 20
935.075
 30
0.0
 40
3.1
100
AcDbArc
 50
180.000056
 51
0.0
  0
ARC
  5
FF9
100
AcDbEntity
  8
10000_FRONT
370
    25
390
0
  6
CONTINUOUS
 62
     7
100
AcDbCircle
 10
424.074999
 20
935.075
 30
0.0
 40
3.1
100
AcDbArc
 50
180.000056
 51
0.0
  0
ARC
  5
FFA
100
AcDbEntity
  8
10000_FRONT
370
    25
390
0
  6
CONTINUOUS
 62
     7
100
AcDbCircle
 10
431.274999
 20
935.075
 30
0.0
 40
3.1
100
AcDbArc
 50
180.000056
 51
0.0
  0
LINE
  5
FFB
100
AcDbEntity
  8
10000_FRONT
370
    25
390
0
  6
CONTINUOUS
 62
     7
100
AcDbLine
 10
393.074998
 20
927.875
 30
0.0
 11
390.874999
 21
927.875
 31
0.0
  0
LINE
  5
FFC
100
AcDbEntity
  8
10000_FRONT
370
    25
390
0
  6
CONTINUOUS
 62
     7
100
AcDbLine
 10
393.074998
 20
928.3797
 30
0.0
 11
393.074998
 21
927.875
 31
0.0
  0
LINE
  5
FFD
100
AcDbEntity
  8
10000_FRONT
370
    25
390
0
  6
CONTINUOUS
 62
     7
100
AcDbLine
 10
397.475
 20
928.3797
 30
0.0
 11
393.074998
 21
928.3797
 31
0.0
  0
LINE
  5
FFE
100
AcDbEntity
  8
10000_FRONT
370
    25
390
0
  6
CONTINUOUS
 62
     7
100
AcDbLine
 10
397.475
 20
927.875
 30
0.0
 11
397.475
 21
928.3797
 31
0.0
  0
LINE
  5
FFF
100
AcDbEntity
  8
10000_FRONT
370
    25
390
0
  6
CONTINUOUS
 62
     7
100
AcDbLine
 10
400.274999
 20
927.875
 30
0.0
 11
397.475
 21
927.875
 31
0.0
  0
LINE
  5
1000
100
AcDbEntity
  8
10000_FRONT
370
    25
390
0
  6
CONTINUOUS
 62
     7
100
AcDbLine
 10
400.274999
 20
928.3797
 30
0.0
 11
400.274999
 21
927.875
 31
0.0
  0
LINE
  5
1001
100
AcDbEntity
  8
10000_FRONT
370
    25
390
0
  6
CONTINUOUS
 62
     7
100
AcDbLine
 10
404.674999
 20
928.3797
 30
0.0
 11
400.274999
 21
928.3797
 31
0.0
  0
LINE
  5
1002
100
AcDbEntity
  8
10000_FRONT
370
    25
390
0
  6
CONTINUOUS
 62
     7
100
AcDbLine
 10
404.674999
 20
927.875
 30
0.0
 11
404.674999
 21
928.3797
 31
0.0
  0
LINE
  5
1003
100
AcDbEntity
  8
10000_FRONT
370
    25
390
0
  6
CONTINUOUS
 62
     7
100
AcDbLine
 10
407.474999
 20
927.875
 30
0.0
 11
404.674999
 21
927.875
 31
0.0
  0
LINE
  5
1004
100
AcDbEntity
  8
10000_FRONT
370
    25
390
0
  6
CONTINUOUS
 62
     7
100
AcDbLine
 10
407.474999
 20
928.3797
 30
0.0
 11
407.474999
 21
927.875
 31
0.0
  0
LINE
  5
1005
100
AcDbEntity
  8
10000_FRONT
370
    25
390
0
  6
CONTINUOUS
 62
     7
100
AcDbLine
 10
411.874999
 20
928.3797
 30
0.0
 11
407.474999
 21
928.3797
 31
0.0
  0
LINE
  5
1006
100
AcDbEntity
  8
10000_FRONT
370
    25
390
0
  6
CONTINUOUS
 62
     7
100
AcDbLine
 10
419.074999
 20
927.875
 30
0.0
 11
419.074999
 21
928.3797
 31
0.0
  0
LINE
  5
1007
100
AcDbEntity
  8
10000_FRONT
370
    25
390
0
  6
CONTINUOUS
 62
     7
100
AcDbLine
 10
411.874999
 20
927.875
 30
0.0
 11
411.874999
 21
928.3797
 31
0.0
  0
LINE
  5
1008
100
AcDbEntity
  8
10000_FRONT
370
    25
390
0
  6
CONTINUOUS
 62
     7
100
AcDbLine
 10
414.674999
 20
927.875
 30
0.0
 11
411.874999
 21
927.875
 31
0.0
  0
LINE
  5
1009
100
AcDbEntity
  8
10000_FRONT
370
    25
390
0
  6
CONTINUOUS
 62
     7
100
AcDbLine
 10
435.674999
 20
941.875
 30
0.0
 11
435.674999
 21
942.025009
 31
0.0
  0
LINE
  5
100A
100
AcDbEntity
  8
10000_FRONT
370
    25
390
0
  6
CONTINUOUS
 62
     7
100
AcDbLine
 10
390.874999
 20
942.025009
 30
0.0
 11
390.874999
 21
941.875
 31
0.0
  0
LINE
  5
100B
100
AcDbEntity
  8
10000_FRONT
370
    25
390
0
  6
CONTINUOUS
 62
     7
100
AcDbLine
 10
432.674999
 20
940.875
 30
0.0
 11
432.674999
 21
941.875
 31
0.0
  0
LINE
  5
100C
100
AcDbEntity
  8
10000_FRONT
370
    25
390
0
  6
CONTINUOUS
 62
     7
100
AcDbLine
 10
434.674999
 20
940.875
 30
0.0
 11
432.674999
 21
940.875
 31
0.0
  0
LINE
  5
100D
100
AcDbEntity
  8
10000_FRONT
370
    25
390
0
  6
CONTINUOUS
 62
     7
100
AcDbLine
 10
434.674999
 20
938.875
 30
0.0
 11
434.674999
 21
940.875
 31
0.0
  0
LINE
  5
100E
100
AcDbEntity
  8
10000_FRONT
370
    25
390
0
  6
CONTINUOUS
 62
     7
100
AcDbLine
 10
391.874999
 20
938.875
 30
0.0
 11
434.674999
 21
938.875
 31
0.0
  0
LINE
  5
100F
100
AcDbEntity
  8
10000_FRONT
370
    25
390
0
  6
CONTINUOUS
 62
     7
100
AcDbLine
 10
391.874999
 20
940.875
 30
0.0
 11
391.874999
 21
938.875
 31
0.0
  0
LINE
  5
1010
100
AcDbEntity
  8
10000_FRONT
370
    25
390
0
  6
CONTINUOUS
 62
     7
100
AcDbLine
 10
393.874999
 20
940.875
 30
0.0
 11
391.874999
 21
940.875
 31
0.0
  0
LINE
  5
1011
100
AcDbEntity
  8
10000_FRONT
370
    25
390
0
  6
CONTINUOUS
 62
     7
100
AcDbLine
 10
393.874999
 20
941.875
 30
0.0
 11
393.874999
 21
940.875
 31
0.0
  0
LINE
  5
1012
100
AcDbEntity
  8
10000_FRONT
370
    25
390
0
  6
CONTINUOUS
 62
     7
100
AcDbLine
 10
390.874999
 20
941.875
 30
0.0
 11
393.874999
 21
941.875
 31
0.0
  0
ARC
  5
1013
100
AcDbEntity
  8
10000_FRONT
370
    25
390
0
  6
CONTINUOUS
 62
     7
100
AcDbCircle
 10
431.274999
 20
935.075
 30
0.0
 40
3.1
100
AcDbArc
 50
0.0
 51
180.000056
  0
ARC
  5
1014
100
AcDbEntity
  8
10000_FRONT
370
    25
390
0
  6
CONTINUOUS
 62
     7
100
AcDbCircle
 10
424.074999
 20
935.075
 30
0.0
 40
3.1
100
AcDbArc
 50
0.0
 51
180.000056
  0
ARC
  5
1015
100
AcDbEntity
  8
10000_FRONT
370
    25
390
0
  6
CONTINUOUS
 62
     7
100
AcDbCircle
 10
416.874999
 20
935.075
 30
0.0
 40
3.1
100
AcDbArc
 50
0.0
 51
180.000056
  0
ARC
  5
1016
100
AcDbEntity
  8
10000_FRONT
370
    25
390
0
  6
CONTINUOUS
 62
     7
100
AcDbCircle
 10
409.674999
 20
935.075
 30
0.0
 40
3.1
100
AcDbArc
 50
0.0
 51
180.000056
  0
ARC
  5
1017
100
AcDbEntity
  8
10000_FRONT
370
    25
390
0
  6
CONTINUOUS
 62
     7
100
AcDbCircle
 10
402.474999
 20
935.075
 30
0.0
 40
3.1
100
AcDbArc
 50
0.0
 51
180.000056
  0
ARC
  5
1018
100
AcDbEntity
  8
10000_FRONT
370
    25
390
0
  6
CONTINUOUS
 62
     7
100
AcDbCircle
 10
395.274999
 20
935.075
 30
0.0
 40
3.1
100
AcDbArc
 50
0.0
 51
180.000056
  0
LINE
  5
1019
100
AcDbEntity
  8
10000_FRONT
370
    25
390
0
  6
CONTINUOUS
 62
     7
100
AcDbLine
 10
414.674999
 20
928.3797
 30
0.0
 11
414.674999
 21
927.875
 31
0.0
  0
LINE
  5
101A
100
AcDbEntity
  8
10000_FRONT
370
    25
390
0
  6
CONTINUOUS
 62
     7
100
AcDbLine
 10
419.074999
 20
928.3797
 30
0.0
 11
414.674999
 21
928.3797
 31
0.0
  0
LINE
  5
101B
100
AcDbEntity
  8
10000_FRONT
370
    25
390
0
  6
CONTINUOUS
 62
     7
100
AcDbLine
 10
421.874999
 20
927.875
 30
0.0
 11
419.074999
 21
927.875
 31
0.0
  0
LINE
  5
101C
100
AcDbEntity
  8
10000_FRONT
370
    25
390
0
  6
CONTINUOUS
 62
     7
100
AcDbLine
 10
421.874999
 20
928.3797
 30
0.0
 11
421.874999
 21
927.875
 31
0.0
  0
LINE
  5
101D
100
AcDbEntity
  8
10000_FRONT
370
    25
390
0
  6
CONTINUOUS
 62
     7
100
AcDbLine
 10
426.274999
 20
928.3797
 30
0.0
 11
421.874999
 21
928.3797
 31
0.0
  0
LINE
  5
101E
100
AcDbEntity
  8
10000_FRONT
370
    25
390
0
  6
CONTINUOUS
 62
     7
100
AcDbLine
 10
426.274999
 20
927.875
 30
0.0
 11
426.274999
 21
928.3797
 31
0.0
  0
LINE
  5
101F
100
AcDbEntity
  8
10000_FRONT
370
    25
390
0
  6
CONTINUOUS
 62
     7
100
AcDbLine
 10
429.074999
 20
927.875
 30
0.0
 11
426.274999
 21
927.875
 31
0.0
  0
LINE
  5
1020
100
AcDbEntity
  8
10000_FRONT
370
    25
390
0
  6
CONTINUOUS
 62
     7
100
AcDbLine
 10
429.074999
 20
928.3797
 30
0.0
 11
429.074999
 21
927.875
 31
0.0
  0
LINE
  5
1021
100
AcDbEntity
  8
10000_FRONT
370
    25
390
0
  6
CONTINUOUS
 62
     7
100
AcDbLine
 10
433.475
 20
928.3797
 30
0.0
 11
429.074999
 21
928.3797
 31
0.0
  0
LINE
  5
1022
100
AcDbEntity
  8
10000_FRONT
370
    25
390
0
  6
CONTINUOUS
 62
     7
100
AcDbLine
 10
433.475
 20
927.875
 30
0.0
 11
433.475
 21
928.3797
 31
0.0
  0
LINE
  5
1023
100
AcDbEntity
  8
10000_FRONT
370
    25
390
0
  6
CONTINUOUS
 62
     7
100
AcDbLine
 10
435.674999
 20
927.875
 30
0.0
 11
433.475
 21
927.875
 31
0.0
  0
LINE
  5
1024
100
AcDbEntity
  8
10000_FRONT
370
    25
390
0
  6
CONTINUOUS
 62
     7
100
AcDbLine
 10
435.674999
 20
941.875
 30
0.0
 11
435.674999
 21
927.875
 31
0.0
  0
LINE
  5
1025
100
AcDbEntity
  8
10000_FRONT
370
    25
390
0
  6
CONTINUOUS
 62
     7
100
AcDbLine
 10
432.674999
 20
941.875
 30
0.0
 11
435.674999
 21
941.875
 31
0.0
  0
LINE
  5
1026
100
AcDbEntity
  8
10000_FRONT
370
    25
390
0
  6
CONTINUOUS
 62
     7
100
AcDbLine
 10
390.874999
 20
927.875
 30
0.0
 11
390.874999
 21
941.875
 31
0.0
  0
ARC
  5
1027
100
AcDbEntity
  8
10000_FRONT
370
    25
390
0
  6
CONTINUOUS
 62
     7
100
AcDbCircle
 10
350.274999
 20
935.075
 30
0.0
 40
3.1
100
AcDbArc
 50
180.000056
 51
0.0
  0
ARC
  5
1028
100
AcDbEntity
  8
10000_FRONT
370
    25
390
0
  6
CONTINUOUS
 62
     7
100
AcDbCircle
 10
357.474999
 20
935.075
 30
0.0
 40
3.1
100
AcDbArc
 50
180.000056
 51
0.0
  0
ARC
  5
1029
100
AcDbEntity
  8
10000_FRONT
370
    25
390
0
  6
CONTINUOUS
 62
     7
100
AcDbCircle
 10
364.674999
 20
935.075
 30
0.0
 40
3.1
100
AcDbArc
 50
180.000056
 51
0.0
  0
ARC
  5
102A
100
AcDbEntity
  8
10000_FRONT
370
    25
390
0
  6
CONTINUOUS
 62
     7
100
AcDbCircle
 10
371.874999
 20
935.075
 30
0.0
 40
3.1
100
AcDbArc
 50
180.000056
 51
0.0
  0
ARC
  5
102B
100
AcDbEntity
  8
10000_FRONT
370
    25
390
0
  6
CONTINUOUS
 62
     7
100
AcDbCircle
 10
379.074999
 20
935.075
 30
0.0
 40
3.1
100
AcDbArc
 50
180.000056
 51
0.0
  0
ARC
  5
102C
100
AcDbEntity
  8
10000_FRONT
370
    25
390
0
  6
CONTINUOUS
 62
     7
100
AcDbCircle
 10
386.274999
 20
935.075
 30
0.0
 40
3.1
100
AcDbArc
 50
180.000056
 51
0.0
  0
LINE
  5
102D
100
AcDbEntity
  8
10000_FRONT
370
    25
390
0
  6
CONTINUOUS
 62
     7
100
AcDbLine
 10
348.075002
 20
927.875
 30
0.0
 11
345.874997
 21
927.875
 31
0.0
  0
LINE
  5
102E
100
AcDbEntity
  8
10000_FRONT
370
    25
390
0
  6
CONTINUOUS
 62
     7
100
AcDbLine
 10
348.075002
 20
928.3797
 30
0.0
 11
348.075002
 21
927.875
 31
0.0
  0
LINE
  5
102F
100
AcDbEntity
  8
10000_FRONT
370
    25
390
0
  6
CONTINUOUS
 62
     7
100
AcDbLine
 10
352.475
 20
928.3797
 30
0.0
 11
348.075002
 21
928.3797
 31
0.0
  0
LINE
  5
1030
100
AcDbEntity
  8
10000_FRONT
370
    25
390
0
  6
CONTINUOUS
 62
     7
100
AcDbLine
 10
352.475
 20
927.875
 30
0.0
 11
352.475
 21
928.3797
 31
0.0
  0
LINE
  5
1031
100
AcDbEntity
  8
10000_FRONT
370
    25
390
0
  6
CONTINUOUS
 62
     7
100
AcDbLine
 10
355.274999
 20
927.875
 30
0.0
 11
352.475
 21
927.875
 31
0.0
  0
LINE
  5
1032
100
AcDbEntity
  8
10000_FRONT
370
    25
390
0
  6
CONTINUOUS
 62
     7
100
AcDbLine
 10
355.274999
 20
928.3797
 30
0.0
 11
355.274999
 21
927.875
 31
0.0
  0
LINE
  5
1033
100
AcDbEntity
  8
10000_FRONT
370
    25
390
0
  6
CONTINUOUS
 62
     7
100
AcDbLine
 10
359.675001
 20
928.3797
 30
0.0
 11
355.274999
 21
928.3797
 31
0.0
  0
LINE
  5
1034
100
AcDbEntity
  8
10000_FRONT
370
    25
390
0
  6
CONTINUOUS
 62
     7
100
AcDbLine
 10
359.675001
 20
927.875
 30
0.0
 11
359.675001
 21
928.3797
 31
0.0
  0
LINE
  5
1035
100
AcDbEntity
  8
10000_FRONT
370
    25
390
0
  6
CONTINUOUS
 62
     7
100
AcDbLine
 10
362.475
 20
927.875
 30
0.0
 11
359.675001
 21
927.875
 31
0.0
  0
LINE
  5
1036
100
AcDbEntity
  8
10000_FRONT
370
    25
390
0
  6
CONTINUOUS
 62
     7
100
AcDbLine
 10
362.475
 20
928.3797
 30
0.0
 11
362.475
 21
927.875
 31
0.0
  0
LINE
  5
1037
100
AcDbEntity
  8
10000_FRONT
370
    25
390
0
  6
CONTINUOUS
 62
     7
100
AcDbLine
 10
366.874997
 20
928.3797
 30
0.0
 11
362.475
 21
928.3797
 31
0.0
  0
LINE
  5
1038
100
AcDbEntity
  8
10000_FRONT
370
    25
390
0
  6
CONTINUOUS
 62
     7
100
AcDbLine
 10
374.074998
 20
927.875
 30
0.0
 11
374.074998
 21
928.3797
 31
0.0
  0
LINE
  5
1039
100
AcDbEntity
  8
10000_FRONT
370
    25
390
0
  6
CONTINUOUS
 62
     7
100
AcDbLine
 10
366.874997
 20
927.875
 30
0.0
 11
366.874997
 21
928.3797
 31
0.0
  0
LINE
  5
103A
100
AcDbEntity
  8
10000_FRONT
370
    25
390
0
  6
CONTINUOUS
 62
     7
100
AcDbLine
 10
369.675001
 20
927.875
 30
0.0
 11
366.874997
 21
927.875
 31
0.0
  0
LINE
  5
103B
100
AcDbEntity
  8
10000_FRONT
370
    25
390
0
  6
CONTINUOUS
 62
     7
100
AcDbLine
 10
390.674999
 20
941.875
 30
0.0
 11
390.674999
 21
942.025009
 31
0.0
  0
LINE
  5
103C
100
AcDbEntity
  8
10000_FRONT
370
    25
390
0
  6
CONTINUOUS
 62
     7
100
AcDbLine
 10
345.874997
 20
942.025009
 30
0.0
 11
345.874997
 21
941.875
 31
0.0
  0
LINE
  5
103D
100
AcDbEntity
  8
10000_FRONT
370
    25
390
0
  6
CONTINUOUS
 62
     7
100
AcDbLine
 10
387.674999
 20
940.875
 30
0.0
 11
387.674999
 21
941.875
 31
0.0
  0
LINE
  5
103E
100
AcDbEntity
  8
10000_FRONT
370
    25
390
0
  6
CONTINUOUS
 62
     7
100
AcDbLine
 10
389.674999
 20
940.875
 30
0.0
 11
387.674999
 21
940.875
 31
0.0
  0
LINE
  5
103F
100
AcDbEntity
  8
10000_FRONT
370
    25
390
0
  6
CONTINUOUS
 62
     7
100
AcDbLine
 10
389.674999
 20
938.875
 30
0.0
 11
389.674999
 21
940.875
 31
0.0
  0
LINE
  5
1040
100
AcDbEntity
  8
10000_FRONT
370
    25
390
0
  6
CONTINUOUS
 62
     7
100
AcDbLine
 10
346.874997
 20
938.875
 30
0.0
 11
389.674999
 21
938.875
 31
0.0
  0
LINE
  5
1041
100
AcDbEntity
  8
10000_FRONT
370
    25
390
0
  6
CONTINUOUS
 62
     7
100
AcDbLine
 10
346.874997
 20
940.875
 30
0.0
 11
346.874997
 21
938.875
 31
0.0
  0
LINE
  5
1042
100
AcDbEntity
  8
10000_FRONT
370
    25
390
0
  6
CONTINUOUS
 62
     7
100
AcDbLine
 10
348.874997
 20
940.875
 30
0.0
 11
346.874997
 21
940.875
 31
0.0
  0
LINE
  5
1043
100
AcDbEntity
  8
10000_FRONT
370
    25
390
0
  6
CONTINUOUS
 62
     7
100
AcDbLine
 10
348.874997
 20
941.875
 30
0.0
 11
348.874997
 21
940.875
 31
0.0
  0
LINE
  5
1044
100
AcDbEntity
  8
10000_FRONT
370
    25
390
0
  6
CONTINUOUS
 62
     7
100
AcDbLine
 10
345.874997
 20
941.875
 30
0.0
 11
348.874997
 21
941.875
 31
0.0
  0
ARC
  5
1045
100
AcDbEntity
  8
10000_FRONT
370
    25
390
0
  6
CONTINUOUS
 62
     7
100
AcDbCircle
 10
386.274999
 20
935.075
 30
0.0
 40
3.1
100
AcDbArc
 50
0.0
 51
180.000056
  0
ARC
  5
1046
100
AcDbEntity
  8
10000_FRONT
370
    25
390
0
  6
CONTINUOUS
 62
     7
100
AcDbCircle
 10
379.074999
 20
935.075
 30
0.0
 40
3.1
100
AcDbArc
 50
0.0
 51
180.000056
  0
ARC
  5
1047
100
AcDbEntity
  8
10000_FRONT
370
    25
390
0
  6
CONTINUOUS
 62
     7
100
AcDbCircle
 10
371.874999
 20
935.075
 30
0.0
 40
3.1
100
AcDbArc
 50
0.0
 51
180.000056
  0
ARC
  5
1048
100
AcDbEntity
  8
10000_FRONT
370
    25
390
0
  6
CONTINUOUS
 62
     7
100
AcDbCircle
 10
364.674999
 20
935.075
 30
0.0
 40
3.1
100
AcDbArc
 50
0.0
 51
180.000056
  0
ARC
  5
1049
100
AcDbEntity
  8
10000_FRONT
370
    25
390
0
  6
CONTINUOUS
 62
     7
100
AcDbCircle
 10
357.474999
 20
935.075
 30
0.0
 40
3.1
100
AcDbArc
 50
0.0
 51
180.000056
  0
ARC
  5
104A
100
AcDbEntity
  8
10000_FRONT
370
    25
390
0
  6
CONTINUOUS
 62
     7
100
AcDbCircle
 10
350.274999
 20
935.075
 30
0.0
 40
3.1
100
AcDbArc
 50
0.0
 51
180.000056
  0
LINE
  5
104B
100
AcDbEntity
  8
10000_FRONT
370
    25
390
0
  6
CONTINUOUS
 62
     7
100
AcDbLine
 10
369.675001
 20
928.3797
 30
0.0
 11
369.675001
 21
927.875
 31
0.0
  0
LINE
  5
104C
100
AcDbEntity
  8
10000_FRONT
370
    25
390
0
  6
CONTINUOUS
 62
     7
100
AcDbLine
 10
374.074998
 20
928.3797
 30
0.0
 11
369.675001
 21
928.3797
 31
0.0
  0
LINE
  5
104D
100
AcDbEntity
  8
10000_FRONT
370
    25
390
0
  6
CONTINUOUS
 62
     7
100
AcDbLine
 10
376.874997
 20
927.875
 30
0.0
 11
374.074998
 21
927.875
 31
0.0
  0
LINE
  5
104E
100
AcDbEntity
  8
10000_FRONT
370
    25
390
0
  6
CONTINUOUS
 62
     7
100
AcDbLine
 10
376.874997
 20
928.3797
 30
0.0
 11
376.874997
 21
927.875
 31
0.0
  0
LINE
  5
104F
100
AcDbEntity
  8
10000_FRONT
370
    25
390
0
  6
CONTINUOUS
 62
     7
100
AcDbLine
 10
381.274999
 20
928.3797
 30
0.0
 11
376.874997
 21
928.3797
 31
0.0
  0
LINE
  5
1050
100
AcDbEntity
  8
10000_FRONT
370
    25
390
0
  6
CONTINUOUS
 62
     7
100
AcDbLine
 10
381.274999
 20
927.875
 30
0.0
 11
381.274999
 21
928.3797
 31
0.0
  0
LINE
  5
1051
100
AcDbEntity
  8
10000_FRONT
370
    25
390
0
  6
CONTINUOUS
 62
     7
100
AcDbLine
 10
384.074998
 20
927.875
 30
0.0
 11
381.274999
 21
927.875
 31
0.0
  0
LINE
  5
1052
100
AcDbEntity
  8
10000_FRONT
370
    25
390
0
  6
CONTINUOUS
 62
     7
100
AcDbLine
 10
384.074998
 20
928.3797
 30
0.0
 11
384.074998
 21
927.875
 31
0.0
  0
LINE
  5
1053
100
AcDbEntity
  8
10000_FRONT
370
    25
390
0
  6
CONTINUOUS
 62
     7
100
AcDbLine
 10
388.475
 20
928.3797
 30
0.0
 11
384.074998
 21
928.3797
 31
0.0
  0
LINE
  5
1054
100
AcDbEntity
  8
10000_FRONT
370
    25
390
0
  6
CONTINUOUS
 62
     7
100
AcDbLine
 10
388.475
 20
927.875
 30
0.0
 11
388.475
 21
928.3797
 31
0.0
  0
LINE
  5
1055
100
AcDbEntity
  8
10000_FRONT
370
    25
390
0
  6
CONTINUOUS
 62
     7
100
AcDbLine
 10
390.674999
 20
927.875
 30
0.0
 11
388.475
 21
927.875
 31
0.0
  0
LINE
  5
1056
100
AcDbEntity
  8
10000_FRONT
370
    25
390
0
  6
CONTINUOUS
 62
     7
100
AcDbLine
 10
390.674999
 20
941.875
 30
0.0
 11
390.674999
 21
927.875
 31
0.0
  0
LINE
  5
1057
100
AcDbEntity
  8
10000_FRONT
370
    25
390
0
  6
CONTINUOUS
 62
     7
100
AcDbLine
 10
387.674999
 20
941.875
 30
0.0
 11
390.674999
 21
941.875
 31
0.0
  0
LINE
  5
1058
100
AcDbEntity
  8
10000_FRONT
370
    25
390
0
  6
CONTINUOUS
 62
     7
100
AcDbLine
 10
345.874997
 20
927.875
 30
0.0
 11
345.874997
 21
941.875
 31
0.0
  0
ARC
  5
1059
100
AcDbEntity
  8
10000_FRONT
370
    25
390
0
  6
CONTINUOUS
 62
     7
100
AcDbCircle
 10
431.274999
 20
1068.675
 30
0.0
 40
3.1
100
AcDbArc
 50
0.0
 51
180.0
  0
ARC
  5
105A
100
AcDbEntity
  8
10000_FRONT
370
    25
390
0
  6
CONTINUOUS
 62
     7
100
AcDbCircle
 10
424.074999
 20
1068.675
 30
0.0
 40
3.1
100
AcDbArc
 50
0.0
 51
180.0
  0
ARC
  5
105B
100
AcDbEntity
  8
10000_FRONT
370
    25
390
0
  6
CONTINUOUS
 62
     7
100
AcDbCircle
 10
416.874999
 20
1068.675
 30
0.0
 40
3.1
100
AcDbArc
 50
0.0
 51
180.0
  0
ARC
  5
105C
100
AcDbEntity
  8
10000_FRONT
370
    25
390
0
  6
CONTINUOUS
 62
     7
100
AcDbCircle
 10
409.674999
 20
1068.675
 30
0.0
 40
3.1
100
AcDbArc
 50
0.0
 51
180.0
  0
ARC
  5
105D
100
AcDbEntity
  8
10000_FRONT
370
    25
390
0
  6
CONTINUOUS
 62
     7
100
AcDbCircle
 10
402.474999
 20
1068.675
 30
0.0
 40
3.1
100
AcDbArc
 50
0.0
 51
180.0
  0
ARC
  5
105E
100
AcDbEntity
  8
10000_FRONT
370
    25
390
0
  6
CONTINUOUS
 62
     7
100
AcDbCircle
 10
395.274999
 20
1068.675
 30
0.0
 40
3.1
100
AcDbArc
 50
0.0
 51
180.0
  0
LINE
  5
105F
100
AcDbEntity
  8
10000_FRONT
370
    25
390
0
  6
CONTINUOUS
 62
     7
100
AcDbLine
 10
433.475
 20
1075.875
 30
0.0
 11
435.674999
 21
1075.875
 31
0.0
  0
LINE
  5
1060
100
AcDbEntity
  8
10000_FRONT
370
    25
390
0
  6
CONTINUOUS
 62
     7
100
AcDbLine
 10
433.475
 20
1075.370308
 30
0.0
 11
433.475
 21
1075.875
 31
0.0
  0
LINE
  5
1061
100
AcDbEntity
  8
10000_FRONT
370
    25
390
0
  6
CONTINUOUS
 62
     7
100
AcDbLine
 10
429.074999
 20
1075.370308
 30
0.0
 11
433.475
 21
1075.370308
 31
0.0
  0
LINE
  5
1062
100
AcDbEntity
  8
10000_FRONT
370
    25
390
0
  6
CONTINUOUS
 62
     7
100
AcDbLine
 10
429.074999
 20
1075.875
 30
0.0
 11
429.074999
 21
1075.370308
 31
0.0
  0
LINE
  5
1063
100
AcDbEntity
  8
10000_FRONT
370
    25
390
0
  6
CONTINUOUS
 62
     7
100
AcDbLine
 10
426.274999
 20
1075.875
 30
0.0
 11
429.074999
 21
1075.875
 31
0.0
  0
LINE
  5
1064
100
AcDbEntity
  8
10000_FRONT
370
    25
390
0
  6
CONTINUOUS
 62
     7
100
AcDbLine
 10
426.274999
 20
1075.370308
 30
0.0
 11
426.274999
 21
1075.875
 31
0.0
  0
LINE
  5
1065
100
AcDbEntity
  8
10000_FRONT
370
    25
390
0
  6
CONTINUOUS
 62
     7
100
AcDbLine
 10
421.874999
 20
1075.370308
 30
0.0
 11
426.274999
 21
1075.370308
 31
0.0
  0
LINE
  5
1066
100
AcDbEntity
  8
10000_FRONT
370
    25
390
0
  6
CONTINUOUS
 62
     7
100
AcDbLine
 10
421.874999
 20
1075.875
 30
0.0
 11
421.874999
 21
1075.370308
 31
0.0
  0
LINE
  5
1067
100
AcDbEntity
  8
10000_FRONT
370
    25
390
0
  6
CONTINUOUS
 62
     7
100
AcDbLine
 10
419.074999
 20
1075.875
 30
0.0
 11
421.874999
 21
1075.875
 31
0.0
  0
LINE
  5
1068
100
AcDbEntity
  8
10000_FRONT
370
    25
390
0
  6
CONTINUOUS
 62
     7
100
AcDbLine
 10
419.074999
 20
1075.370308
 30
0.0
 11
419.074999
 21
1075.875
 31
0.0
  0
LINE
  5
1069
100
AcDbEntity
  8
10000_FRONT
370
    25
390
0
  6
CONTINUOUS
 62
     7
100
AcDbLine
 10
414.674999
 20
1075.370308
 30
0.0
 11
419.074999
 21
1075.370308
 31
0.0
  0
LINE
  5
106A
100
AcDbEntity
  8
10000_FRONT
370
    25
390
0
  6
CONTINUOUS
 62
     7
100
AcDbLine
 10
407.474999
 20
1075.875
 30
0.0
 11
407.474999
 21
1075.370308
 31
0.0
  0
LINE
  5
106B
100
AcDbEntity
  8
10000_FRONT
370
    25
390
0
  6
CONTINUOUS
 62
     7
100
AcDbLine
 10
414.674999
 20
1075.875
 30
0.0
 11
414.674999
 21
1075.370308
 31
0.0
  0
LINE
  5
106C
100
AcDbEntity
  8
10000_FRONT
370
    25
390
0
  6
CONTINUOUS
 62
     7
100
AcDbLine
 10
411.874999
 20
1075.875
 30
0.0
 11
414.674999
 21
1075.875
 31
0.0
  0
LINE
  5
106D
100
AcDbEntity
  8
10000_FRONT
370
    25
390
0
  6
CONTINUOUS
 62
     7
100
AcDbLine
 10
390.874999
 20
1061.875
 30
0.0
 11
390.874999
 21
1061.725008
 31
0.0
  0
LINE
  5
106E
100
AcDbEntity
  8
10000_FRONT
370
    25
390
0
  6
CONTINUOUS
 62
     7
100
AcDbLine
 10
435.674999
 20
1061.725008
 30
0.0
 11
435.674999
 21
1061.875
 31
0.0
  0
LINE
  5
106F
100
AcDbEntity
  8
10000_FRONT
370
    25
390
0
  6
CONTINUOUS
 62
     7
100
AcDbLine
 10
393.874999
 20
1062.875
 30
0.0
 11
393.874999
 21
1061.875
 31
0.0
  0
LINE
  5
1070
100
AcDbEntity
  8
10000_FRONT
370
    25
390
0
  6
CONTINUOUS
 62
     7
100
AcDbLine
 10
391.874999
 20
1062.875
 30
0.0
 11
393.874999
 21
1062.875
 31
0.0
  0
LINE
  5
1071
100
AcDbEntity
  8
10000_FRONT
370
    25
390
0
  6
CONTINUOUS
 62
     7
100
AcDbLine
 10
391.874999
 20
1064.875
 30
0.0
 11
391.874999
 21
1062.875
 31
0.0
  0
LINE
  5
1072
100
AcDbEntity
  8
10000_FRONT
370
    25
390
0
  6
CONTINUOUS
 62
     7
100
AcDbLine
 10
434.674999
 20
1064.875
 30
0.0
 11
391.874999
 21
1064.875
 31
0.0
  0
LINE
  5
1073
100
AcDbEntity
  8
10000_FRONT
370
    25
390
0
  6
CONTINUOUS
 62
     7
100
AcDbLine
 10
434.674999
 20
1062.875
 30
0.0
 11
434.674999
 21
1064.875
 31
0.0
  0
LINE
  5
1074
100
AcDbEntity
  8
10000_FRONT
370
    25
390
0
  6
CONTINUOUS
 62
     7
100
AcDbLine
 10
432.674999
 20
1062.875
 30
0.0
 11
434.674999
 21
1062.875
 31
0.0
  0
LINE
  5
1075
100
AcDbEntity
  8
10000_FRONT
370
    25
390
0
  6
CONTINUOUS
 62
     7
100
AcDbLine
 10
432.674999
 20
1061.875
 30
0.0
 11
432.674999
 21
1062.875
 31
0.0
  0
LINE
  5
1076
100
AcDbEntity
  8
10000_FRONT
370
    25
390
0
  6
CONTINUOUS
 62
     7
100
AcDbLine
 10
435.674999
 20
1061.875
 30
0.0
 11
432.674999
 21
1061.875
 31
0.0
  0
ARC
  5
1077
100
AcDbEntity
  8
10000_FRONT
370
    25
390
0
  6
CONTINUOUS
 62
     7
100
AcDbCircle
 10
395.274999
 20
1068.675
 30
0.0
 40
3.1
100
AcDbArc
 50
180.0
 51
0.0
  0
ARC
  5
1078
100
AcDbEntity
  8
10000_FRONT
370
    25
390
0
  6
CONTINUOUS
 62
     7
100
AcDbCircle
 10
402.474999
 20
1068.675
 30
0.0
 40
3.1
100
AcDbArc
 50
180.0
 51
0.0
  0
ARC
  5
1079
100
AcDbEntity
  8
10000_FRONT
370
    25
390
0
  6
CONTINUOUS
 62
     7
100
AcDbCircle
 10
409.674999
 20
1068.675
 30
0.0
 40
3.1
100
AcDbArc
 50
180.0
 51
0.0
  0
ARC
  5
107A
100
AcDbEntity
  8
10000_FRONT
370
    25
390
0
  6
CONTINUOUS
 62
     7
100
AcDbCircle
 10
416.874999
 20
1068.675
 30
0.0
 40
3.1
100
AcDbArc
 50
180.0
 51
0.0
  0
ARC
  5
107B
100
AcDbEntity
  8
10000_FRONT
370
    25
390
0
  6
CONTINUOUS
 62
     7
100
AcDbCircle
 10
424.074999
 20
1068.675
 30
0.0
 40
3.1
100
AcDbArc
 50
180.0
 51
0.0
  0
ARC
  5
107C
100
AcDbEntity
  8
10000_FRONT
370
    25
390
0
  6
CONTINUOUS
 62
     7
100
AcDbCircle
 10
431.274999
 20
1068.675
 30
0.0
 40
3.1
100
AcDbArc
 50
180.0
 51
0.0
  0
LINE
  5
107D
100
AcDbEntity
  8
10000_FRONT
370
    25
390
0
  6
CONTINUOUS
 62
     7
100
AcDbLine
 10
411.874999
 20
1075.370308
 30
0.0
 11
411.874999
 21
1075.875
 31
0.0
  0
LINE
  5
107E
100
AcDbEntity
  8
10000_FRONT
370
    25
390
0
  6
CONTINUOUS
 62
     7
100
AcDbLine
 10
407.474999
 20
1075.370308
 30
0.0
 11
411.874999
 21
1075.370308
 31
0.0
  0
LINE
  5
107F
100
AcDbEntity
  8
10000_FRONT
370
    25
390
0
  6
CONTINUOUS
 62
     7
100
AcDbLine
 10
404.674999
 20
1075.875
 30
0.0
 11
407.474999
 21
1075.875
 31
0.0
  0
LINE
  5
1080
100
AcDbEntity
  8
10000_FRONT
370
    25
390
0
  6
CONTINUOUS
 62
     7
100
AcDbLine
 10
404.674999
 20
1075.370308
 30
0.0
 11
404.674999
 21
1075.875
 31
0.0
  0
LINE
  5
1081
100
AcDbEntity
  8
10000_FRONT
370
    25
390
0
  6
CONTINUOUS
 62
     7
100
AcDbLine
 10
400.274999
 20
1075.370308
 30
0.0
 11
404.674999
 21
1075.370308
 31
0.0
  0
LINE
  5
1082
100
AcDbEntity
  8
10000_FRONT
370
    25
390
0
  6
CONTINUOUS
 62
     7
100
AcDbLine
 10
400.274999
 20
1075.875
 30
0.0
 11
400.274999
 21
1075.370308
 31
0.0
  0
LINE
  5
1083
100
AcDbEntity
  8
10000_FRONT
370
    25
390
0
  6
CONTINUOUS
 62
     7
100
AcDbLine
 10
397.475
 20
1075.875
 30
0.0
 11
400.274999
 21
1075.875
 31
0.0
  0
LINE
  5
1084
100
AcDbEntity
  8
10000_FRONT
370
    25
390
0
  6
CONTINUOUS
 62
     7
100
AcDbLine
 10
397.475
 20
1075.370308
 30
0.0
 11
397.475
 21
1075.875
 31
0.0
  0
LINE
  5
1085
100
AcDbEntity
  8
10000_FRONT
370
    25
390
0
  6
CONTINUOUS
 62
     7
100
AcDbLine
 10
393.074998
 20
1075.370308
 30
0.0
 11
397.475
 21
1075.370308
 31
0.0
  0
LINE
  5
1086
100
AcDbEntity
  8
10000_FRONT
370
    25
390
0
  6
CONTINUOUS
 62
     7
100
AcDbLine
 10
393.074998
 20
1075.875
 30
0.0
 11
393.074998
 21
1075.370308
 31
0.0
  0
LINE
  5
1087
100
AcDbEntity
  8
10000_FRONT
370
    25
390
0
  6
CONTINUOUS
 62
     7
100
AcDbLine
 10
390.874999
 20
1075.875
 30
0.0
 11
393.074998
 21
1075.875
 31
0.0
  0
LINE
  5
1088
100
AcDbEntity
  8
10000_FRONT
370
    25
390
0
  6
CONTINUOUS
 62
     7
100
AcDbLine
 10
390.874999
 20
1061.875
 30
0.0
 11
390.874999
 21
1075.875
 31
0.0
  0
LINE
  5
1089
100
AcDbEntity
  8
10000_FRONT
370
    25
390
0
  6
CONTINUOUS
 62
     7
100
AcDbLine
 10
393.874999
 20
1061.875
 30
0.0
 11
390.874999
 21
1061.875
 31
0.0
  0
LINE
  5
108A
100
AcDbEntity
  8
10000_FRONT
370
    25
390
0
  6
CONTINUOUS
 62
     7
100
AcDbLine
 10
435.674999
 20
1075.875
 30
0.0
 11
435.674999
 21
1061.875
 31
0.0
  0
ARC
  5
108B
100
AcDbEntity
  8
10000_FRONT
370
    25
390
0
  6
CONTINUOUS
 62
     7
100
AcDbCircle
 10
386.274999
 20
1068.675
 30
0.0
 40
3.1
100
AcDbArc
 50
0.0
 51
180.0
  0
ARC
  5
108C
100
AcDbEntity
  8
10000_FRONT
370
    25
390
0
  6
CONTINUOUS
 62
     7
100
AcDbCircle
 10
379.074999
 20
1068.675
 30
0.0
 40
3.1
100
AcDbArc
 50
0.0
 51
180.0
  0
ARC
  5
108D
100
AcDbEntity
  8
10000_FRONT
370
    25
390
0
  6
CONTINUOUS
 62
     7
100
AcDbCircle
 10
371.874999
 20
1068.675
 30
0.0
 40
3.1
100
AcDbArc
 50
0.0
 51
180.0
  0
ARC
  5
108E
100
AcDbEntity
  8
10000_FRONT
370
    25
390
0
  6
CONTINUOUS
 62
     7
100
AcDbCircle
 10
364.674999
 20
1068.675
 30
0.0
 40
3.1
100
AcDbArc
 50
0.0
 51
180.0
  0
ARC
  5
108F
100
AcDbEntity
  8
10000_FRONT
370
    25
390
0
  6
CONTINUOUS
 62
     7
100
AcDbCircle
 10
357.474999
 20
1068.675
 30
0.0
 40
3.1
100
AcDbArc
 50
0.0
 51
180.0
  0
ARC
  5
1090
100
AcDbEntity
  8
10000_FRONT
370
    25
390
0
  6
CONTINUOUS
 62
     7
100
AcDbCircle
 10
350.274999
 20
1068.675
 30
0.0
 40
3.1
100
AcDbArc
 50
0.0
 51
180.0
  0
LINE
  5
1091
100
AcDbEntity
  8
10000_FRONT
370
    25
390
0
  6
CONTINUOUS
 62
     7
100
AcDbLine
 10
388.475
 20
1075.875
 30
0.0
 11
390.674999
 21
1075.875
 31
0.0
  0
LINE
  5
1092
100
AcDbEntity
  8
10000_FRONT
370
    25
390
0
  6
CONTINUOUS
 62
     7
100
AcDbLine
 10
388.475
 20
1075.370308
 30
0.0
 11
388.475
 21
1075.875
 31
0.0
  0
LINE
  5
1093
100
AcDbEntity
  8
10000_FRONT
370
    25
390
0
  6
CONTINUOUS
 62
     7
100
AcDbLine
 10
384.074998
 20
1075.370308
 30
0.0
 11
388.475
 21
1075.370308
 31
0.0
  0
LINE
  5
1094
100
AcDbEntity
  8
10000_FRONT
370
    25
390
0
  6
CONTINUOUS
 62
     7
100
AcDbLine
 10
384.074998
 20
1075.875
 30
0.0
 11
384.074998
 21
1075.370308
 31
0.0
  0
LINE
  5
1095
100
AcDbEntity
  8
10000_FRONT
370
    25
390
0
  6
CONTINUOUS
 62
     7
100
AcDbLine
 10
381.274999
 20
1075.875
 30
0.0
 11
384.074998
 21
1075.875
 31
0.0
  0
LINE
  5
1096
100
AcDbEntity
  8
10000_FRONT
370
    25
390
0
  6
CONTINUOUS
 62
     7
100
AcDbLine
 10
381.274999
 20
1075.370308
 30
0.0
 11
381.274999
 21
1075.875
 31
0.0
  0
LINE
  5
1097
100
AcDbEntity
  8
10000_FRONT
370
    25
390
0
  6
CONTINUOUS
 62
     7
100
AcDbLine
 10
376.874997
 20
1075.370308
 30
0.0
 11
381.274999
 21
1075.370308
 31
0.0
  0
LINE
  5
1098
100
AcDbEntity
  8
10000_FRONT
370
    25
390
0
  6
CONTINUOUS
 62
     7
100
AcDbLine
 10
376.874997
 20
1075.875
 30
0.0
 11
376.874997
 21
1075.370308
 31
0.0
  0
LINE
  5
1099
100
AcDbEntity
  8
10000_FRONT
370
    25
390
0
  6
CONTINUOUS
 62
     7
100
AcDbLine
 10
374.074998
 20
1075.875
 30
0.0
 11
376.874997
 21
1075.875
 31
0.0
  0
LINE
  5
109A
100
AcDbEntity
  8
10000_FRONT
370
    25
390
0
  6
CONTINUOUS
 62
     7
100
AcDbLine
 10
374.074998
 20
1075.370308
 30
0.0
 11
374.074998
 21
1075.875
 31
0.0
  0
LINE
  5
109B
100
AcDbEntity
  8
10000_FRONT
370
    25
390
0
  6
CONTINUOUS
 62
     7
100
AcDbLine
 10
369.675001
 20
1075.370308
 30
0.0
 11
374.074998
 21
1075.370308
 31
0.0
  0
LINE
  5
109C
100
AcDbEntity
  8
10000_FRONT
370
    25
390
0
  6
CONTINUOUS
 62
     7
100
AcDbLine
 10
362.475
 20
1075.875
 30
0.0
 11
362.475
 21
1075.370308
 31
0.0
  0
LINE
  5
109D
100
AcDbEntity
  8
10000_FRONT
370
    25
390
0
  6
CONTINUOUS
 62
     7
100
AcDbLine
 10
369.675001
 20
1075.875
 30
0.0
 11
369.675001
 21
1075.370308
 31
0.0
  0
LINE
  5
109E
100
AcDbEntity
  8
10000_FRONT
370
    25
390
0
  6
CONTINUOUS
 62
     7
100
AcDbLine
 10
366.874997
 20
1075.875
 30
0.0
 11
369.675001
 21
1075.875
 31
0.0
  0
LINE
  5
109F
100
AcDbEntity
  8
10000_FRONT
370
    25
390
0
  6
CONTINUOUS
 62
     7
100
AcDbLine
 10
345.874997
 20
1061.875
 30
0.0
 11
345.874997
 21
1061.725008
 31
0.0
  0
LINE
  5
10A0
100
AcDbEntity
  8
10000_FRONT
370
    25
390
0
  6
CONTINUOUS
 62
     7
100
AcDbLine
 10
390.674999
 20
1061.725008
 30
0.0
 11
390.674999
 21
1061.875
 31
0.0
  0
LINE
  5
10A1
100
AcDbEntity
  8
10000_FRONT
370
    25
390
0
  6
CONTINUOUS
 62
     7
100
AcDbLine
 10
348.874997
 20
1062.875
 30
0.0
 11
348.874997
 21
1061.875
 31
0.0
  0
LINE
  5
10A2
100
AcDbEntity
  8
10000_FRONT
370
    25
390
0
  6
CONTINUOUS
 62
     7
100
AcDbLine
 10
346.874997
 20
1062.875
 30
0.0
 11
348.874997
 21
1062.875
 31
0.0
  0
LINE
  5
10A3
100
AcDbEntity
  8
10000_FRONT
370
    25
390
0
  6
CONTINUOUS
 62
     7
100
AcDbLine
 10
346.874997
 20
1064.875
 30
0.0
 11
346.874997
 21
1062.875
 31
0.0
  0
LINE
  5
10A4
100
AcDbEntity
  8
10000_FRONT
370
    25
390
0
  6
CONTINUOUS
 62
     7
100
AcDbLine
 10
389.674999
 20
1064.875
 30
0.0
 11
346.874997
 21
1064.875
 31
0.0
  0
LINE
  5
10A5
100
AcDbEntity
  8
10000_FRONT
370
    25
390
0
  6
CONTINUOUS
 62
     7
100
AcDbLine
 10
389.674999
 20
1062.875
 30
0.0
 11
389.674999
 21
1064.875
 31
0.0
  0
LINE
  5
10A6
100
AcDbEntity
  8
10000_FRONT
370
    25
390
0
  6
CONTINUOUS
 62
     7
100
AcDbLine
 10
387.674999
 20
1062.875
 30
0.0
 11
389.674999
 21
1062.875
 31
0.0
  0
LINE
  5
10A7
100
AcDbEntity
  8
10000_FRONT
370
    25
390
0
  6
CONTINUOUS
 62
     7
100
AcDbLine
 10
387.674999
 20
1061.875
 30
0.0
 11
387.674999
 21
1062.875
 31
0.0
  0
LINE
  5
10A8
100
AcDbEntity
  8
10000_FRONT
370
    25
390
0
  6
CONTINUOUS
 62
     7
100
AcDbLine
 10
390.674999
 20
1061.875
 30
0.0
 11
387.674999
 21
1061.875
 31
0.0
  0
ARC
  5
10A9
100
AcDbEntity
  8
10000_FRONT
370
    25
390
0
  6
CONTINUOUS
 62
     7
100
AcDbCircle
 10
350.274999
 20
1068.675
 30
0.0
 40
3.1
100
AcDbArc
 50
180.0
 51
0.0
  0
ARC
  5
10AA
100
AcDbEntity
  8
10000_FRONT
370
    25
390
0
  6
CONTINUOUS
 62
     7
100
AcDbCircle
 10
357.474999
 20
1068.675
 30
0.0
 40
3.1
100
AcDbArc
 50
180.0
 51
0.0
  0
ARC
  5
10AB
100
AcDbEntity
  8
10000_FRONT
370
    25
390
0
  6
CONTINUOUS
 62
     7
100
AcDbCircle
 10
364.674999
 20
1068.675
 30
0.0
 40
3.1
100
AcDbArc
 50
180.0
 51
0.0
  0
ARC
  5
10AC
100
AcDbEntity
  8
10000_FRONT
370
    25
390
0
  6
CONTINUOUS
 62
     7
100
AcDbCircle
 10
371.874999
 20
1068.675
 30
0.0
 40
3.1
100
AcDbArc
 50
180.0
 51
0.0
  0
ARC
  5
10AD
100
AcDbEntity
  8
10000_FRONT
370
    25
390
0
  6
CONTINUOUS
 62
     7
100
AcDbCircle
 10
379.074999
 20
1068.675
 30
0.0
 40
3.1
100
AcDbArc
 50
180.0
 51
0.0
  0
ARC
  5
10AE
100
AcDbEntity
  8
10000_FRONT
370
    25
390
0
  6
CONTINUOUS
 62
     7
100
AcDbCircle
 10
386.274999
 20
1068.675
 30
0.0
 40
3.1
100
AcDbArc
 50
180.0
 51
0.0
  0
LINE
  5
10AF
100
AcDbEntity
  8
10000_FRONT
370
    25
390
0
  6
CONTINUOUS
 62
     7
100
AcDbLine
 10
366.874997
 20
1075.370308
 30
0.0
 11
366.874997
 21
1075.875
 31
0.0
  0
LINE
  5
10B0
100
AcDbEntity
  8
10000_FRONT
370
    25
390
0
  6
CONTINUOUS
 62
     7
100
AcDbLine
 10
362.475
 20
1075.370308
 30
0.0
 11
366.874997
 21
1075.370308
 31
0.0
  0
LINE
  5
10B1
100
AcDbEntity
  8
10000_FRONT
370
    25
390
0
  6
CONTINUOUS
 62
     7
100
AcDbLine
 10
359.675001
 20
1075.875
 30
0.0
 11
362.475
 21
1075.875
 31
0.0
  0
LINE
  5
10B2
100
AcDbEntity
  8
10000_FRONT
370
    25
390
0
  6
CONTINUOUS
 62
     7
100
AcDbLine
 10
359.675001
 20
1075.370308
 30
0.0
 11
359.675001
 21
1075.875
 31
0.0
  0
LINE
  5
10B3
100
AcDbEntity
  8
10000_FRONT
370
    25
390
0
  6
CONTINUOUS
 62
     7
100
AcDbLine
 10
355.274999
 20
1075.370308
 30
0.0
 11
359.675001
 21
1075.370308
 31
0.0
  0
LINE
  5
10B4
100
AcDbEntity
  8
10000_FRONT
370
    25
390
0
  6
CONTINUOUS
 62
     7
100
AcDbLine
 10
355.274999
 20
1075.875
 30
0.0
 11
355.274999
 21
1075.370308
 31
0.0
  0
LINE
  5
10B5
100
AcDbEntity
  8
10000_FRONT
370
    25
390
0
  6
CONTINUOUS
 62
     7
100
AcDbLine
 10
352.475
 20
1075.875
 30
0.0
 11
355.274999
 21
1075.875
 31
0.0
  0
LINE
  5
10B6
100
AcDbEntity
  8
10000_FRONT
370
    25
390
0
  6
CONTINUOUS
 62
     7
100
AcDbLine
 10
352.475
 20
1075.370308
 30
0.0
 11
352.475
 21
1075.875
 31
0.0
  0
LINE
  5
10B7
100
AcDbEntity
  8
10000_FRONT
370
    25
390
0
  6
CONTINUOUS
 62
     7
100
AcDbLine
 10
348.075002
 20
1075.370308
 30
0.0
 11
352.475
 21
1075.370308
 31
0.0
  0
LINE
  5
10B8
100
AcDbEntity
  8
10000_FRONT
370
    25
390
0
  6
CONTINUOUS
 62
     7
100
AcDbLine
 10
348.075002
 20
1075.875
 30
0.0
 11
348.075002
 21
1075.370308
 31
0.0
  0
LINE
  5
10B9
100
AcDbEntity
  8
10000_FRONT
370
    25
390
0
  6
CONTINUOUS
 62
     7
100
AcDbLine
 10
345.874997
 20
1075.875
 30
0.0
 11
348.075002
 21
1075.875
 31
0.0
  0
LINE
  5
10BA
100
AcDbEntity
  8
10000_FRONT
370
    25
390
0
  6
CONTINUOUS
 62
     7
100
AcDbLine
 10
345.874997
 20
1061.875
 30
0.0
 11
345.874997
 21
1075.875
 31
0.0
  0
LINE
  5
10BB
100
AcDbEntity
  8
10000_FRONT
370
    25
390
0
  6
CONTINUOUS
 62
     7
100
AcDbLine
 10
348.874997
 20
1061.875
 30
0.0
 11
345.874997
 21
1061.875
 31
0.0
  0
LINE
  5
10BC
100
AcDbEntity
  8
10000_FRONT
370
    25
390
0
  6
CONTINUOUS
 62
     7
100
AcDbLine
 10
390.674999
 20
1075.875
 30
0.0
 11
390.674999
 21
1061.875
 31
0.0
  0
LINE
  5
10BD
100
AcDbEntity
  8
10000_FRONT
370
    25
390
0
  6
CONTINUOUS
 62
     7
100
AcDbLine
 10
374.225
 20
1010.875
 30
0.0
 11
374.225
 21
1036.875
 31
0.0
  0
LINE
  5
10BE
100
AcDbEntity
  8
10000_FRONT
370
    25
390
0
  6
CONTINUOUS
 62
     7
100
AcDbLine
 10
407.324999
 20
1010.875
 30
0.0
 11
374.225
 21
1010.875
 31
0.0
  0
LINE
  5
10BF
100
AcDbEntity
  8
10000_FRONT
370
    25
390
0
  6
CONTINUOUS
 62
     7
100
AcDbLine
 10
407.324999
 20
1036.875
 30
0.0
 11
407.324999
 21
1010.875
 31
0.0
  0
LINE
  5
10C0
100
AcDbEntity
  8
10000_FRONT
370
    25
390
0
  6
CONTINUOUS
 62
     7
100
AcDbLine
 10
374.225
 20
1036.875
 30
0.0
 11
407.324999
 21
1036.875
 31
0.0
  0
LINE
  5
10C1
100
AcDbEntity
  8
10000_FRONT
370
    25
390
0
  6
CONTINUOUS
 62
     7
100
AcDbLine
 10
343.274999
 20
941.875
 30
0.0
 11
343.274999
 21
929.875
 31
0.0
  0
LINE
  5
10C2
100
AcDbEntity
  8
10000_FRONT
370
    25
390
0
  6
CONTINUOUS
 62
     7
100
AcDbLine
 10
343.274999
 20
929.875
 30
0.0
 11
340.274999
 21
929.875
 31
0.0
  0
LINE
  5
10C3
100
AcDbEntity
  8
10000_FRONT
370
    25
390
0
  6
CONTINUOUS
 62
     7
100
AcDbLine
 10
340.274999
 20
929.875
 30
0.0
 11
340.274999
 21
941.875
 31
0.0
  0
LINE
  5
10C4
100
AcDbEntity
  8
10000_FRONT
370
    25
390
0
  6
CONTINUOUS
 62
     7
100
AcDbLine
 10
340.274999
 20
941.875
 30
0.0
 11
343.274999
 21
941.875
 31
0.0
  0
LINE
  5
10C5
100
AcDbEntity
  8
10000_FRONT
370
    25
390
0
  6
CONTINUOUS
 62
     7
100
AcDbLine
 10
343.274999
 20
1072.875
 30
0.0
 11
343.274999
 21
1060.875
 31
0.0
  0
LINE
  5
10C6
100
AcDbEntity
  8
10000_FRONT
370
    25
390
0
  6
CONTINUOUS
 62
     7
100
AcDbLine
 10
343.274999
 20
1060.875
 30
0.0
 11
340.274999
 21
1060.875
 31
0.0
  0
LINE
  5
10C7
100
AcDbEntity
  8
10000_FRONT
370
    25
390
0
  6
CONTINUOUS
 62
     7
100
AcDbLine
 10
340.274999
 20
1060.875
 30
0.0
 11
340.274999
 21
1072.875
 31
0.0
  0
LINE
  5
10C8
100
AcDbEntity
  8
10000_FRONT
370
    25
390
0
  6
CONTINUOUS
 62
     7
100
AcDbLine
 10
340.274999
 20
1072.875
 30
0.0
 11
343.274999
 21
1072.875
 31
0.0
  0
LINE
  5
10C9
100
AcDbEntity
  8
10000_FRONT
370
    25
390
0
  6
CONTINUOUS
 62
     7
100
AcDbLine
 10
337.274999
 20
941.875
 30
0.0
 11
337.274999
 21
929.875
 31
0.0
  0
LINE
  5
10CA
100
AcDbEntity
  8
10000_FRONT
370
    25
390
0
  6
CONTINUOUS
 62
     7
100
AcDbLine
 10
337.274999
 20
929.875
 30
0.0
 11
334.274999
 21
929.875
 31
0.0
  0
LINE
  5
10CB
100
AcDbEntity
  8
10000_FRONT
370
    25
390
0
  6
CONTINUOUS
 62
     7
100
AcDbLine
 10
334.274999
 20
929.875
 30
0.0
 11
334.274999
 21
941.875
 31
0.0
  0
LINE
  5
10CC
100
AcDbEntity
  8
10000_FRONT
370
    25
390
0
  6
CONTINUOUS
 62
     7
100
AcDbLine
 10
334.274999
 20
941.875
 30
0.0
 11
337.274999
 21
941.875
 31
0.0
  0
LINE
  5
10CD
100
AcDbEntity
  8
10000_FRONT
370
    25
390
0
  6
CONTINUOUS
 62
     7
100
AcDbLine
 10
337.274999
 20
1072.875
 30
0.0
 11
337.274999
 21
1060.875
 31
0.0
  0
LINE
  5
10CE
100
AcDbEntity
  8
10000_FRONT
370
    25
390
0
  6
CONTINUOUS
 62
     7
100
AcDbLine
 10
337.274999
 20
1060.875
 30
0.0
 11
334.274999
 21
1060.875
 31
0.0
  0
LINE
  5
10CF
100
AcDbEntity
  8
10000_FRONT
370
    25
390
0
  6
CONTINUOUS
 62
     7
100
AcDbLine
 10
334.274999
 20
1060.875
 30
0.0
 11
334.274999
 21
1072.875
 31
0.0
  0
LINE
  5
10D0
100
AcDbEntity
  8
10000_FRONT
370
    25
390
0
  6
CONTINUOUS
 62
     7
100
AcDbLine
 10
334.274999
 20
1072.875
 30
0.0
 11
337.274999
 21
1072.875
 31
0.0
  0
LINE
  5
10D1
100
AcDbEntity
  8
10000_FRONT
370
    25
390
0
  6
CONTINUOUS
 62
     7
100
AcDbLine
 10
443.274999
 20
941.875
 30
0.0
 11
443.274999
 21
929.875
 31
0.0
  0
LINE
  5
10D2
100
AcDbEntity
  8
10000_FRONT
370
    25
390
0
  6
CONTINUOUS
 62
     7
100
AcDbLine
 10
443.274999
 20
929.875
 30
0.0
 11
440.274999
 21
929.875
 31
0.0
  0
LINE
  5
10D3
100
AcDbEntity
  8
10000_FRONT
370
    25
390
0
  6
CONTINUOUS
 62
     7
100
AcDbLine
 10
440.274999
 20
929.875
 30
0.0
 11
440.274999
 21
941.875
 31
0.0
  0
LINE
  5
10D4
100
AcDbEntity
  8
10000_FRONT
370
    25
390
0
  6
CONTINUOUS
 62
     7
100
AcDbLine
 10
440.274999
 20
941.875
 30
0.0
 11
443.274999
 21
941.875
 31
0.0
  0
LINE
  5
10D5
100
AcDbEntity
  8
10000_FRONT
370
    25
390
0
  6
CONTINUOUS
 62
     7
100
AcDbLine
 10
443.274999
 20
1072.875
 30
0.0
 11
443.274999
 21
1060.875
 31
0.0
  0
LINE
  5
10D6
100
AcDbEntity
  8
10000_FRONT
370
    25
390
0
  6
CONTINUOUS
 62
     7
100
AcDbLine
 10
443.274999
 20
1060.875
 30
0.0
 11
440.274999
 21
1060.875
 31
0.0
  0
LINE
  5
10D7
100
AcDbEntity
  8
10000_FRONT
370
    25
390
0
  6
CONTINUOUS
 62
     7
100
AcDbLine
 10
440.274999
 20
1060.875
 30
0.0
 11
440.274999
 21
1072.875
 31
0.0
  0
LINE
  5
10D8
100
AcDbEntity
  8
10000_FRONT
370
    25
390
0
  6
CONTINUOUS
 62
     7
100
AcDbLine
 10
440.274999
 20
1072.875
 30
0.0
 11
443.274999
 21
1072.875
 31
0.0
  0
LINE
  5
10D9
100
AcDbEntity
  8
10000_FRONT
370
    25
390
0
  6
CONTINUOUS
 62
     7
100
AcDbLine
 10
449.274999
 20
941.875
 30
0.0
 11
449.274999
 21
929.875
 31
0.0
  0
LINE
  5
10DA
100
AcDbEntity
  8
10000_FRONT
370
    25
390
0
  6
CONTINUOUS
 62
     7
100
AcDbLine
 10
449.274999
 20
929.875
 30
0.0
 11
446.274999
 21
929.875
 31
0.0
  0
LINE
  5
10DB
100
AcDbEntity
  8
10000_FRONT
370
    25
390
0
  6
CONTINUOUS
 62
     7
100
AcDbLine
 10
446.274999
 20
929.875
 30
0.0
 11
446.274999
 21
941.875
 31
0.0
  0
LINE
  5
10DC
100
AcDbEntity
  8
10000_FRONT
370
    25
390
0
  6
CONTINUOUS
 62
     7
100
AcDbLine
 10
446.274999
 20
941.875
 30
0.0
 11
449.274999
 21
941.875
 31
0.0
  0
LINE
  5
10DD
100
AcDbEntity
  8
10000_FRONT
370
    25
390
0
  6
CONTINUOUS
 62
     7
100
AcDbLine
 10
449.274999
 20
1072.875
 30
0.0
 11
449.274999
 21
1060.875
 31
0.0
  0
LINE
  5
10DE
100
AcDbEntity
  8
10000_FRONT
370
    25
390
0
  6
CONTINUOUS
 62
     7
100
AcDbLine
 10
449.274999
 20
1060.875
 30
0.0
 11
446.274999
 21
1060.875
 31
0.0
  0
LINE
  5
10DF
100
AcDbEntity
  8
10000_FRONT
370
    25
390
0
  6
CONTINUOUS
 62
     7
100
AcDbLine
 10
446.274999
 20
1060.875
 30
0.0
 11
446.274999
 21
1072.875
 31
0.0
  0
LINE
  5
10E0
100
AcDbEntity
  8
10000_FRONT
370
    25
390
0
  6
CONTINUOUS
 62
     7
100
AcDbLine
 10
446.274999
 20
1072.875
 30
0.0
 11
449.274999
 21
1072.875
 31
0.0
  0
LINE
  5
10E1
100
AcDbEntity
  8
10000_FRONT
370
    25
390
0
  6
CONTINUOUS
 62
     7
100
AcDbLine
 10
455.274999
 20
941.875
 30
0.0
 11
455.274999
 21
929.875
 31
0.0
  0
LINE
  5
10E2
100
AcDbEntity
  8
10000_FRONT
370
    25
390
0
  6
CONTINUOUS
 62
     7
100
AcDbLine
 10
455.274999
 20
929.875
 30
0.0
 11
452.274999
 21
929.875
 31
0.0
  0
LINE
  5
10E3
100
AcDbEntity
  8
10000_FRONT
370
    25
390
0
  6
CONTINUOUS
 62
     7
100
AcDbLine
 10
452.274999
 20
929.875
 30
0.0
 11
452.274999
 21
941.875
 31
0.0
  0
LINE
  5
10E4
100
AcDbEntity
  8
10000_FRONT
370
    25
390
0
  6
CONTINUOUS
 62
     7
100
AcDbLine
 10
452.274999
 20
941.875
 30
0.0
 11
455.274999
 21
941.875
 31
0.0
  0
LINE
  5
10E5
100
AcDbEntity
  8
10000_FRONT
370
    25
390
0
  6
CONTINUOUS
 62
     7
100
AcDbLine
 10
455.274999
 20
1072.875
 30
0.0
 11
455.274999
 21
1060.875
 31
0.0
  0
LINE
  5
10E6
100
AcDbEntity
  8
10000_FRONT
370
    25
390
0
  6
CONTINUOUS
 62
     7
100
AcDbLine
 10
455.274999
 20
1060.875
 30
0.0
 11
452.274999
 21
1060.875
 31
0.0
  0
LINE
  5
10E7
100
AcDbEntity
  8
10000_FRONT
370
    25
390
0
  6
CONTINUOUS
 62
     7
100
AcDbLine
 10
452.274999
 20
1060.875
 30
0.0
 11
452.274999
 21
1072.875
 31
0.0
  0
LINE
  5
10E8
100
AcDbEntity
  8
10000_FRONT
370
    25
390
0
  6
CONTINUOUS
 62
     7
100
AcDbLine
 10
452.274999
 20
1072.875
 30
0.0
 11
455.274999
 21
1072.875
 31
0.0
  0
LINE
  5
10E9
100
AcDbEntity
  8
10000_FRONT
370
    25
390
0
  6
CONTINUOUS
 62
     7
100
AcDbLine
 10
461.274999
 20
941.875
 30
0.0
 11
461.274999
 21
929.875
 31
0.0
  0
LINE
  5
10EA
100
AcDbEntity
  8
10000_FRONT
370
    25
390
0
  6
CONTINUOUS
 62
     7
100
AcDbLine
 10
461.274999
 20
929.875
 30
0.0
 11
458.274999
 21
929.875
 31
0.0
  0
LINE
  5
10EB
100
AcDbEntity
  8
10000_FRONT
370
    25
390
0
  6
CONTINUOUS
 62
     7
100
AcDbLine
 10
458.274999
 20
929.875
 30
0.0
 11
458.274999
 21
941.875
 31
0.0
  0
LINE
  5
10EC
100
AcDbEntity
  8
10000_FRONT
370
    25
390
0
  6
CONTINUOUS
 62
     7
100
AcDbLine
 10
458.274999
 20
941.875
 30
0.0
 11
461.274999
 21
941.875
 31
0.0
  0
LINE
  5
10ED
100
AcDbEntity
  8
10000_FRONT
370
    25
390
0
  6
CONTINUOUS
 62
     7
100
AcDbLine
 10
461.274999
 20
1072.875
 30
0.0
 11
461.274999
 21
1060.875
 31
0.0
  0
LINE
  5
10EE
100
AcDbEntity
  8
10000_FRONT
370
    25
390
0
  6
CONTINUOUS
 62
     7
100
AcDbLine
 10
461.274999
 20
1060.875
 30
0.0
 11
458.274999
 21
1060.875
 31
0.0
  0
LINE
  5
10EF
100
AcDbEntity
  8
10000_FRONT
370
    25
390
0
  6
CONTINUOUS
 62
     7
100
AcDbLine
 10
458.274999
 20
1060.875
 30
0.0
 11
458.274999
 21
1072.875
 31
0.0
  0
LINE
  5
10F0
100
AcDbEntity
  8
10000_FRONT
370
    25
390
0
  6
CONTINUOUS
 62
     7
100
AcDbLine
 10
458.274999
 20
1072.875
 30
0.0
 11
461.274999
 21
1072.875
 31
0.0
  0
LINE
  5
10F1
100
AcDbEntity
  8
10000_FRONT
370
    25
390
0
  6
CONTINUOUS
 62
     7
100
AcDbLine
 10
467.274999
 20
941.875
 30
0.0
 11
467.274999
 21
929.875
 31
0.0
  0
LINE
  5
10F2
100
AcDbEntity
  8
10000_FRONT
370
    25
390
0
  6
CONTINUOUS
 62
     7
100
AcDbLine
 10
467.274999
 20
929.875
 30
0.0
 11
464.274999
 21
929.875
 31
0.0
  0
LINE
  5
10F3
100
AcDbEntity
  8
10000_FRONT
370
    25
390
0
  6
CONTINUOUS
 62
     7
100
AcDbLine
 10
464.274999
 20
929.875
 30
0.0
 11
464.274999
 21
941.875
 31
0.0
  0
LINE
  5
10F4
100
AcDbEntity
  8
10000_FRONT
370
    25
390
0
  6
CONTINUOUS
 62
     7
100
AcDbLine
 10
464.274999
 20
941.875
 30
0.0
 11
467.274999
 21
941.875
 31
0.0
  0
LINE
  5
10F5
100
AcDbEntity
  8
10000_FRONT
370
    25
390
0
  6
CONTINUOUS
 62
     7
100
AcDbLine
 10
467.274999
 20
1072.875
 30
0.0
 11
467.274999
 21
1060.875
 31
0.0
  0
LINE
  5
10F6
100
AcDbEntity
  8
10000_FRONT
370
    25
390
0
  6
CONTINUOUS
 62
     7
100
AcDbLine
 10
467.274999
 20
1060.875
 30
0.0
 11
464.274999
 21
1060.875
 31
0.0
  0
LINE
  5
10F7
100
AcDbEntity
  8
10000_FRONT
370
    25
390
0
  6
CONTINUOUS
 62
     7
100
AcDbLine
 10
464.274999
 20
1060.875
 30
0.0
 11
464.274999
 21
1072.875
 31
0.0
  0
LINE
  5
10F8
100
AcDbEntity
  8
10000_FRONT
370
    25
390
0
  6
CONTINUOUS
 62
     7
100
AcDbLine
 10
464.274999
 20
1072.875
 30
0.0
 11
467.274999
 21
1072.875
 31
0.0
  0
LINE
  5
10F9
100
AcDbEntity
  8
10000_FRONT
370
    25
390
0
  6
CONTINUOUS
 62
     7
100
AcDbLine
 10
473.274999
 20
941.875
 30
0.0
 11
473.274999
 21
929.875
 31
0.0
  0
LINE
  5
10FA
100
AcDbEntity
  8
10000_FRONT
370
    25
390
0
  6
CONTINUOUS
 62
     7
100
AcDbLine
 10
473.274999
 20
929.875
 30
0.0
 11
470.274999
 21
929.875
 31
0.0
  0
LINE
  5
10FB
100
AcDbEntity
  8
10000_FRONT
370
    25
390
0
  6
CONTINUOUS
 62
     7
100
AcDbLine
 10
470.274999
 20
929.875
 30
0.0
 11
470.274999
 21
941.875
 31
0.0
  0
LINE
  5
10FC
100
AcDbEntity
  8
10000_FRONT
370
    25
390
0
  6
CONTINUOUS
 62
     7
100
AcDbLine
 10
470.274999
 20
941.875
 30
0.0
 11
473.274999
 21
941.875
 31
0.0
  0
LINE
  5
10FD
100
AcDbEntity
  8
10000_FRONT
370
    25
390
0
  6
CONTINUOUS
 62
     7
100
AcDbLine
 10
473.274999
 20
1072.875
 30
0.0
 11
473.274999
 21
1060.875
 31
0.0
  0
LINE
  5
10FE
100
AcDbEntity
  8
10000_FRONT
370
    25
390
0
  6
CONTINUOUS
 62
     7
100
AcDbLine
 10
473.274999
 20
1060.875
 30
0.0
 11
470.274999
 21
1060.875
 31
0.0
  0
LINE
  5
10FF
100
AcDbEntity
  8
10000_FRONT
370
    25
390
0
  6
CONTINUOUS
 62
     7
100
AcDbLine
 10
470.274999
 20
1060.875
 30
0.0
 11
470.274999
 21
1072.875
 31
0.0
  0
LINE
  5
1100
100
AcDbEntity
  8
10000_FRONT
370
    25
390
0
  6
CONTINUOUS
 62
     7
100
AcDbLine
 10
470.274999
 20
1072.875
 30
0.0
 11
473.274999
 21
1072.875
 31
0.0
  0
LINE
  5
1101
100
AcDbEntity
  8
10000_FRONT
370
    25
390
0
  6
CONTINUOUS
 62
     7
100
AcDbLine
 10
479.274999
 20
941.875
 30
0.0
 11
479.274999
 21
929.875
 31
0.0
  0
LINE
  5
1102
100
AcDbEntity
  8
10000_FRONT
370
    25
390
0
  6
CONTINUOUS
 62
     7
100
AcDbLine
 10
479.274999
 20
929.875
 30
0.0
 11
476.274999
 21
929.875
 31
0.0
  0
LINE
  5
1103
100
AcDbEntity
  8
10000_FRONT
370
    25
390
0
  6
CONTINUOUS
 62
     7
100
AcDbLine
 10
476.274999
 20
929.875
 30
0.0
 11
476.274999
 21
941.875
 31
0.0
  0
LINE
  5
1104
100
AcDbEntity
  8
10000_FRONT
370
    25
390
0
  6
CONTINUOUS
 62
     7
100
AcDbLine
 10
476.274999
 20
941.875
 30
0.0
 11
479.274999
 21
941.875
 31
0.0
  0
LINE
  5
1105
100
AcDbEntity
  8
10000_FRONT
370
    25
390
0
  6
CONTINUOUS
 62
     7
100
AcDbLine
 10
479.274999
 20
1072.875
 30
0.0
 11
479.274999
 21
1060.875
 31
0.0
  0
LINE
  5
1106
100
AcDbEntity
  8
10000_FRONT
370
    25
390
0
  6
CONTINUOUS
 62
     7
100
AcDbLine
 10
479.274999
 20
1060.875
 30
0.0
 11
476.274999
 21
1060.875
 31
0.0
  0
LINE
  5
1107
100
AcDbEntity
  8
10000_FRONT
370
    25
390
0
  6
CONTINUOUS
 62
     7
100
AcDbLine
 10
476.274999
 20
1060.875
 30
0.0
 11
476.274999
 21
1072.875
 31
0.0
  0
LINE
  5
1108
100
AcDbEntity
  8
10000_FRONT
370
    25
390
0
  6
CONTINUOUS
 62
     7
100
AcDbLine
 10
476.274999
 20
1072.875
 30
0.0
 11
479.274999
 21
1072.875
 31
0.0
  0
LINE
  5
1109
100
AcDbEntity
  8
10000_FRONT
370
    25
390
0
  6
CONTINUOUS
 62
     7
100
AcDbLine
 10
485.274999
 20
941.875
 30
0.0
 11
485.274999
 21
929.875
 31
0.0
  0
LINE
  5
110A
100
AcDbEntity
  8
10000_FRONT
370
    25
390
0
  6
CONTINUOUS
 62
     7
100
AcDbLine
 10
485.274999
 20
929.875
 30
0.0
 11
482.274999
 21
929.875
 31
0.0
  0
LINE
  5
110B
100
AcDbEntity
  8
10000_FRONT
370
    25
390
0
  6
CONTINUOUS
 62
     7
100
AcDbLine
 10
482.274999
 20
929.875
 30
0.0
 11
482.274999
 21
941.875
 31
0.0
  0
LINE
  5
110C
100
AcDbEntity
  8
10000_FRONT
370
    25
390
0
  6
CONTINUOUS
 62
     7
100
AcDbLine
 10
482.274999
 20
941.875
 30
0.0
 11
485.274999
 21
941.875
 31
0.0
  0
LINE
  5
110D
100
AcDbEntity
  8
10000_FRONT
370
    25
390
0
  6
CONTINUOUS
 62
     7
100
AcDbLine
 10
485.274999
 20
1072.875
 30
0.0
 11
485.274999
 21
1060.875
 31
0.0
  0
LINE
  5
110E
100
AcDbEntity
  8
10000_FRONT
370
    25
390
0
  6
CONTINUOUS
 62
     7
100
AcDbLine
 10
485.274999
 20
1060.875
 30
0.0
 11
482.274999
 21
1060.875
 31
0.0
  0
LINE
  5
110F
100
AcDbEntity
  8
10000_FRONT
370
    25
390
0
  6
CONTINUOUS
 62
     7
100
AcDbLine
 10
482.274999
 20
1060.875
 30
0.0
 11
482.274999
 21
1072.875
 31
0.0
  0
LINE
  5
1110
100
AcDbEntity
  8
10000_FRONT
370
    25
390
0
  6
CONTINUOUS
 62
     7
100
AcDbLine
 10
482.274999
 20
1072.875
 30
0.0
 11
485.274999
 21
1072.875
 31
0.0
  0
LINE
  5
1111
100
AcDbEntity
  8
10000_FRONT
370
    25
390
0
  6
CONTINUOUS
 62
     7
100
AcDbLine
 10
491.274999
 20
941.875
 30
0.0
 11
491.274999
 21
929.875
 31
0.0
  0
LINE
  5
1112
100
AcDbEntity
  8
10000_FRONT
370
    25
390
0
  6
CONTINUOUS
 62
     7
100
AcDbLine
 10
491.274999
 20
929.875
 30
0.0
 11
488.274999
 21
929.875
 31
0.0
  0
LINE
  5
1113
100
AcDbEntity
  8
10000_FRONT
370
    25
390
0
  6
CONTINUOUS
 62
     7
100
AcDbLine
 10
488.274999
 20
929.875
 30
0.0
 11
488.274999
 21
941.875
 31
0.0
  0
LINE
  5
1114
100
AcDbEntity
  8
10000_FRONT
370
    25
390
0
  6
CONTINUOUS
 62
     7
100
AcDbLine
 10
488.274999
 20
941.875
 30
0.0
 11
491.274999
 21
941.875
 31
0.0
  0
LINE
  5
1115
100
AcDbEntity
  8
10000_FRONT
370
    25
390
0
  6
CONTINUOUS
 62
     7
100
AcDbLine
 10
491.274999
 20
1072.875
 30
0.0
 11
491.274999
 21
1060.875
 31
0.0
  0
LINE
  5
1116
100
AcDbEntity
  8
10000_FRONT
370
    25
390
0
  6
CONTINUOUS
 62
     7
100
AcDbLine
 10
491.274999
 20
1060.875
 30
0.0
 11
488.274999
 21
1060.875
 31
0.0
  0
LINE
  5
1117
100
AcDbEntity
  8
10000_FRONT
370
    25
390
0
  6
CONTINUOUS
 62
     7
100
AcDbLine
 10
488.274999
 20
1060.875
 30
0.0
 11
488.274999
 21
1072.875
 31
0.0
  0
LINE
  5
1118
100
AcDbEntity
  8
10000_FRONT
370
    25
390
0
  6
CONTINUOUS
 62
     7
100
AcDbLine
 10
488.274999
 20
1072.875
 30
0.0
 11
491.274999
 21
1072.875
 31
0.0
  0
LINE
  5
1119
100
AcDbEntity
  8
10000_FRONT
370
    25
390
0
  6
CONTINUOUS
 62
     7
100
AcDbLine
 10
497.274999
 20
941.875
 30
0.0
 11
497.274999
 21
929.875
 31
0.0
  0
LINE
  5
111A
100
AcDbEntity
  8
10000_FRONT
370
    25
390
0
  6
CONTINUOUS
 62
     7
100
AcDbLine
 10
497.274999
 20
929.875
 30
0.0
 11
494.274999
 21
929.875
 31
0.0
  0
LINE
  5
111B
100
AcDbEntity
  8
10000_FRONT
370
    25
390
0
  6
CONTINUOUS
 62
     7
100
AcDbLine
 10
494.274999
 20
929.875
 30
0.0
 11
494.274999
 21
941.875
 31
0.0
  0
LINE
  5
111C
100
AcDbEntity
  8
10000_FRONT
370
    25
390
0
  6
CONTINUOUS
 62
     7
100
AcDbLine
 10
494.274999
 20
941.875
 30
0.0
 11
497.274999
 21
941.875
 31
0.0
  0
LINE
  5
111D
100
AcDbEntity
  8
10000_FRONT
370
    25
390
0
  6
CONTINUOUS
 62
     7
100
AcDbLine
 10
497.274999
 20
1072.875
 30
0.0
 11
497.274999
 21
1060.875
 31
0.0
  0
LINE
  5
111E
100
AcDbEntity
  8
10000_FRONT
370
    25
390
0
  6
CONTINUOUS
 62
     7
100
AcDbLine
 10
497.274999
 20
1060.875
 30
0.0
 11
494.274999
 21
1060.875
 31
0.0
  0
LINE
  5
111F
100
AcDbEntity
  8
10000_FRONT
370
    25
390
0
  6
CONTINUOUS
 62
     7
100
AcDbLine
 10
494.274999
 20
1060.875
 30
0.0
 11
494.274999
 21
1072.875
 31
0.0
  0
LINE
  5
1120
100
AcDbEntity
  8
10000_FRONT
370
    25
390
0
  6
CONTINUOUS
 62
     7
100
AcDbLine
 10
494.274999
 20
1072.875
 30
0.0
 11
497.274999
 21
1072.875
 31
0.0
  0
LINE
  5
1121
100
AcDbEntity
  8
10000_FRONT
370
    25
390
0
  6
CONTINUOUS
 62
     7
100
AcDbLine
 10
374.225
 20
1010.875
 30
0.0
 11
374.225
 21
1036.875
 31
0.0
  0
LINE
  5
1122
100
AcDbEntity
  8
10000_FRONT
370
    25
390
0
  6
CONTINUOUS
 62
     7
100
AcDbLine
 10
407.324999
 20
1010.875
 30
0.0
 11
374.225
 21
1010.875
 31
0.0
  0
LINE
  5
1123
100
AcDbEntity
  8
10000_FRONT
370
    25
390
0
  6
CONTINUOUS
 62
     7
100
AcDbLine
 10
407.324999
 20
1036.875
 30
0.0
 11
407.324999
 21
1010.875
 31
0.0
  0
LINE
  5
1124
100
AcDbEntity
  8
10000_FRONT
370
    25
390
0
  6
CONTINUOUS
 62
     7
100
AcDbLine
 10
374.225
 20
1036.875
 30
0.0
 11
407.324999
 21
1036.875
 31
0.0
  0
LINE
  5
1125
100
AcDbEntity
  8
10000_FRONT
370
    25
390
0
  6
CONTINUOUS
 62
     7
100
AcDbLine
 10
449.770986
 20
975.525002
 30
0.0
 11
436.059989
 21
975.525002
 31
0.0
  0
LINE
  5
1126
100
AcDbEntity
  8
10000_FRONT
370
    25
390
0
  6
CONTINUOUS
 62
     7
100
AcDbLine
 10
453.001504
 20
977.474998
 30
0.0
 11
449.770986
 21
975.525002
 31
0.0
  0
LINE
  5
1127
100
AcDbEntity
  8
10000_FRONT
370
    25
390
0
  6
CONTINUOUS
 62
     7
100
AcDbLine
 10
455.624006
 20
977.474998
 30
0.0
 11
453.001504
 21
977.474998
 31
0.0
  0
ARC
  5
1128
100
AcDbEntity
  8
10000_FRONT
370
    25
390
0
  6
CONTINUOUS
 62
     7
100
AcDbCircle
 10
455.624006
 20
977.775
 30
0.0
 40
0.3
100
AcDbArc
 50
269.999934
 51
0.000291
  0
LINE
  5
1129
100
AcDbEntity
  8
10000_FRONT
370
    25
390
0
  6
CONTINUOUS
 62
     7
100
AcDbLine
 10
455.924005
 20
986.074997
 30
0.0
 11
455.924005
 21
977.775002
 31
0.0
  0
ARC
  5
112A
100
AcDbEntity
  8
10000_FRONT
370
    25
390
0
  6
CONTINUOUS
 62
     7
100
AcDbCircle
 10
455.624006
 20
986.075
 30
0.0
 40
0.3
100
AcDbArc
 50
359.999417
 51
90.000066
  0
LINE
  5
112B
100
AcDbEntity
  8
10000_FRONT
370
    25
390
0
  6
CONTINUOUS
 62
     7
100
AcDbLine
 10
453.001504
 20
986.375
 30
0.0
 11
455.624006
 21
986.375
 31
0.0
  0
LINE
  5
112C
100
AcDbEntity
  8
10000_FRONT
370
    25
390
0
  6
CONTINUOUS
 62
     7
100
AcDbLine
 10
449.725992
 20
988.324997
 30
0.0
 11
453.001504
 21
986.375
 31
0.0
  0
LINE
  5
112D
100
AcDbEntity
  8
10000_FRONT
370
    25
390
0
  6
CONTINUOUS
 62
     7
100
AcDbLine
 10
436.059989
 20
975.525002
 30
0.0
 11
432.846486
 21
977.474998
 31
0.0
  0
LINE
  5
112E
100
AcDbEntity
  8
10000_FRONT
370
    25
390
0
  6
CONTINUOUS
 62
     7
100
AcDbLine
 10
432.846486
 20
977.474998
 30
0.0
 11
430.224006
 21
977.474998
 31
0.0
  0
ARC
  5
112F
100
AcDbEntity
  8
10000_FRONT
370
    25
390
0
  6
CONTINUOUS
 62
     7
100
AcDbCircle
 10
430.224006
 20
977.775
 30
0.0
 40
0.3
100
AcDbArc
 50
179.999709
 51
270.000007
  0
LINE
  5
1130
100
AcDbEntity
  8
10000_FRONT
370
    25
390
0
  6
CONTINUOUS
 62
     7
100
AcDbLine
 10
429.924006
 20
977.775002
 30
0.0
 11
429.924006
 21
986.074997
 31
0.0
  0
ARC
  5
1131
100
AcDbEntity
  8
10000_FRONT
370
    25
390
0
  6
CONTINUOUS
 62
     7
100
AcDbCircle
 10
430.224006
 20
986.075
 30
0.0
 40
0.3
100
AcDbArc
 50
89.999993
 51
180.000583
  0
LINE
  5
1132
100
AcDbEntity
  8
10000_FRONT
370
    25
390
0
  6
CONTINUOUS
 62
     7
100
AcDbLine
 10
430.224006
 20
986.375
 30
0.0
 11
432.846486
 21
986.375
 31
0.0
  0
LINE
  5
1133
100
AcDbEntity
  8
10000_FRONT
370
    25
390
0
  6
CONTINUOUS
 62
     7
100
AcDbLine
 10
432.846486
 20
986.375
 30
0.0
 11
436.077007
 21
988.324997
 31
0.0
  0
LINE
  5
1134
100
AcDbEntity
  8
10000_FRONT
370
    25
390
0
  6
CONTINUOUS
 62
     7
100
AcDbLine
 10
436.077007
 20
988.324997
 30
0.0
 11
449.725992
 21
988.324997
 31
0.0
  0
LINE
  5
1135
100
AcDbEntity
  8
10000_FRONT
370
    25
390
0
  6
CONTINUOUS
 62
     7
100
AcDbLine
 10
345.774999
 20
927.875
 30
0.0
 11
345.774999
 21
942.024994
 31
0.0
  0
LINE
  5
1136
100
AcDbEntity
  8
10000_FRONT
370
    25
390
0
  6
CONTINUOUS
 62
     7
100
AcDbLine
 10
435.774999
 20
942.024994
 30
0.0
 11
435.774999
 21
927.875
 31
0.0
  0
LINE
  5
1137
100
AcDbEntity
  8
10000_FRONT
370
    25
390
0
  6
CONTINUOUS
 62
     7
100
AcDbLine
 10
345.774999
 20
942.024994
 30
0.0
 11
435.774999
 21
942.024994
 31
0.0
  0
LINE
  5
1138
100
AcDbEntity
  8
10000_FRONT
370
    25
390
0
  6
CONTINUOUS
 62
     7
100
AcDbLine
 10
435.774999
 20
927.875
 30
0.0
 11
345.774999
 21
927.875
 31
0.0
  0
LINE
  5
1139
100
AcDbEntity
  8
10000_FRONT
370
    25
390
0
  6
CONTINUOUS
 62
     7
100
AcDbLine
 10
500.774999
 20
927.875
 30
0.0
 11
435.774999
 21
927.875
 31
0.0
  0
LINE
  5
113A
100
AcDbEntity
  8
10000_FRONT
370
    25
390
0
  6
CONTINUOUS
 62
     7
100
AcDbLine
 10
345.774999
 20
927.875
 30
0.0
 11
330.774999
 21
927.875
 31
0.0
  0
LINE
  5
113B
100
AcDbEntity
  8
10000_FRONT
370
    25
390
0
  6
CONTINUOUS
 62
     7
100
AcDbLine
 10
345.774999
 20
1061.725
 30
0.0
 11
345.774999
 21
1075.875
 31
0.0
  0
LINE
  5
113C
100
AcDbEntity
  8
10000_FRONT
370
    25
390
0
  6
CONTINUOUS
 62
     7
100
AcDbLine
 10
435.774999
 20
1061.725
 30
0.0
 11
345.774999
 21
1061.725
 31
0.0
  0
LINE
  5
113D
100
AcDbEntity
  8
10000_FRONT
370
    25
390
0
  6
CONTINUOUS
 62
     7
100
AcDbLine
 10
435.774999
 20
1075.875
 30
0.0
 11
435.774999
 21
1061.725
 31
0.0
  0
LINE
  5
113E
100
AcDbEntity
  8
10000_FRONT
370
    25
390
0
  6
CONTINUOUS
 62
     7
100
AcDbLine
 10
345.774999
 20
1075.875
 30
0.0
 11
345.87502
 21
1075.875
 31
0.0
  0
LINE
  5
113F
100
AcDbEntity
  8
10000_FRONT
370
    25
390
0
  6
CONTINUOUS
 62
     7
100
AcDbLine
 10
348.075017
 20
1075.875
 30
0.0
 11
352.475019
 21
1075.875
 31
0.0
  0
LINE
  5
1140
100
AcDbEntity
  8
10000_FRONT
370
    25
390
0
  6
CONTINUOUS
 62
     7
100
AcDbLine
 10
355.275018
 20
1075.875
 30
0.0
 11
359.67502
 21
1075.875
 31
0.0
  0
LINE
  5
1141
100
AcDbEntity
  8
10000_FRONT
370
    25
390
0
  6
CONTINUOUS
 62
     7
100
AcDbLine
 10
362.475019
 20
1075.875
 30
0.0
 11
366.87502
 21
1075.875
 31
0.0
  0
LINE
  5
1142
100
AcDbEntity
  8
10000_FRONT
370
    25
390
0
  6
CONTINUOUS
 62
     7
100
AcDbLine
 10
369.67502
 20
1075.875
 30
0.0
 11
374.075021
 21
1075.875
 31
0.0
  0
LINE
  5
1143
100
AcDbEntity
  8
10000_FRONT
370
    25
390
0
  6
CONTINUOUS
 62
     7
100
AcDbLine
 10
376.87502
 20
1075.875
 30
0.0
 11
381.275018
 21
1075.875
 31
0.0
  0
LINE
  5
1144
100
AcDbEntity
  8
10000_FRONT
370
    25
390
0
  6
CONTINUOUS
 62
     7
100
AcDbLine
 10
384.075019
 20
1075.875
 30
0.0
 11
388.475021
 21
1075.875
 31
0.0
  0
LINE
  5
1145
100
AcDbEntity
  8
10000_FRONT
370
    25
390
0
  6
CONTINUOUS
 62
     7
100
AcDbLine
 10
390.67502
 20
1075.875
 30
0.0
 11
390.87502
 21
1075.875
 31
0.0
  0
LINE
  5
1146
100
AcDbEntity
  8
10000_FRONT
370
    25
390
0
  6
CONTINUOUS
 62
     7
100
AcDbLine
 10
393.075019
 20
1075.875
 30
0.0
 11
397.475021
 21
1075.875
 31
0.0
  0
LINE
  5
1147
100
AcDbEntity
  8
10000_FRONT
370
    25
390
0
  6
CONTINUOUS
 62
     7
100
AcDbLine
 10
400.27502
 20
1075.875
 30
0.0
 11
404.67502
 21
1075.875
 31
0.0
  0
LINE
  5
1148
100
AcDbEntity
  8
10000_FRONT
370
    25
390
0
  6
CONTINUOUS
 62
     7
100
AcDbLine
 10
407.47502
 20
1075.875
 30
0.0
 11
411.87502
 21
1075.875
 31
0.0
  0
LINE
  5
1149
100
AcDbEntity
  8
10000_FRONT
370
    25
390
0
  6
CONTINUOUS
 62
     7
100
AcDbLine
 10
414.67502
 20
1075.875
 30
0.0
 11
419.07502
 21
1075.875
 31
0.0
  0
LINE
  5
114A
100
AcDbEntity
  8
10000_FRONT
370
    25
390
0
  6
CONTINUOUS
 62
     7
100
AcDbLine
 10
421.87502
 20
1075.875
 30
0.0
 11
426.27502
 21
1075.875
 31
0.0
  0
LINE
  5
114B
100
AcDbEntity
  8
10000_FRONT
370
    25
390
0
  6
CONTINUOUS
 62
     7
100
AcDbLine
 10
429.07502
 20
1075.875
 30
0.0
 11
433.475021
 21
1075.875
 31
0.0
  0
LINE
  5
114C
100
AcDbEntity
  8
10000_FRONT
370
    25
390
0
  6
CONTINUOUS
 62
     7
100
AcDbLine
 10
435.67502
 20
1075.875
 30
0.0
 11
435.774999
 21
1075.875
 31
0.0
  0
LINE
  5
114D
100
AcDbEntity
  8
10000_FRONT
370
    25
390
0
  6
CONTINUOUS
 62
     7
100
AcDbLine
 10
500.774999
 20
996.025002
 30
0.0
 11
500.774999
 21
927.875
 31
0.0
  0
LINE
  5
114E
100
AcDbEntity
  8
10000_FRONT
370
    25
390
0
  6
CONTINUOUS
 62
     7
100
AcDbLine
 10
500.774999
 20
1075.875
 30
0.0
 11
500.774999
 21
1051.724998
 31
0.0
  0
LINE
  5
114F
100
AcDbEntity
  8
10000_FRONT
370
    25
390
0
  6
CONTINUOUS
 62
     7
100
AcDbLine
 10
435.774999
 20
1075.875
 30
0.0
 11
500.774999
 21
1075.875
 31
0.0
  0
LINE
  5
1150
100
AcDbEntity
  8
10000_FRONT
370
    25
390
0
  6
CONTINUOUS
 62
     7
100
AcDbLine
 10
330.774999
 20
1075.875
 30
0.0
 11
345.774999
 21
1075.875
 31
0.0
  0
LINE
  5
1151
100
AcDbEntity
  8
10000_FRONT
370
    25
390
0
  6
CONTINUOUS
 62
     7
100
AcDbLine
 10
330.774999
 20
1051.724998
 30
0.0
 11
330.774999
 21
1075.875
 31
0.0
  0
LINE
  5
1152
100
AcDbEntity
  8
10000_FRONT
370
    25
390
0
  6
CONTINUOUS
 62
     7
100
AcDbLine
 10
330.774999
 20
927.875
 30
0.0
 11
330.774999
 21
996.025002
 31
0.0
  0
LINE
  5
1153
100
AcDbEntity
  8
10000_FRONT
370
    25
390
0
  6
CONTINUOUS
 62
     7
100
AcDbLine
 10
410.874999
 20
996.025002
 30
0.0
 11
500.774999
 21
996.025002
 31
0.0
  0
LINE
  5
1154
100
AcDbEntity
  8
10000_FRONT
370
    25
390
0
  6
CONTINUOUS
 62
     7
100
AcDbLine
 10
500.774999
 20
996.025002
 30
0.0
 11
500.774999
 21
1051.724998
 31
0.0
  0
LINE
  5
1155
100
AcDbEntity
  8
10000_FRONT
370
    25
390
0
  6
CONTINUOUS
 62
     7
100
AcDbLine
 10
410.874999
 20
1051.724998
 30
0.0
 11
500.774999
 21
1051.724998
 31
0.0
  0
LINE
  5
1156
100
AcDbEntity
  8
10000_FRONT
370
    25
390
0
  6
CONTINUOUS
 62
     7
100
AcDbLine
 10
410.874999
 20
996.025002
 30
0.0
 11
410.874999
 21
1051.724998
 31
0.0
  0
LINE
  5
1157
100
AcDbEntity
  8
10000_FRONT
370
    25
390
0
  6
CONTINUOUS
 62
     7
100
AcDbLine
 10
370.574998
 20
996.025002
 30
0.0
 11
370.574998
 21
1051.724998
 31
0.0
  0
LINE
  5
1158
100
AcDbEntity
  8
10000_FRONT
370
    25
390
0
  6
CONTINUOUS
 62
     7
100
AcDbLine
 10
330.774999
 20
1051.724998
 30
0.0
 11
370.574998
 21
1051.724998
 31
0.0
  0
LINE
  5
1159
100
AcDbEntity
  8
10000_FRONT
370
    25
390
0
  6
CONTINUOUS
 62
     7
100
AcDbLine
 10
330.774999
 20
996.025002
 30
0.0
 11
370.574998
 21
996.025002
 31
0.0
  0
LINE
  5
115A
100
AcDbEntity
  8
10000_FRONT
370
    25
390
0
  6
CONTINUOUS
 62
     7
100
AcDbLine
 10
330.774999
 20
996.025002
 30
0.0
 11
330.774999
 21
1051.724998
 31
0.0
  0
LINE
  5
115B
100
AcDbEntity
  8
10000_FRONT
370
    25
390
0
  6
CONTINUOUS
 62
     7
100
AcDbLine
 10
330.774999
 20
1091.375
 30
0.0
 11
344.325132
 21
1091.375
 31
0.0
  0
LINE
  5
115C
100
AcDbEntity
  8
10000_FRONT
370
    25
390
0
  6
CONTINUOUS
 62
     7
100
AcDbLine
 10
437.225135
 20
1091.375
 30
0.0
 11
450.774999
 21
1091.375
 31
0.0
  0
ARC
  5
115D
100
AcDbEntity
  8
10000_FRONT
370
    25
390
0
  6
CONTINUOUS
 62
     7
100
AcDbCircle
 10
340.774999
 20
1084.875
 30
0.0
 40
3.5
100
AcDbArc
 50
180.0
 51
0.0
  0
ARC
  5
115E
100
AcDbEntity
  8
10000_FRONT
370
    25
390
0
  6
CONTINUOUS
 62
     7
100
AcDbCircle
 10
440.774999
 20
1084.875
 30
0.0
 40
3.5
100
AcDbArc
 50
180.0
 51
0.0
  0
LINE
  5
115F
100
AcDbEntity
  8
10000_FRONT
370
    25
390
0
  6
CONTINUOUS
 62
     7
100
AcDbLine
 10
437.274999
 20
911.375
 30
0.0
 11
437.274999
 21
917.875
 31
0.0
  0
LINE
  5
1160
100
AcDbEntity
  8
10000_FRONT
370
    25
390
0
  6
CONTINUOUS
 62
     7
100
AcDbLine
 10
444.274999
 20
917.875
 30
0.0
 11
444.274999
 21
911.375
 31
0.0
  0
ARC
  5
1161
100
AcDbEntity
  8
10000_FRONT
370
    25
390
0
  6
CONTINUOUS
 62
     7
100
AcDbCircle
 10
440.774999
 20
917.875
 30
0.0
 40
3.5
100
AcDbArc
 50
0.0
 51
180.0
  0
LINE
  5
1162
100
AcDbEntity
  8
10000_FRONT
370
    25
390
0
  6
CONTINUOUS
 62
     7
100
AcDbLine
 10
437.274999
 20
911.375
 30
0.0
 11
437.225135
 21
911.375
 31
0.0
  0
LINE
  5
1163
100
AcDbEntity
  8
10000_FRONT
370
    25
390
0
  6
CONTINUOUS
 62
     7
100
AcDbLine
 10
344.325132
 20
911.375
 30
0.0
 11
344.274999
 21
911.375
 31
0.0
  0
LINE
  5
1164
100
AcDbEntity
  8
10000_FRONT
370
    25
390
0
  6
CONTINUOUS
 62
     7
100
AcDbLine
 10
337.274999
 20
911.375
 30
0.0
 11
337.274999
 21
917.875
 31
0.0
  0
LINE
  5
1165
100
AcDbEntity
  8
10000_FRONT
370
    25
390
0
  6
CONTINUOUS
 62
     7
100
AcDbLine
 10
344.274999
 20
917.875
 30
0.0
 11
344.274999
 21
911.375
 31
0.0
  0
ARC
  5
1166
100
AcDbEntity
  8
10000_FRONT
370
    25
390
0
  6
CONTINUOUS
 62
     7
100
AcDbCircle
 10
340.774999
 20
917.875
 30
0.0
 40
3.5
100
AcDbArc
 50
0.0
 51
180.0
  0
LINE
  5
1167
100
AcDbEntity
  8
10000_FRONT
370
    25
390
0
  6
CONTINUOUS
 62
     7
100
AcDbLine
 10
337.274999
 20
911.375
 30
0.0
 11
330.774999
 21
911.375
 31
0.0
  0
ARC
  5
1168
100
AcDbEntity
  8
10000_FRONT
370
    25
390
0
  6
CONTINUOUS
 62
     7
100
AcDbCircle
 10
440.774999
 20
1084.875
 30
0.0
 40
3.5
100
AcDbArc
 50
0.0
 51
180.0
  0
ARC
  5
1169
100
AcDbEntity
  8
10000_FRONT
370
    25
390
0
  6
CONTINUOUS
 62
     7
100
AcDbCircle
 10
340.774999
 20
1084.875
 30
0.0
 40
3.5
100
AcDbArc
 50
0.0
 51
180.0
  0
LINE
  5
116A
100
AcDbEntity
  8
10000_FRONT
370
    25
390
0
  6
CONTINUOUS
 62
     7
100
AcDbLine
 10
450.774999
 20
1091.375
 30
0.0
 11
450.774999
 21
1075.875
 31
0.0
  0
LINE
  5
116B
100
AcDbEntity
  8
10000_FRONT
370
    25
390
0
  6
CONTINUOUS
 62
     7
100
AcDbLine
 10
500.774999
 20
927.875
 30
0.0
 11
435.675035
 21
927.875
 31
0.0
  0
LINE
  5
116C
100
AcDbEntity
  8
10000_FRONT
370
    25
390
0
  6
CONTINUOUS
 62
     7
100
AcDbLine
 10
433.475015
 20
927.875
 30
0.0
 11
429.075035
 21
927.875
 31
0.0
  0
LINE
  5
116D
100
AcDbEntity
  8
10000_FRONT
370
    25
390
0
  6
CONTINUOUS
 62
     7
100
AcDbLine
 10
426.275015
 20
927.875
 30
0.0
 11
421.875036
 21
927.875
 31
0.0
  0
LINE
  5
116E
100
AcDbEntity
  8
10000_FRONT
370
    25
390
0
  6
CONTINUOUS
 62
     7
100
AcDbLine
 10
419.075015
 20
927.875
 30
0.0
 11
414.675036
 21
927.875
 31
0.0
  0
LINE
  5
116F
100
AcDbEntity
  8
10000_FRONT
370
    25
390
0
  6
CONTINUOUS
 62
     7
100
AcDbLine
 10
411.875015
 20
927.875
 30
0.0
 11
407.475036
 21
927.875
 31
0.0
  0
LINE
  5
1170
100
AcDbEntity
  8
10000_FRONT
370
    25
390
0
  6
CONTINUOUS
 62
     7
100
AcDbLine
 10
404.675015
 20
927.875
 30
0.0
 11
400.275036
 21
927.875
 31
0.0
  0
LINE
  5
1171
100
AcDbEntity
  8
10000_FRONT
370
    25
390
0
  6
CONTINUOUS
 62
     7
100
AcDbLine
 10
397.475015
 20
927.875
 30
0.0
 11
393.075036
 21
927.875
 31
0.0
  0
LINE
  5
1172
100
AcDbEntity
  8
10000_FRONT
370
    25
390
0
  6
CONTINUOUS
 62
     7
100
AcDbLine
 10
390.875015
 20
927.875
 30
0.0
 11
390.675035
 21
927.875
 31
0.0
  0
LINE
  5
1173
100
AcDbEntity
  8
10000_FRONT
370
    25
390
0
  6
CONTINUOUS
 62
     7
100
AcDbLine
 10
388.475015
 20
927.875
 30
0.0
 11
384.075036
 21
927.875
 31
0.0
  0
LINE
  5
1174
100
AcDbEntity
  8
10000_FRONT
370
    25
390
0
  6
CONTINUOUS
 62
     7
100
AcDbLine
 10
381.275014
 20
927.875
 30
0.0
 11
376.875036
 21
927.875
 31
0.0
  0
LINE
  5
1175
100
AcDbEntity
  8
10000_FRONT
370
    25
390
0
  6
CONTINUOUS
 62
     7
100
AcDbLine
 10
374.075013
 20
927.875
 30
0.0
 11
369.675035
 21
927.875
 31
0.0
  0
LINE
  5
1176
100
AcDbEntity
  8
10000_FRONT
370
    25
390
0
  6
CONTINUOUS
 62
     7
100
AcDbLine
 10
366.875017
 20
927.875
 30
0.0
 11
362.475034
 21
927.875
 31
0.0
  0
LINE
  5
1177
100
AcDbEntity
  8
10000_FRONT
370
    25
390
0
  6
CONTINUOUS
 62
     7
100
AcDbLine
 10
359.675016
 20
927.875
 30
0.0
 11
355.275037
 21
927.875
 31
0.0
  0
LINE
  5
1178
100
AcDbEntity
  8
10000_FRONT
370
    25
390
0
  6
CONTINUOUS
 62
     7
100
AcDbLine
 10
352.475015
 20
927.875
 30
0.0
 11
348.075033
 21
927.875
 31
0.0
  0
LINE
  5
1179
100
AcDbEntity
  8
10000_FRONT
370
    25
390
0
  6
CONTINUOUS
 62
     7
100
AcDbLine
 10
345.875013
 20
927.875
 30
0.0
 11
330.774999
 21
927.875
 31
0.0
  0
LINE
  5
117A
100
AcDbEntity
  8
10000_FRONT
370
    25
390
0
  6
CONTINUOUS
 62
     7
100
AcDbLine
 10
330.774999
 20
1075.875
 30
0.0
 11
330.775037
 21
1075.875
 31
0.0
  0
LINE
  5
117B
100
AcDbEntity
  8
10000_FRONT
370
    25
390
0
  6
CONTINUOUS
 62
     7
100
AcDbLine
 10
330.774999
 20
927.875
 30
0.0
 11
330.774999
 21
1075.875
 31
0.0
  0
LINE
  5
117C
100
AcDbEntity
  8
10000_FRONT
370
    25
390
0
  6
CONTINUOUS
 62
     7
100
AcDbLine
 10
330.774999
 20
1075.875
 30
0.0
 11
330.774999
 21
1091.375
 31
0.0
  0
LINE
  5
117D
100
AcDbEntity
  8
10000_FRONT
370
    25
390
0
  6
CONTINUOUS
 62
     7
100
AcDbLine
 10
330.774999
 20
911.375
 30
0.0
 11
330.774999
 21
927.875137
 31
0.0
  0
LINE
  5
117E
100
AcDbEntity
  8
10000_FRONT
370
    25
390
0
  6
CONTINUOUS
 62
     7
100
AcDbLine
 10
450.774999
 20
911.375
 30
0.0
 11
444.274999
 21
911.375
 31
0.0
  0
LINE
  5
117F
100
AcDbEntity
  8
10000_FRONT
370
    25
390
0
  6
CONTINUOUS
 62
     7
100
AcDbLine
 10
450.774999
 20
927.875
 30
0.0
 11
450.774999
 21
911.375
 31
0.0
  0
LINE
  5
1180
100
AcDbEntity
  8
10100_FRONT_DIM
370
    13
390
0
  6
CONTINUOUS
 62
     7
100
AcDbLine
 10
344.324989
 20
906.175
 30
0.0
 11
293.774989
 21
906.175
 31
0.0
  0
TEXT
  5
1181
100
AcDbEntity
  8
10100_FRONT_DIM
370
    13
390
0
  6
CONTINUOUS
 62
     7
100
AcDbText
 10
293.774989
 20
995.208333
 30
0.0
 40
4.0
  1
191.4
 50
90.0
 51
360.0
 72
     1
 11
293.774989
 21
1001.875
 31
0.0
100
AcDbText
  0
LINE
  5
1182
100
AcDbEntity
  8
10100_FRONT_DIM
370
    13
390
0
  6
CONTINUOUS
 62
     7
100
AcDbLine
 10
295.774989
 20
906.175
 30
0.0
 11
295.774989
 21
1097.575
 31
0.0
  0
LINE
  5
1183
100
AcDbEntity
  8
10100_FRONT_DIM
370
    13
390
0
  6
CONTINUOUS
 62
     7
100
AcDbLine
 10
293.774989
 20
1097.575
 30
0.0
 11
344.324989
 21
1097.575
 31
0.0
  0
LINE
  5
1184
100
AcDbEntity
  8
10100_FRONT_DIM
370
    13
390
0
  6
CONTINUOUS
 62
     7
100
AcDbLine
 10
330.774999
 20
911.375
 30
0.0
 11
309.774989
 21
911.375
 31
0.0
  0
TEXT
  5
1185
100
AcDbEntity
  8
10100_FRONT_DIM
370
    13
390
0
  6
CONTINUOUS
 62
     7
100
AcDbText
 10
309.774989
 20
997.041667
 30
0.0
 40
4.0
  1
180
 50
90.0
 51
360.0
 72
     1
 11
309.774989
 21
1001.375
 31
0.0
100
AcDbText
  0
LINE
  5
1186
100
AcDbEntity
  8
10100_FRONT_DIM
370
    13
390
0
  6
CONTINUOUS
 62
     7
100
AcDbLine
 10
311.774989
 20
911.375
 30
0.0
 11
311.774989
 21
1091.375
 31
0.0
  0
LINE
  5
1187
100
AcDbEntity
  8
10100_FRONT_DIM
370
    13
390
0
  6
CONTINUOUS
 62
     7
100
AcDbLine
 10
309.774989
 20
1091.375
 30
0.0
 11
330.774999
 21
1091.375
 31
0.0
  0
LINE
  5
1188
100
AcDbEntity
  8
10100_FRONT_DIM
370
    13
390
0
  6
CONTINUOUS
 62
     7
100
AcDbLine
 10
500.774999
 20
927.875
 30
0.0
 11
521.775009
 21
927.875
 31
0.0
  0
TEXT
  5
1189
100
AcDbEntity
  8
10100_FRONT_DIM
370
    13
390
0
  6
CONTINUOUS
 62
     7
100
AcDbText
 10
517.775009
 20
997.208333
 30
0.0
 40
4.0
  1
148
 50
90.0
 51
360.0
 72
     1
 11
517.775009
 21
1001.875
 31
0.0
100
AcDbText
  0
LINE
  5
118A
100
AcDbEntity
  8
10100_FRONT_DIM
370
    13
390
0
  6
CONTINUOUS
 62
     7
100
AcDbLine
 10
519.775009
 20
927.875
 30
0.0
 11
519.775009
 21
1075.875
 31
0.0
  0
LINE
  5
118B
100
AcDbEntity
  8
10100_FRONT_DIM
370
    13
390
0
  6
CONTINUOUS
 62
     7
100
AcDbLine
 10
521.775009
 20
1075.875
 30
0.0
 11
500.774999
 21
1075.875
 31
0.0
  0
LINE
  5
118C
100
AcDbEntity
  8
10100_FRONT_DIM
370
    13
390
0
  6
CONTINUOUS
 62
     7
100
AcDbLine
 10
330.774999
 20
1091.37501
 30
0.0
 11
330.774999
 21
1118.57501
 31
0.0
  0
TEXT
  5
118D
100
AcDbEntity
  8
10100_FRONT_DIM
370
    13
390
0
  6
CONTINUOUS
 62
     7
100
AcDbText
 10
386.441666
 20
1118.57501
 30
0.0
 40
4.0
  1
120
 72
     1
 11
390.774999
 21
1118.57501
 31
0.0
100
AcDbText
  0
LINE
  5
118E
100
AcDbEntity
  8
10100_FRONT_DIM
370
    13
390
0
  6
CONTINUOUS
 62
     7
100
AcDbLine
 10
330.774999
 20
1116.57501
 30
0.0
 11
450.774999
 21
1116.57501
 31
0.0
  0
LINE
  5
118F
100
AcDbEntity
  8
10100_FRONT_DIM
370
    13
390
0
  6
CONTINUOUS
 62
     7
100
AcDbLine
 10
450.774999
 20
1118.57501
 30
0.0
 11
450.774999
 21
1091.37501
 31
0.0
  0
LINE
  5
1190
100
AcDbEntity
  8
10100_FRONT_DIM
370
    13
390
0
  6
CONTINUOUS
 62
     7
100
AcDbLine
 10
330.774999
 20
1091.37501
 30
0.0
 11
330.774999
 21
1134.57501
 31
0.0
  0
TEXT
  5
1191
100
AcDbEntity
  8
10100_FRONT_DIM
370
    13
390
0
  6
CONTINUOUS
 62
     7
100
AcDbText
 10
411.441666
 20
1134.57501
 30
0.0
 40
4.0
  1
170
 72
     1
 11
415.774999
 21
1134.57501
 31
0.0
100
AcDbText
  0
LINE
  5
1192
100
AcDbEntity
  8
10100_FRONT_DIM
370
    13
390
0
  6
CONTINUOUS
 62
     7
100
AcDbLine
 10
330.774999
 20
1132.57501
 30
0.0
 11
500.774999
 21
1132.57501
 31
0.0
  0
LINE
  5
1193
100
AcDbEntity
  8
10100_FRONT_DIM
370
    13
390
0
  6
CONTINUOUS
 62
     7
100
AcDbLine
 10
500.774999
 20
1134.57501
 30
0.0
 11
500.774999
 21
1075.875
 31
0.0
  0
SOLID
  5
1194
100
AcDbEntity
  8
10100_FRONT_DIM
370
    13
390
0
  6
CONTINUOUS
 62
     7
100
AcDbTrace
 10
293.774989
 20
916.175
 30
0.0
 11
295.774989
 21
906.175
 31
0.0
 12
297.774989
 22
916.175
 32
0.0
 13
295.774989
 23
906.175
 33
0.0
  0
SOLID
  5
1195
100
AcDbEntity
  8
10100_FRONT_DIM
370
    13
390
0
  6
CONTINUOUS
 62
     7
100
AcDbTrace
 10
297.774989
 20
1087.575
 30
0.0
 11
295.774989
 21
1097.575
 31
0.0
 12
293.774989
 22
1087.575
 32
0.0
 13
295.774989
 23
1097.575
 33
0.0
  0
SOLID
  5
1196
100
AcDbEntity
  8
10100_FRONT_DIM
370
    13
390
0
  6
CONTINUOUS
 62
     7
100
AcDbTrace
 10
309.774989
 20
921.375
 30
0.0
 11
311.774989
 21
911.375
 31
0.0
 12
313.774989
 22
921.375
 32
0.0
 13
311.774989
 23
911.375
 33
0.0
  0
SOLID
  5
1197
100
AcDbEntity
  8
10100_FRONT_DIM
370
    13
390
0
  6
CONTINUOUS
 62
     7
100
AcDbTrace
 10
313.774989
 20
1081.375
 30
0.0
 11
311.774989
 21
1091.375
 31
0.0
 12
309.774989
 22
1081.375
 32
0.0
 13
311.774989
 23
1091.375
 33
0.0
  0
SOLID
  5
1198
100
AcDbEntity
  8
10100_FRONT_DIM
370
    13
390
0
  6
CONTINUOUS
 62
     7
100
AcDbTrace
 10
517.775009
 20
937.875
 30
0.0
 11
519.775009
 21
927.875
 31
0.0
 12
521.775009
 22
937.875
 32
0.0
 13
519.775009
 23
927.875
 33
0.0
  0
SOLID
  5
1199
100
AcDbEntity
  8
10100_FRONT_DIM
370
    13
390
0
  6
CONTINUOUS
 62
     7
100
AcDbTrace
 10
521.775009
 20
1065.875
 30
0.0
 11
519.775009
 21
1075.875
 31
0.0
 12
517.775009
 22
1065.875
 32
0.0
 13
519.775009
 23
1075.875
 33
0.0
  0
SOLID
  5
119A
100
AcDbEntity
  8
10100_FRONT_DIM
370
    13
390
0
  6
CONTINUOUS
 62
     7
100
AcDbTrace
 10
340.774999
 20
1118.57501
 30
0.0
 11
330.774999
 21
1116.57501
 31
0.0
 12
340.774999
 22
1114.57501
 32
0.0
 13
330.774999
 23
1116.57501
 33
0.0
  0
SOLID
  5
119B
100
AcDbEntity
  8
10100_FRONT_DIM
370
    13
390
0
  6
CONTINUOUS
 62
     7
100
AcDbTrace
 10
440.774999
 20
1114.57501
 30
0.0
 11
450.774999
 21
1116.57501
 31
0.0
 12
440.774999
 22
1118.57501
 32
0.0
 13
450.774999
 23
1116.57501
 33
0.0
  0
SOLID
  5
119C
100
AcDbEntity
  8
10100_FRONT_DIM
370
    13
390
0
  6
CONTINUOUS
 62
     7
100
AcDbTrace
 10
340.774999
 20
1134.57501
 30
0.0
 11
330.774999
 21
1132.57501
 31
0.0
 12
340.774999
 22
1130.57501
 32
0.0
 13
330.774999
 23
1132.57501
 33
0.0
  0
SOLID
  5
119D
100
AcDbEntity
  8
10100_FRONT_DIM
370
    13
390
0
  6
CONTINUOUS
 62
     7
100
AcDbTrace
 10
490.774999
 20
1130.57501
 30
0.0
 11
500.774999
 21
1132.57501
 31
0.0
 12
490.774999
 22
1134.57501
 32
0.0
 13
500.774999
 23
1132.57501
 33
0.0
  0
LINE
  5
119E
100
AcDbEntity
  8
11000_LEFT
370
    25
390
0
  6
CONTINUOUS
 62
     7
100
AcDbLine
 10
776.774999
 20
907.175003
 30
0.0
 11
776.774999
 21
927.875
 31
0.0
  0
ARC
  5
119F
100
AcDbEntity
  8
11000_LEFT
370
    25
390
0
  6
CONTINUOUS
 62
     7
100
AcDbCircle
 10
777.774999
 20
907.175
 30
0.0
 40
1.0
100
AcDbArc
 50
179.999825
 51
269.999999
  0
LINE
  5
11A0
100
AcDbEntity
  8
11000_LEFT
370
    25
390
0
  6
CONTINUOUS
 62
     7
100
AcDbLine
 10
844.86292
 20
906.175003
 30
0.0
 11
777.774999
 21
906.175003
 31
0.0
  0
ARC
  5
11A1
100
AcDbEntity
  8
11000_LEFT
370
    25
390
0
  6
CONTINUOUS
 62
     7
100
AcDbCircle
 10
844.862927
 20
907.175
 30
0.0
 40
1.0
100
AcDbArc
 50
269.999629
 51
354.734079
  0
LINE
  5
11A2
100
AcDbEntity
  8
11000_LEFT
370
    25
390
0
  6
CONTINUOUS
 62
     7
100
AcDbLine
 10
847.774999
 20
927.875
 30
0.0
 11
845.858709
 21
907.083221
 31
0.0
  0
LINE
  5
11A3
100
AcDbEntity
  8
11000_LEFT
370
    25
390
0
  6
CONTINUOUS
 62
     7
100
AcDbLine
 10
776.774999
 20
927.875
 30
0.0
 11
847.774999
 21
927.875
 31
0.0
  0
ARC
  5
11A4
100
AcDbEntity
  8
11000_LEFT
370
    25
390
0
  6
CONTINUOUS
 62
     7
100
AcDbCircle
 10
777.774999
 20
1096.575
 30
0.0
 40
1.0
100
AcDbArc
 50
90.000001
 51
180.0
  0
LINE
  5
11A5
100
AcDbEntity
  8
11000_LEFT
370
    25
390
0
  6
CONTINUOUS
 62
     7
100
AcDbLine
 10
776.774999
 20
1075.875
 30
0.0
 11
776.774999
 21
1096.575
 31
0.0
  0
LINE
  5
11A6
100
AcDbEntity
  8
11000_LEFT
370
    25
390
0
  6
CONTINUOUS
 62
     7
100
AcDbLine
 10
845.858709
 20
1096.666777
 30
0.0
 11
847.774999
 21
1075.875
 31
0.0
  0
ARC
  5
11A7
100
AcDbEntity
  8
11000_LEFT
370
    25
390
0
  6
CONTINUOUS
 62
     7
100
AcDbCircle
 10
844.862927
 20
1096.575
 30
0.0
 40
1.0
100
AcDbArc
 50
5.265839
 51
90.000371
  0
LINE
  5
11A8
100
AcDbEntity
  8
11000_LEFT
370
    25
390
0
  6
CONTINUOUS
 62
     7
100
AcDbLine
 10
777.774999
 20
1097.575
 30
0.0
 11
844.86292
 21
1097.575
 31
0.0
  0
LINE
  5
11A9
100
AcDbEntity
  8
11000_LEFT
370
    25
390
0
  6
CONTINUOUS
 62
     7
100
AcDbLine
 10
910.225011
 20
927.875
 30
0.0
 11
881.424993
 21
927.875
 31
0.0
  0
LINE
  5
11AA
100
AcDbEntity
  8
11000_LEFT
370
    25
390
0
  6
CONTINUOUS
 62
     7
100
AcDbLine
 10
910.225011
 20
927.875
 30
0.0
 11
910.225011
 21
927.875015
 31
0.0
  0
LINE
  5
11AB
100
AcDbEntity
  8
11000_LEFT
370
    25
390
0
  6
CONTINUOUS
 62
     7
100
AcDbLine
 10
858.724996
 20
927.875
 30
0.0
 11
858.724996
 21
1075.875
 31
0.0
  0
LINE
  5
11AC
100
AcDbEntity
  8
11000_LEFT
370
    25
390
0
  6
CONTINUOUS
 62
     7
100
AcDbLine
 10
910.225011
 20
975.525002
 30
0.0
 11
918.225011
 21
975.525002
 31
0.0
  0
LINE
  5
11AD
100
AcDbEntity
  8
11000_LEFT
370
    25
390
0
  6
CONTINUOUS
 62
     7
100
AcDbLine
 10
918.225011
 20
975.525002
 30
0.0
 11
918.225011
 21
977.474998
 31
0.0
  0
LINE
  5
11AE
100
AcDbEntity
  8
11000_LEFT
370
    25
390
0
  6
CONTINUOUS
 62
     7
100
AcDbLine
 10
910.225011
 20
977.474998
 30
0.0
 11
918.225011
 21
977.474998
 31
0.0
  0
LINE
  5
11AF
100
AcDbEntity
  8
11000_LEFT
370
    25
390
0
  6
CONTINUOUS
 62
     7
100
AcDbLine
 10
910.225011
 20
977.775002
 30
0.0
 11
918.225011
 21
977.775002
 31
0.0
  0
LINE
  5
11B0
100
AcDbEntity
  8
11000_LEFT
370
    25
390
0
  6
CONTINUOUS
 62
     7
100
AcDbLine
 10
918.225011
 20
977.474998
 30
0.0
 11
918.225011
 21
977.775002
 31
0.0
  0
LINE
  5
11B1
100
AcDbEntity
  8
11000_LEFT
370
    25
390
0
  6
CONTINUOUS
 62
     7
100
AcDbLine
 10
910.225011
 20
986.074997
 30
0.0
 11
918.225011
 21
986.074997
 31
0.0
  0
LINE
  5
11B2
100
AcDbEntity
  8
11000_LEFT
370
    25
390
0
  6
CONTINUOUS
 62
     7
100
AcDbLine
 10
918.225011
 20
977.775002
 30
0.0
 11
918.225011
 21
986.074997
 31
0.0
  0
LINE
  5
11B3
100
AcDbEntity
  8
11000_LEFT
370
    25
390
0
  6
CONTINUOUS
 62
     7
100
AcDbLine
 10
910.225011
 20
986.375
 30
0.0
 11
918.225011
 21
986.375
 31
0.0
  0
LINE
  5
11B4
100
AcDbEntity
  8
11000_LEFT
370
    25
390
0
  6
CONTINUOUS
 62
     7
100
AcDbLine
 10
918.225011
 20
986.074997
 30
0.0
 11
918.225011
 21
986.375
 31
0.0
  0
LINE
  5
11B5
100
AcDbEntity
  8
11000_LEFT
370
    25
390
0
  6
CONTINUOUS
 62
     7
100
AcDbLine
 10
910.225011
 20
988.324997
 30
0.0
 11
918.225011
 21
988.324997
 31
0.0
  0
LINE
  5
11B6
100
AcDbEntity
  8
11000_LEFT
370
    25
390
0
  6
CONTINUOUS
 62
     7
100
AcDbLine
 10
918.225011
 20
986.375
 30
0.0
 11
918.225011
 21
988.324997
 31
0.0
  0
LINE
  5
11B7
100
AcDbEntity
  8
11000_LEFT
370
    25
390
0
  6
CONTINUOUS
 62
     7
100
AcDbLine
 10
858.724996
 20
927.875
 30
0.0
 11
910.225011
 21
927.875
 31
0.0
  0
LINE
  5
11B8
100
AcDbEntity
  8
11000_LEFT
370
    25
390
0
  6
CONTINUOUS
 62
     7
100
AcDbLine
 10
910.225011
 20
1051.724998
 30
0.0
 11
910.225011
 21
1075.875
 31
0.0
  0
LINE
  5
11B9
100
AcDbEntity
  8
11000_LEFT
370
    25
390
0
  6
CONTINUOUS
 62
     7
100
AcDbLine
 10
910.225011
 20
927.875
 30
0.0
 11
910.225011
 21
996.025002
 31
0.0
  0
ARC
  5
11BA
100
AcDbEntity
  8
11000_LEFT
370
    25
390
0
  6
CONTINUOUS
 62
     7
100
AcDbCircle
 10
814.181379
 20
1023.875
 30
0.0
 40
100.0
100
AcDbArc
 50
343.829302
 51
16.170698
  0
LINE
  5
11BB
100
AcDbEntity
  8
11000_LEFT
370
    25
390
0
  6
CONTINUOUS
 62
     7
100
AcDbLine
 10
858.724996
 20
1075.875
 30
0.0
 11
910.225011
 21
1075.875
 31
0.0
  0
LINE
  5
11BC
100
AcDbEntity
  8
11000_LEFT
370
    25
390
0
  6
CONTINUOUS
 62
     7
100
AcDbLine
 10
648.524999
 20
1091.375
 30
0.0
 11
656.024999
 21
1091.375
 31
0.0
  0
LINE
  5
11BD
100
AcDbEntity
  8
11000_LEFT
370
    25
390
0
  6
CONTINUOUS
 62
     7
100
AcDbLine
 10
656.024999
 20
1091.375
 30
0.0
 11
775.024999
 21
1091.375
 31
0.0
  0
LINE
  5
11BE
100
AcDbEntity
  8
11000_LEFT
370
    25
390
0
  6
CONTINUOUS
 62
     7
100
AcDbLine
 10
648.524999
 20
917.875
 30
0.0
 11
648.52507
 21
917.875
 31
0.0
  0
LINE
  5
11BF
100
AcDbEntity
  8
11000_LEFT
370
    25
390
0
  6
CONTINUOUS
 62
     7
100
AcDbLine
 10
648.524999
 20
911.375
 30
0.0
 11
648.524999
 21
1091.375
 31
0.0
  0
LINE
  5
11C0
100
AcDbEntity
  8
11000_LEFT
370
    25
390
0
  6
CONTINUOUS
 62
     7
100
AcDbLine
 10
648.524999
 20
911.375
 30
0.0
 11
656.024999
 21
911.375
 31
0.0
  0
LINE
  5
11C1
100
AcDbEntity
  8
11000_LEFT
370
    25
390
0
  6
CONTINUOUS
 62
     7
100
AcDbLine
 10
666.725
 20
960.675003
 30
0.0
 11
666.725
 21
927.875
 31
0.0
  0
LINE
  5
11C2
100
AcDbEntity
  8
11000_LEFT
370
    25
390
0
  6
CONTINUOUS
 62
     7
100
AcDbLine
 10
775.024999
 20
927.875
 30
0.0
 11
666.725
 21
927.875
 31
0.0
  0
LINE
  5
11C3
100
AcDbEntity
  8
11000_LEFT
370
    25
390
0
  6
CONTINUOUS
 62
     7
100
AcDbLine
 10
656.024999
 20
960.675003
 30
0.0
 11
775.024999
 21
960.675003
 31
0.0
  0
LINE
  5
11C4
100
AcDbEntity
  8
11000_LEFT
370
    25
390
0
  6
CONTINUOUS
 62
     7
100
AcDbLine
 10
775.024999
 20
960.675003
 30
0.0
 11
775.024999
 21
927.875
 31
0.0
  0
LINE
  5
11C5
100
AcDbEntity
  8
11000_LEFT
370
    25
390
0
  6
CONTINUOUS
 62
     7
100
AcDbLine
 10
775.024999
 20
1075.875
 30
0.0
 11
775.024999
 21
1090.375
 31
0.0
  0
LINE
  5
11C6
100
AcDbEntity
  8
11000_LEFT
370
    25
390
0
  6
CONTINUOUS
 62
     7
100
AcDbLine
 10
656.024999
 20
1090.375
 30
0.0
 11
775.024999
 21
1090.375
 31
0.0
  0
LINE
  5
11C7
100
AcDbEntity
  8
11000_LEFT
370
    25
390
0
  6
CONTINUOUS
 62
     7
100
AcDbLine
 10
775.024999
 20
1090.375
 30
0.0
 11
775.024999
 21
1091.375
 31
0.0
  0
LINE
  5
11C8
100
AcDbEntity
  8
11000_LEFT
370
    25
390
0
  6
CONTINUOUS
 62
     7
100
AcDbLine
 10
775.024999
 20
927.875
 30
0.0
 11
858.724996
 21
927.875
 31
0.0
  0
LINE
  5
11C9
100
AcDbEntity
  8
11000_LEFT
370
    25
390
0
  6
CONTINUOUS
 62
     7
100
AcDbLine
 10
656.024999
 20
1075.875
 30
0.0
 11
858.724996
 21
1075.875
 31
0.0
  0
LINE
  5
11CA
100
AcDbEntity
  8
11000_LEFT
370
    25
390
0
  6
CONTINUOUS
 62
     7
100
AcDbLine
 10
858.724996
 20
927.875
 30
0.0
 11
858.724996
 21
1075.875
 31
0.0
  0
LINE
  5
11CB
100
AcDbEntity
  8
11000_LEFT
370
    25
390
0
  6
CONTINUOUS
 62
     7
100
AcDbLine
 10
656.024999
 20
1075.875
 30
0.0
 11
656.024999
 21
1091.375
 31
0.0
  0
LINE
  5
11CC
100
AcDbEntity
  8
11000_LEFT
370
    25
390
0
  6
CONTINUOUS
 62
     7
100
AcDbLine
 10
656.024999
 20
911.375
 30
0.0
 11
656.024999
 21
960.675003
 31
0.0
  0
LINE
  5
11CD
100
AcDbEntity
  8
11100_LEFT_DIM
370
    13
390
0
  6
CONTINUOUS
 62
     7
100
AcDbLine
 10
648.524999
 20
911.375
 30
0.0
 11
648.524999
 21
885.17499
 31
0.0
  0
TEXT
  5
11CE
100
AcDbEntity
  8
11100_LEFT_DIM
370
    13
390
0
  6
CONTINUOUS
 62
     7
100
AcDbText
 10
621.649999
 20
889.17499
 30
0.0
 40
4.0
  1
7.5
 72
     1
 11
625.649999
 21
889.17499
 31
0.0
100
AcDbText
  0
LINE
  5
11CF
100
AcDbEntity
  8
11100_LEFT_DIM
370
    13
390
0
  6
CONTINUOUS
 62
     7
100
AcDbLine
 10
617.774999
 20
887.17499
 30
0.0
 11
671.024999
 21
887.17499
 31
0.0
  0
LINE
  5
11D0
100
AcDbEntity
  8
11100_LEFT_DIM
370
    13
390
0
  6
CONTINUOUS
 62
     7
100
AcDbLine
 10
656.024999
 20
885.17499
 30
0.0
 11
656.024999
 21
911.375
 31
0.0
  0
LINE
  5
11D1
100
AcDbEntity
  8
11100_LEFT_DIM
370
    13
390
0
  6
CONTINUOUS
 62
     7
100
AcDbLine
 10
648.524999
 20
1091.375
 30
0.0
 11
648.524999
 21
1118.57501
 31
0.0
  0
TEXT
  5
11D2
100
AcDbEntity
  8
11100_LEFT_DIM
370
    13
390
0
  6
CONTINUOUS
 62
     7
100
AcDbText
 10
775.374999
 20
1118.57501
 30
0.0
 40
4.0
  1
269.7
 72
     1
 11
783.374999
 21
1118.57501
 31
0.0
100
AcDbText
  0
LINE
  5
11D3
100
AcDbEntity
  8
11100_LEFT_DIM
370
    13
390
0
  6
CONTINUOUS
 62
     7
100
AcDbLine
 10
648.524999
 20
1116.57501
 30
0.0
 11
918.224999
 21
1116.57501
 31
0.0
  0
LINE
  5
11D4
100
AcDbEntity
  8
11100_LEFT_DIM
370
    13
390
0
  6
CONTINUOUS
 62
     7
100
AcDbLine
 10
918.224999
 20
1118.57501
 30
0.0
 11
918.224999
 21
987.875
 31
0.0
  0
SOLID
  5
11D5
100
AcDbEntity
  8
11100_LEFT_DIM
370
    13
390
0
  6
CONTINUOUS
 62
     7
100
AcDbTrace
 10
638.524999
 20
885.17499
 30
0.0
 11
648.524999
 21
887.17499
 31
0.0
 12
638.524999
 22
889.17499
 32
0.0
 13
648.524999
 23
887.17499
 33
0.0
  0
SOLID
  5
11D6
100
AcDbEntity
  8
11100_LEFT_DIM
370
    13
390
0
  6
CONTINUOUS
 62
     7
100
AcDbTrace
 10
666.024999
 20
889.17499
 30
0.0
 11
656.024999
 21
887.17499
 31
0.0
 12
666.024999
 22
885.17499
 32
0.0
 13
656.024999
 23
887.17499
 33
0.0
  0
SOLID
  5
11D7
100
AcDbEntity
  8
11100_LEFT_DIM
370
    13
390
0
  6
CONTINUOUS
 62
     7
100
AcDbTrace
 10
658.524999
 20
1118.57501
 30
0.0
 11
648.524999
 21
1116.57501
 31
0.0
 12
658.524999
 22
1114.57501
 32
0.0
 13
648.524999
 23
1116.57501
 33
0.0
  0
SOLID
  5
11D8
100
AcDbEntity
  8
11100_LEFT_DIM
370
    13
390
0
  6
CONTINUOUS
 62
     7
100
AcDbTrace
 10
908.224999
 20
1114.57501
 30
0.0
 11
918.224999
 21
1116.57501
 31
0.0
 12
908.224999
 22
1118.57501
 32
0.0
 13
918.224999
 23
1116.57501
 33
0.0
  0
CIRCLE
  5
11D9
100
AcDbEntity
  8
15000_BACK
370
    25
390
0
  6
CENTER
 62
     7
100
AcDbCircle
 10
440.774999
 20
757.67499
 30
0.0
 40
3.5
  0
LINE
  5
11DA
100
AcDbEntity
  8
15000_BACK
370
    25
390
0
  6
CENTER
 62
     7
100
AcDbLine
 10
450.774999
 20
764.17499
 30
0.0
 11
450.774999
 21
748.67499
 31
0.0
  0
LINE
  5
11DB
100
AcDbEntity
  8
15000_BACK
370
    25
390
0
  6
CENTER
 62
     7
100
AcDbLine
 10
450.774999
 20
748.67499
 30
0.0
 11
500.774999
 21
748.67499
 31
0.0
  0
LINE
  5
11DC
100
AcDbEntity
  8
15000_BACK
370
    25
390
0
  6
CENTER
 62
     7
100
AcDbLine
 10
500.774999
 20
748.67499
 30
0.0
 11
500.774999
 21
600.67499
 31
0.0
  0
LINE
  5
11DD
100
AcDbEntity
  8
15000_BACK
370
    25
390
0
  6
CENTER
 62
     7
100
AcDbLine
 10
500.774999
 20
600.67499
 30
0.0
 11
450.774999
 21
600.67499
 31
0.0
  0
LINE
  5
11DE
100
AcDbEntity
  8
15000_BACK
370
    25
390
0
  6
CENTER
 62
     7
100
AcDbLine
 10
450.774999
 20
600.67499
 30
0.0
 11
450.774999
 21
584.17499
 31
0.0
  0
LINE
  5
11DF
100
AcDbEntity
  8
15000_BACK
370
    25
390
0
  6
CENTER
 62
     7
100
AcDbLine
 10
450.774999
 20
584.17499
 30
0.0
 11
444.274999
 21
584.17499
 31
0.0
  0
LINE
  5
11E0
100
AcDbEntity
  8
15000_BACK
370
    25
390
0
  6
CENTER
 62
     7
100
AcDbLine
 10
444.274999
 20
584.17499
 30
0.0
 11
444.274999
 21
590.67499
 31
0.0
  0
ARC
  5
11E1
100
AcDbEntity
  8
15000_BACK
370
    25
390
0
  6
CENTER
 62
     7
100
AcDbCircle
 10
440.774999
 20
590.67499
 30
0.0
 40
3.5
100
AcDbArc
 50
0.0
 51
180.0
  0
LINE
  5
11E2
100
AcDbEntity
  8
15000_BACK
370
    25
390
0
  6
CENTER
 62
     7
100
AcDbLine
 10
437.274999
 20
590.67499
 30
0.0
 11
437.274999
 21
584.17499
 31
0.0
  0
LINE
  5
11E3
100
AcDbEntity
  8
15000_BACK
370
    25
390
0
  6
CENTER
 62
     7
100
AcDbLine
 10
437.274999
 20
584.17499
 30
0.0
 11
344.274999
 21
584.17499
 31
0.0
  0
LINE
  5
11E4
100
AcDbEntity
  8
15000_BACK
370
    25
390
0
  6
CENTER
 62
     7
100
AcDbLine
 10
344.274999
 20
584.17499
 30
0.0
 11
344.274999
 21
590.67499
 31
0.0
  0
ARC
  5
11E5
100
AcDbEntity
  8
15000_BACK
370
    25
390
0
  6
CENTER
 62
     7
100
AcDbCircle
 10
340.774999
 20
590.67499
 30
0.0
 40
3.5
100
AcDbArc
 50
0.0
 51
180.0
  0
LINE
  5
11E6
100
AcDbEntity
  8
15000_BACK
370
    25
390
0
  6
CENTER
 62
     7
100
AcDbLine
 10
337.274999
 20
590.67499
 30
0.0
 11
337.274999
 21
584.17499
 31
0.0
  0
LINE
  5
11E7
100
AcDbEntity
  8
15000_BACK
370
    25
390
0
  6
CENTER
 62
     7
100
AcDbLine
 10
337.274999
 20
584.17499
 30
0.0
 11
330.774999
 21
584.17499
 31
0.0
  0
LINE
  5
11E8
100
AcDbEntity
  8
15000_BACK
370
    25
390
0
  6
CENTER
 62
     7
100
AcDbLine
 10
330.774999
 20
584.17499
 30
0.0
 11
330.774999
 21
764.17499
 31
0.0
  0
LINE
  5
11E9
100
AcDbEntity
  8
15000_BACK
370
    25
390
0
  6
CENTER
 62
     7
100
AcDbLine
 10
330.774999
 20
764.17499
 30
0.0
 11
450.774999
 21
764.17499
 31
0.0
  0
CIRCLE
  5
11EA
100
AcDbEntity
  8
15000_BACK
370
    25
390
0
  6
CENTER
 62
     7
100
AcDbCircle
 10
340.774999
 20
757.67499
 30
0.0
 40
3.5
  0
LINE
  5
11EB
100
AcDbEntity
  8
15100_BACK_DIM
370
    13
390
0
  6
CONTINUOUS
 62
     7
100
AcDbLine
 10
330.774999
 20
764.17499
 30
0.0
 11
330.774999
 21
801.17499
 31
0.0
  0
TEXT
  5
11EC
100
AcDbEntity
  8
15100_BACK_DIM
370
    13
390
0
  6
CONTINUOUS
 62
     7
100
AcDbText
 10
308.191666
 20
801.17499
 30
0.0
 40
4.0
  1
10
 72
     1
 11
310.524999
 21
801.17499
 31
0.0
100
AcDbText
  0
LINE
  5
11ED
100
AcDbEntity
  8
15100_BACK_DIM
370
    13
390
0
  6
CONTINUOUS
 62
     7
100
AcDbLine
 10
305.274999
 20
799.17499
 30
0.0
 11
355.774999
 21
799.17499
 31
0.0
  0
LINE
  5
11EE
100
AcDbEntity
  8
15100_BACK_DIM
370
    13
390
0
  6
CONTINUOUS
 62
     7
100
AcDbLine
 10
340.774999
 20
801.17499
 30
0.0
 11
340.774999
 21
757.67499
 31
0.0
  0
LINE
  5
11EF
100
AcDbEntity
  8
15100_BACK_DIM
370
    13
390
0
  6
CONTINUOUS
 62
     7
100
AcDbLine
 10
340.774999
 20
764.17499
 30
0.0
 11
340.774999
 21
785.17499
 31
0.0
  0
TEXT
  5
11F0
100
AcDbEntity
  8
15100_BACK_DIM
370
    13
390
0
  6
CONTINUOUS
 62
     7
100
AcDbText
 10
386.774999
 20
785.17499
 30
0.0
 40
4.0
  1
100
 72
     1
 11
390.774999
 21
785.17499
 31
0.0
100
AcDbText
  0
LINE
  5
11F1
100
AcDbEntity
  8
15100_BACK_DIM
370
    13
390
0
  6
CONTINUOUS
 62
     7
100
AcDbLine
 10
340.774999
 20
783.17499
 30
0.0
 11
440.774999
 21
783.17499
 31
0.0
  0
LINE
  5
11F2
100
AcDbEntity
  8
15100_BACK_DIM
370
    13
390
0
  6
CONTINUOUS
 62
     7
100
AcDbLine
 10
440.774999
 20
785.17499
 30
0.0
 11
440.774999
 21
757.67499
 31
0.0
  0
LINE
  5
11F3
100
AcDbEntity
  8
15100_BACK_DIM
370
    13
390
0
  6
CONTINUOUS
 62
     7
100
AcDbLine
 10
340.774999
 20
757.67499
 30
0.0
 11
309.774999
 21
757.67499
 31
0.0
  0
TEXT
  5
11F4
100
AcDbEntity
  8
15100_BACK_DIM
370
    13
390
0
  6
CONTINUOUS
 62
     7
100
AcDbText
 10
309.774999
 20
730.79999
 30
0.0
 40
4.0
  1
6.5
 50
90.0
 51
360.0
 72
     1
 11
309.774999
 21
734.79999
 31
0.0
100
AcDbText
  0
LINE
  5
11F5
100
AcDbEntity
  8
15100_BACK_DIM
370
    13
390
0
  6
CONTINUOUS
 62
     7
100
AcDbLine
 10
311.774999
 20
726.92499
 30
0.0
 11
311.774999
 21
779.17499
 31
0.0
  0
LINE
  5
11F6
100
AcDbEntity
  8
15100_BACK_DIM
370
    13
390
0
  6
CONTINUOUS
 62
     7
100
AcDbLine
 10
309.774999
 20
764.17499
 30
0.0
 11
330.774999
 21
764.17499
 31
0.0
  0
LINE
  5
11F7
100
AcDbEntity
  8
15100_BACK_DIM
370
    13
390
0
  6
CONTINUOUS
 62
     7
100
AcDbLine
 10
440.774999
 20
590.67499
 30
0.0
 11
537.774999
 21
590.67499
 31
0.0
  0
TEXT
  5
11F8
100
AcDbEntity
  8
15100_BACK_DIM
370
    13
390
0
  6
CONTINUOUS
 62
     7
100
AcDbText
 10
533.774999
 20
669.508323
 30
0.0
 40
4.0
  1
167
 50
90.0
 51
360.0
 72
     1
 11
533.774999
 21
674.17499
 31
0.0
100
AcDbText
  0
LINE
  5
11F9
100
AcDbEntity
  8
15100_BACK_DIM
370
    13
390
0
  6
CONTINUOUS
 62
     7
100
AcDbLine
 10
535.774999
 20
590.67499
 30
0.0
 11
535.774999
 21
757.67499
 31
0.0
  0
LINE
  5
11FA
100
AcDbEntity
  8
15100_BACK_DIM
370
    13
390
0
  6
CONTINUOUS
 62
     7
100
AcDbLine
 10
537.774999
 20
757.67499
 30
0.0
 11
440.774999
 21
757.67499
 31
0.0
  0
LINE
  5
11FB
100
AcDbEntity
  8
15100_BACK_DIM
370
    13
390
0
  6
CONTINUOUS
 62
     7
100
AcDbLine
 10
450.774999
 20
584.17499
 30
0.0
 11
521.774999
 21
584.17499
 31
0.0
  0
TEXT
  5
11FC
100
AcDbEntity
  8
15100_BACK_DIM
370
    13
390
0
  6
CONTINUOUS
 62
     7
100
AcDbText
 10
517.774999
 20
557.29999
 30
0.0
 40
4.0
  1
6.5
 50
90.0
 51
360.0
 72
     1
 11
517.774999
 21
561.29999
 31
0.0
100
AcDbText
  0
LINE
  5
11FD
100
AcDbEntity
  8
15100_BACK_DIM
370
    13
390
0
  6
CONTINUOUS
 62
     7
100
AcDbLine
 10
519.774999
 20
553.42499
 30
0.0
 11
519.774999
 21
605.67499
 31
0.0
  0
LINE
  5
11FE
100
AcDbEntity
  8
15100_BACK_DIM
370
    13
390
0
  6
CONTINUOUS
 62
     7
100
AcDbLine
 10
521.774999
 20
590.67499
 30
0.0
 11
440.774999
 21
590.67499
 31
0.0
  0
LINE
  5
11FF
100
AcDbEntity
  8
15100_BACK_DIM
370
    13
390
0
  6
CONTINUOUS
 62
     7
100
AcDbLine
 10
440.774999
 20
757.67499
 30
0.0
 11
450.774999
 21
767.67499
 31
0.0
  0
TEXT
  5
1200
100
AcDbEntity
  8
15100_BACK_DIM
370
    13
390
0
  6
CONTINUOUS
 62
     7
100
AcDbText
 10
450.774999
 20
767.67499
 30
0.0
 40
4.0
  1
7
100
AcDbText
  0
CIRCLE
  5
1201
100
AcDbEntity
  8
15100_BACK_DIM
370
    13
390
0
  6
CONTINUOUS
 62
     7
100
AcDbCircle
 10
447.974999
 20
768.54999
 30
0.0
 40
1.75
  0
LINE
  5
1202
100
AcDbEntity
  8
15100_BACK_DIM
370
    13
390
0
  6
CONTINUOUS
 62
     7
100
AcDbLine
 10
446.224999
 20
766.79999
 30
0.0
 11
449.724999
 21
770.29999
 31
0.0
  0
LINE
  5
1203
100
AcDbEntity
  8
15100_BACK_DIM
370
    13
390
0
  6
CONTINUOUS
 62
     7
100
AcDbLine
 10
440.774999
 20
590.67499
 30
0.0
 11
430.774999
 21
600.67499
 31
0.0
  0
TEXT
  5
1204
100
AcDbEntity
  8
15100_BACK_DIM
370
    13
390
0
  6
CONTINUOUS
 62
     7
100
AcDbText
 10
430.774999
 20
600.67499
 30
0.0
 40
4.0
  1
7
100
AcDbText
  0
CIRCLE
  5
1205
100
AcDbEntity
  8
15100_BACK_DIM
370
    13
390
0
  6
CONTINUOUS
 62
     7
100
AcDbCircle
 10
427.974999
 20
601.54999
 30
0.0
 40
1.75
  0
LINE
  5
1206
100
AcDbEntity
  8
15100_BACK_DIM
370
    13
390
0
  6
CONTINUOUS
 62
     7
100
AcDbLine
 10
426.224999
 20
599.79999
 30
0.0
 11
429.724999
 21
603.29999
 31
0.0
  0
SOLID
  5
1207
100
AcDbEntity
  8
15100_BACK_DIM
370
    13
390
0
  6
CONTINUOUS
 62
     7
100
AcDbTrace
 10
320.774999
 20
797.17499
 30
0.0
 11
330.774999
 21
799.17499
 31
0.0
 12
320.774999
 22
801.17499
 32
0.0
 13
330.774999
 23
799.17499
 33
0.0
  0
SOLID
  5
1208
100
AcDbEntity
  8
15100_BACK_DIM
370
    13
390
0
  6
CONTINUOUS
 62
     7
100
AcDbTrace
 10
350.774999
 20
801.17499
 30
0.0
 11
340.774999
 21
799.17499
 31
0.0
 12
350.774999
 22
797.17499
 32
0.0
 13
340.774999
 23
799.17499
 33
0.0
  0
SOLID
  5
1209
100
AcDbEntity
  8
15100_BACK_DIM
370
    13
390
0
  6
CONTINUOUS
 62
     7
100
AcDbTrace
 10
350.774999
 20
785.17499
 30
0.0
 11
340.774999
 21
783.17499
 31
0.0
 12
350.774999
 22
781.17499
 32
0.0
 13
340.774999
 23
783.17499
 33
0.0
  0
SOLID
  5
120A
100
AcDbEntity
  8
15100_BACK_DIM
370
    13
390
0
  6
CONTINUOUS
 62
     7
100
AcDbTrace
 10
430.774999
 20
781.17499
 30
0.0
 11
440.774999
 21
783.17499
 31
0.0
 12
430.774999
 22
785.17499
 32
0.0
 13
440.774999
 23
783.17499
 33
0.0
  0
SOLID
  5
120B
100
AcDbEntity
  8
15100_BACK_DIM
370
    13
390
0
  6
CONTINUOUS
 62
     7
100
AcDbTrace
 10
313.774999
 20
747.67499
 30
0.0
 11
311.774999
 21
757.67499
 31
0.0
 12
309.774999
 22
747.67499
 32
0.0
 13
311.774999
 23
757.67499
 33
0.0
  0
SOLID
  5
120C
100
AcDbEntity
  8
15100_BACK_DIM
370
    13
390
0
  6
CONTINUOUS
 62
     7
100
AcDbTrace
 10
309.774999
 20
774.17499
 30
0.0
 11
311.774999
 21
764.17499
 31
0.0
 12
313.774999
 22
774.17499
 32
0.0
 13
311.774999
 23
764.17499
 33
0.0
  0
SOLID
  5
120D
100
AcDbEntity
  8
15100_BACK_DIM
370
    13
390
0
  6
CONTINUOUS
 62
     7
100
AcDbTrace
 10
533.774999
 20
600.67499
 30
0.0
 11
535.774999
 21
590.67499
 31
0.0
 12
537.774999
 22
600.67499
 32
0.0
 13
535.774999
 23
590.67499
 33
0.0
  0
SOLID
  5
120E
100
AcDbEntity
  8
15100_BACK_DIM
370
    13
390
0
  6
CONTINUOUS
 62
     7
100
AcDbTrace
 10
537.774999
 20
747.67499
 30
0.0
 11
535.774999
 21
757.67499
 31
0.0
 12
533.774999
 22
747.67499
 32
0.0
 13
535.774999
 23
757.67499
 33
0.0
  0
SOLID
  5
120F
100
AcDbEntity
  8
15100_BACK_DIM
370
    13
390
0
  6
CONTINUOUS
 62
     7
100
AcDbTrace
 10
521.774999
 20
574.17499
 30
0.0
 11
519.774999
 21
584.17499
 31
0.0
 12
517.774999
 22
574.17499
 32
0.0
 13
519.774999
 23
584.17499
 33
0.0
  0
SOLID
  5
1210
100
AcDbEntity
  8
15100_BACK_DIM
370
    13
390
0
  6
CONTINUOUS
 62
     7
100
AcDbTrace
 10
517.774999
 20
600.67499
 30
0.0
 11
519.774999
 21
590.67499
 31
0.0
 12
521.774999
 22
600.67499
 32
0.0
 13
519.774999
 23
590.67499
 33
0.0
  0
LINE
  5
1211
100
AcDbEntity
  8
90000_FRAME
370
    13
  6
CONTINUOUS
 62
     7
100
AcDbLine
 10
202.816288
 20
237.987433
 30
0.0
 11
202.816288
 21
1317.987433
 31
0.0
  0
LINE
  5
1212
100
AcDbEntity
  8
90000_FRAME
370
    13
  6
CONTINUOUS
 62
     7
100
AcDbLine
 10
1002.816288
 20
1317.987433
 30
0.0
 11
202.816288
 21
1317.987433
 31
0.0
  0
LINE
  5
1213
100
AcDbEntity
  8
91000_TIP
370
    13
  6
CONTINUOUS
 62
     7
100
AcDbLine
 10
328.334131
 20
302.827797
 30
0.0
 11
368.33413
 21
312.827797
 31
0.0
  0
LINE
  5
1214
100
AcDbEntity
  8
91000_TIP
370
    13
  6
CONTINUOUS
 62
     7
100
AcDbLine
 10
323.216089
 20
292.827797
 30
0.0
 11
417.624046
 21
292.827797
 31
0.0
  0
LINE
  5
1215
100
AcDbEntity
  8
91000_TIP
370
    13
  6
CONTINUOUS
 62
     7
100
AcDbLine
 10
328.334131
 20
282.827797
 30
0.0
 11
368.33413
 21
272.827798
 31
0.0
  0
LINE
  5
1216
100
AcDbEntity
  8
91000_TIP
370
    13
  6
CONTINUOUS
 62
     7
100
AcDbLine
 10
328.334131
 20
302.827797
 30
0.0
 11
328.334131
 21
282.827797
 31
0.0
  0
LINE
  5
1217
100
AcDbEntity
  8
91000_TIP
370
    13
  6
CONTINUOUS
 62
     7
100
AcDbLine
 10
368.33413
 20
312.827797
 30
0.0
 11
368.33413
 21
272.827798
 31
0.0
  0
LINE
  5
1218
100
AcDbEntity
  8
91000_TIP
370
    13
  6
CONTINUOUS
 62
     7
100
AcDbLine
 10
394.33413
 20
269.941872
 30
0.0
 11
394.33413
 21
315.075416
 31
0.0
  0
CIRCLE
  5
1219
100
AcDbEntity
  8
91000_TIP
370
    13
  6
CONTINUOUS
 62
     7
100
AcDbCircle
 10
394.33413
 20
292.827797
 30
0.0
 40
20.0
  0
CIRCLE
  5
121A
100
AcDbEntity
  8
91000_TIP
370
    13
  6
CONTINUOUS
 62
     7
100
AcDbCircle
 10
394.33413
 20
292.827797
 30
0.0
 40
10.0
  0
TEXT
  5
121B
100
AcDbEntity
  8
90000_FRAME
370
    13
  6
CONTINUOUS
 62
     7
100
AcDbText
 10
445.05445
 20
337.09825
 30
0.0
 40
8.8
  1
All dimensions are in millimeters (mm)
 41
0.961374
100
AcDbText
  0
TEXT
  5
121C
100
AcDbEntity
  8
90000_FRAME
370
    13
  6
CONTINUOUS
 62
     7
100
AcDbText
 10
445.05445
 20
349.614339
 30
0.0
 40
8.8
  1
Alle Bemassungswerte sind in Millimeter (mm) angegeben.
 41
0.825144
100
AcDbText
  0
LINE
  5
121D
100
AcDbEntity
  8
90000_FRAME
370
    13
  6
CONTINUOUS
 62
     7
100
AcDbLine
 10
1002.816288
 20
237.987433
 30
0.0
 11
1002.816288
 21
1317.987433
 31
0.0
  0
LINE
  5
121E
100
AcDbEntity
  8
90000_FRAME
370
    13
  6
CONTINUOUS
 62
     7
100
AcDbLine
 10
1002.816288
 20
237.987433
 30
0.0
 11
202.816288
 21
237.987433
 31
0.0
  0
TEXT
  5
121F
100
AcDbEntity
  8
90000_FRAME
370
    13
  6
CONTINUOUS
 62
     7
100
AcDbText
 10
648.608621
 20
308.8
 30
0.0
 40
12.0
  1

 41
0.784213
100
AcDbText
  0
TEXT
  5
1220
100
AcDbEntity
  8
90000_FRAME
370
    13
  6
CONTINUOUS
 62
     7
100
AcDbText
 10
815.456288
 20
265.587433
 30
0.0
 40
8.8
  1
Massstab/Scale:
 41
0.9
100
AcDbText
  0
TEXT
  5
1221
100
AcDbEntity
  8
90000_FRAME
370
    13
  6
CONTINUOUS
 62
     7
100
AcDbText
 10
648.0
 20
265.587433
 30
0.0
 40
8.8
  1
Format/Size: DIN A4
 41
0.803258
100
AcDbText
  0
LINE
  5
1222
100
AcDbEntity
  8
90000_FRAME
370
    13
  6
CONTINUOUS
 62
     7
100
AcDbLine
 10
982.816288
 20
257.987433
 30
0.0
 11
982.816288
 21
329.987433
 31
0.0
  0
LINE
  5
1223
100
AcDbEntity
  8
90000_FRAME
370
    13
  6
CONTINUOUS
 62
     7
100
AcDbLine
 10
812.816288
 20
257.987433
 30
0.0
 11
812.816288
 21
281.987433
 31
0.0
  0
LINE
  5
1224
100
AcDbEntity
  8
90000_FRAME
370
    13
  6
CONTINUOUS
 62
     7
100
AcDbLine
 10
642.816288
 20
257.987433
 30
0.0
 11
642.816288
 21
329.987433
 31
0.0
  0
LINE
  5
1225
100
AcDbEntity
  8
90000_FRAME
370
    13
  6
CONTINUOUS
 62
     7
100
AcDbLine
 10
442.816288
 20
329.987433
 30
0.0
 11
982.816288
 21
329.987433
 31
0.0
  0
LINE
  5
1226
100
AcDbEntity
  8
90000_FRAME
370
    13
  6
CONTINUOUS
 62
     7
100
AcDbLine
 10
642.816288
 20
281.987433
 30
0.0
 11
982.816288
 21
281.987433
 31
0.0
  0
LINE
  5
1227
100
AcDbEntity
  8
90000_FRAME
370
    13
  6
CONTINUOUS
 62
     7
100
AcDbLine
 10
442.816288
 20
257.987433
 30
0.0
 11
442.816288
 21
329.987433
 31
0.0
  0
LINE
  5
1228
100
AcDbEntity
  8
90000_FRAME
370
    13
  6
CONTINUOUS
 62
     7
100
AcDbLine
 10
442.816288
 20
257.987433
 30
0.0
 11
982.816288
 21
257.987433
 31
0.0
  0
LINE
  5
1229
100
AcDbEntity
  8
90000_FRAME
370
    13
  6
CONTINUOUS
 62
     7
100
AcDbLine
 10
499.56109
 20
303.645625
 30
0.0
 11
499.56109
 21
284.632548
 31
0.0
  0
LINE
  5
122A
100
AcDbEntity
  8
90000_FRAME
370
    13
  6
CONTINUOUS
 62
     7
100
AcDbLine
 10
505.265013
 20
303.645625
 30
0.0
 11
505.265013
 21
284.632548
 31
0.0
  0
LINE
  5
122B
100
AcDbEntity
  8
90000_FRAME
370
    13
  6
CONTINUOUS
 62
     7
100
AcDbLine
 10
499.56109
 20
284.632548
 30
0.0
 11
505.265013
 21
284.632548
 31
0.0
  0
LINE
  5
122C
100
AcDbEntity
  8
90000_FRAME
370
    13
  6
CONTINUOUS
 62
     7
100
AcDbLine
 10
499.56109
 20
303.645625
 30
0.0
 11
505.265013
 21
303.645625
 31
0.0
  0
LINE
  5
122D
100
AcDbEntity
  8
90000_FRAME
370
    13
  6
CONTINUOUS
 62
     7
100
AcDbLine
 10
509.63802
 20
303.645625
 30
0.0
 11
509.63802
 21
284.632548
 31
0.0
  0
LINE
  5
122E
100
AcDbEntity
  8
90000_FRAME
370
    13
  6
CONTINUOUS
 62
     7
100
AcDbLine
 10
509.63802
 20
284.632548
 30
0.0
 11
523.897827
 21
284.632548
 31
0.0
  0
LINE
  5
122F
100
AcDbEntity
  8
90000_FRAME
370
    13
  6
CONTINUOUS
 62
     7
100
AcDbLine
 10
523.897827
 20
288.245033
 30
0.0
 11
515.151812
 21
288.245033
 31
0.0
  0
LINE
  5
1230
100
AcDbEntity
  8
90000_FRAME
370
    13
  6
CONTINUOUS
 62
     7
100
AcDbLine
 10
523.897827
 20
288.245033
 30
0.0
 11
523.897827
 21
284.632548
 31
0.0
  0
LINE
  5
1231
100
AcDbEntity
  8
90000_FRAME
370
    13
  6
CONTINUOUS
 62
     7
100
AcDbLine
 10
523.707697
 20
303.645625
 30
0.0
 11
509.63802
 21
303.645625
 31
0.0
  0
LINE
  5
1232
100
AcDbEntity
  8
90000_FRAME
370
    13
  6
CONTINUOUS
 62
     7
100
AcDbLine
 10
523.707697
 20
300.128206
 30
0.0
 11
515.151812
 21
300.128206
 31
0.0
  0
LINE
  5
1233
100
AcDbEntity
  8
90000_FRAME
370
    13
  6
CONTINUOUS
 62
     7
100
AcDbLine
 10
523.707697
 20
303.645625
 30
0.0
 11
523.707697
 21
300.128206
 31
0.0
  0
LINE
  5
1234
100
AcDbEntity
  8
90000_FRAME
370
    13
  6
CONTINUOUS
 62
     7
100
AcDbLine
 10
522.566912
 20
292.713106
 30
0.0
 11
515.151812
 21
292.713106
 31
0.0
  0
LINE
  5
1235
100
AcDbEntity
  8
90000_FRAME
370
    13
  6
CONTINUOUS
 62
     7
100
AcDbLine
 10
522.566912
 20
295.850263
 30
0.0
 11
522.566912
 21
292.713106
 31
0.0
  0
LINE
  5
1236
100
AcDbEntity
  8
90000_FRAME
370
    13
  6
CONTINUOUS
 62
     7
100
AcDbLine
 10
522.566912
 20
295.850263
 30
0.0
 11
515.151812
 21
295.850263
 31
0.0
  0
LINE
  5
1237
100
AcDbEntity
  8
90000_FRAME
370
    13
  6
CONTINUOUS
 62
     7
100
AcDbLine
 10
515.151812
 20
300.128206
 30
0.0
 11
515.151812
 21
295.850263
 31
0.0
  0
LINE
  5
1238
100
AcDbEntity
  8
90000_FRAME
370
    13
  6
CONTINUOUS
 62
     7
100
AcDbLine
 10
515.151812
 20
292.713106
 30
0.0
 11
515.151812
 21
288.245033
 31
0.0
  0
LINE
  5
1239
100
AcDbEntity
  8
90000_FRAME
370
    13
  6
CONTINUOUS
 62
     7
100
AcDbLine
 10
527.13005
 20
284.632548
 30
0.0
 11
527.13005
 21
303.645625
 31
0.0
  0
LINE
  5
123A
100
AcDbEntity
  8
90000_FRAME
370
    13
  6
CONTINUOUS
 62
     7
100
AcDbLine
 10
527.13005
 20
284.632548
 30
0.0
 11
530.932666
 21
284.632548
 31
0.0
  0
LINE
  5
123B
100
AcDbEntity
  8
90000_FRAME
370
    13
  6
CONTINUOUS
 62
     7
100
AcDbLine
 10
550.516134
 20
303.645625
 30
0.0
 11
550.516134
 21
284.632548
 31
0.0
  0
LINE
  5
123C
100
AcDbEntity
  8
90000_FRAME
370
    13
  6
CONTINUOUS
 62
     7
100
AcDbLine
 10
550.516134
 20
284.632548
 30
0.0
 11
545.002342
 21
284.632548
 31
0.0
  0
LINE
  5
123D
100
AcDbEntity
  8
90000_FRAME
370
    13
  6
CONTINUOUS
 62
     7
100
AcDbLine
 10
536.256327
 20
284.442418
 30
0.0
 11
539.678681
 21
284.442418
 31
0.0
  0
LINE
  5
123E
100
AcDbEntity
  8
90000_FRAME
370
    13
  6
CONTINUOUS
 62
     7
100
AcDbLine
 10
536.256327
 20
284.442418
 30
0.0
 11
530.932666
 21
296.800917
 31
0.0
  0
LINE
  5
123F
100
AcDbEntity
  8
90000_FRAME
370
    13
  6
CONTINUOUS
 62
     7
100
AcDbLine
 10
530.932666
 20
284.632548
 30
0.0
 11
530.932666
 21
296.800917
 31
0.0
  0
LINE
  5
1240
100
AcDbEntity
  8
90000_FRAME
370
    13
  6
CONTINUOUS
 62
     7
100
AcDbLine
 10
545.002342
 20
296.991048
 30
0.0
 11
539.678681
 21
284.442418
 31
0.0
  0
LINE
  5
1241
100
AcDbEntity
  8
90000_FRAME
370
    13
  6
CONTINUOUS
 62
     7
100
AcDbLine
 10
533.974758
 20
303.645625
 30
0.0
 11
527.13005
 21
303.645625
 31
0.0
  0
LINE
  5
1242
100
AcDbEntity
  8
90000_FRAME
370
    13
  6
CONTINUOUS
 62
     7
100
AcDbLine
 10
550.516134
 20
303.645625
 30
0.0
 11
543.671427
 21
303.645625
 31
0.0
  0
LINE
  5
1243
100
AcDbEntity
  8
90000_FRAME
370
    13
  6
CONTINUOUS
 62
     7
100
AcDbLine
 10
533.974758
 20
303.645625
 30
0.0
 11
538.918158
 21
292.047648
 31
0.0
  0
LINE
  5
1244
100
AcDbEntity
  8
90000_FRAME
370
    13
  6
CONTINUOUS
 62
     7
100
AcDbLine
 10
543.671427
 20
303.645625
 30
0.0
 11
538.918158
 21
292.047648
 31
0.0
  0
LINE
  5
1245
100
AcDbEntity
  8
90000_FRAME
370
    13
  6
CONTINUOUS
 62
     7
100
AcDbLine
 10
545.002342
 20
296.991048
 30
0.0
 11
545.002342
 21
284.632548
 31
0.0
  0
LINE
  5
1246
100
AcDbEntity
  8
90000_FRAME
370
    13
  6
CONTINUOUS
 62
     7
100
AcDbLine
 10
554.889142
 20
303.645625
 30
0.0
 11
554.889142
 21
284.632548
 31
0.0
  0
LINE
  5
1247
100
AcDbEntity
  8
90000_FRAME
370
    13
  6
CONTINUOUS
 62
     7
100
AcDbLine
 10
554.889142
 20
284.632548
 30
0.0
 11
569.148949
 21
284.632548
 31
0.0
  0
LINE
  5
1248
100
AcDbEntity
  8
90000_FRAME
370
    13
  6
CONTINUOUS
 62
     7
100
AcDbLine
 10
569.148949
 20
288.245033
 30
0.0
 11
560.402934
 21
288.245033
 31
0.0
  0
LINE
  5
1249
100
AcDbEntity
  8
90000_FRAME
370
    13
  6
CONTINUOUS
 62
     7
100
AcDbLine
 10
569.148949
 20
288.245033
 30
0.0
 11
569.148949
 21
284.632548
 31
0.0
  0
LINE
  5
124A
100
AcDbEntity
  8
90000_FRAME
370
    13
  6
CONTINUOUS
 62
     7
100
AcDbLine
 10
568.958818
 20
303.645625
 30
0.0
 11
554.889142
 21
303.645625
 31
0.0
  0
LINE
  5
124B
100
AcDbEntity
  8
90000_FRAME
370
    13
  6
CONTINUOUS
 62
     7
100
AcDbLine
 10
568.958818
 20
300.128206
 30
0.0
 11
560.402934
 21
300.128206
 31
0.0
  0
LINE
  5
124C
100
AcDbEntity
  8
90000_FRAME
370
    13
  6
CONTINUOUS
 62
     7
100
AcDbLine
 10
568.958818
 20
303.645625
 30
0.0
 11
568.958818
 21
300.128206
 31
0.0
  0
LINE
  5
124D
100
AcDbEntity
  8
90000_FRAME
370
    13
  6
CONTINUOUS
 62
     7
100
AcDbLine
 10
567.818034
 20
292.713106
 30
0.0
 11
560.402934
 21
292.713106
 31
0.0
  0
LINE
  5
124E
100
AcDbEntity
  8
90000_FRAME
370
    13
  6
CONTINUOUS
 62
     7
100
AcDbLine
 10
567.818034
 20
295.850263
 30
0.0
 11
567.818034
 21
292.713106
 31
0.0
  0
LINE
  5
124F
100
AcDbEntity
  8
90000_FRAME
370
    13
  6
CONTINUOUS
 62
     7
100
AcDbLine
 10
567.818034
 20
295.850263
 30
0.0
 11
560.402934
 21
295.850263
 31
0.0
  0
LINE
  5
1250
100
AcDbEntity
  8
90000_FRAME
370
    13
  6
CONTINUOUS
 62
     7
100
AcDbLine
 10
560.402934
 20
300.128206
 30
0.0
 11
560.402934
 21
295.850263
 31
0.0
  0
LINE
  5
1251
100
AcDbEntity
  8
90000_FRAME
370
    13
  6
CONTINUOUS
 62
     7
100
AcDbLine
 10
560.402934
 20
292.713106
 30
0.0
 11
560.402934
 21
288.245033
 31
0.0
  0
LINE
  5
1252
100
AcDbEntity
  8
90000_FRAME
370
    13
  6
CONTINUOUS
 62
     7
100
AcDbLine
 10
572.286107
 20
284.632548
 30
0.0
 11
572.286107
 21
303.645625
 31
0.0
  0
LINE
  5
1253
100
AcDbEntity
  8
90000_FRAME
370
    13
  6
CONTINUOUS
 62
     7
100
AcDbLine
 10
589.017614
 20
303.645625
 30
0.0
 11
589.017614
 21
284.632548
 31
0.0
  0
LINE
  5
1254
100
AcDbEntity
  8
90000_FRAME
370
    13
  6
CONTINUOUS
 62
     7
100
AcDbLine
 10
572.286107
 20
284.632548
 30
0.0
 11
576.088722
 21
284.632548
 31
0.0
  0
LINE
  5
1255
100
AcDbEntity
  8
90000_FRAME
370
    13
  6
CONTINUOUS
 62
     7
100
AcDbLine
 10
589.017614
 20
303.645625
 30
0.0
 11
585.214999
 21
303.645625
 31
0.0
  0
LINE
  5
1256
100
AcDbEntity
  8
90000_FRAME
370
    13
  6
CONTINUOUS
 62
     7
100
AcDbLine
 10
578.465356
 20
303.645625
 30
0.0
 11
572.286107
 21
303.645625
 31
0.0
  0
LINE
  5
1257
100
AcDbEntity
  8
90000_FRAME
370
    13
  6
CONTINUOUS
 62
     7
100
AcDbLine
 10
589.017614
 20
284.632548
 30
0.0
 11
582.933429
 21
284.632548
 31
0.0
  0
LINE
  5
1258
100
AcDbEntity
  8
90000_FRAME
370
    13
  6
CONTINUOUS
 62
     7
100
AcDbLine
 10
582.933429
 20
284.632548
 30
0.0
 11
576.088722
 21
296.800917
 31
0.0
  0
LINE
  5
1259
100
AcDbEntity
  8
90000_FRAME
370
    13
  6
CONTINUOUS
 62
     7
100
AcDbLine
 10
578.465356
 20
303.645625
 30
0.0
 11
585.214999
 21
291.857517
 31
0.0
  0
LINE
  5
125A
100
AcDbEntity
  8
90000_FRAME
370
    13
  6
CONTINUOUS
 62
     7
100
AcDbLine
 10
585.214999
 20
303.645625
 30
0.0
 11
585.214999
 21
291.857517
 31
0.0
  0
LINE
  5
125B
100
AcDbEntity
  8
90000_FRAME
370
    13
  6
CONTINUOUS
 62
     7
100
AcDbLine
 10
576.088722
 20
284.632548
 30
0.0
 11
576.088722
 21
296.800917
 31
0.0
  0
LINE
  5
125C
100
AcDbEntity
  8
90000_FRAME
370
    13
  6
CONTINUOUS
 62
     7
100
AcDbLine
 10
592.249837
 20
285.01281
 30
0.0
 11
592.249837
 21
288.815425
 31
0.0
  0
LINE
  5
125D
100
AcDbEntity
  8
90000_FRAME
370
    13
  6
CONTINUOUS
 62
     7
100
AcDbLine
 10
605.55899
 20
299.652879
 30
0.0
 11
605.55899
 21
303.455494
 31
0.0
  0
ARC
  5
125E
100
AcDbEntity
  8
90000_FRAME
370
    13
  6
CONTINUOUS
 62
     7
100
AcDbCircle
 10
599.068401
 20
292.461183
 30
0.0
 40
4.446477
100
AcDbArc
 50
277.709996
 51
295.688493
  0
ARC
  5
125F
100
AcDbEntity
  8
90000_FRAME
370
    13
  6
CONTINUOUS
 62
     7
100
AcDbCircle
 10
600.205641
 20
289.56188
 30
0.0
 40
1.360676
100
AcDbArc
 50
305.503221
 51
72.46529
  0
ARC
  5
1260
100
AcDbEntity
  8
90000_FRAME
370
    13
  6
CONTINUOUS
 62
     7
100
AcDbCircle
 10
597.941666
 20
303.168707
 30
0.0
 40
19.027179
100
AcDbArc
 50
252.59392
 51
280.98166
  0
ARC
  5
1261
100
AcDbEntity
  8
90000_FRAME
370
    13
  6
CONTINUOUS
 62
     7
100
AcDbCircle
 10
599.761007
 20
292.696652
 30
0.0
 40
8.402906
100
AcDbArc
 50
282.405836
 51
311.864443
  0
ARC
  5
1262
100
AcDbEntity
  8
90000_FRAME
370
    13
  6
CONTINUOUS
 62
     7
100
AcDbCircle
 10
598.66675
 20
299.130019
 30
0.0
 40
1.211851
100
AcDbArc
 50
154.440035
 51
221.82017
  0
ARC
  5
1263
100
AcDbEntity
  8
90000_FRAME
370
    13
  6
CONTINUOUS
 62
     7
100
AcDbCircle
 10
598.983635
 20
298.813135
 30
0.0
 40
1.641236
100
AcDbArc
 50
102.828783
 51
149.225964
  0
ARC
  5
1264
100
AcDbEntity
  8
90000_FRAME
370
    13
  6
CONTINUOUS
 62
     7
100
AcDbCircle
 10
600.651742
 20
291.843793
 30
0.0
 40
8.807346
100
AcDbArc
 50
84.040006
 51
103.342766
  0
ARC
  5
1265
100
AcDbEntity
  8
90000_FRAME
370
    13
  6
CONTINUOUS
 62
     7
100
AcDbCircle
 10
599.287887
 20
282.174338
 30
0.0
 40
18.569495
100
AcDbArc
 50
70.262586
 51
82.952419
  0
ARC
  5
1266
100
AcDbEntity
  8
90000_FRAME
370
    13
  6
CONTINUOUS
 62
     7
100
AcDbCircle
 10
597.231814
 20
300.860829
 30
0.0
 40
13.035024
100
AcDbArc
 50
247.530021
 51
280.757952
  0
ARC
  5
1267
100
AcDbEntity
  8
90000_FRAME
370
    13
  6
CONTINUOUS
 62
     7
100
AcDbCircle
 10
571.691948
 20
227.854749
 30
0.0
 40
69.326434
100
AcDbArc
 50
65.341467
 51
67.399777
  0
ARC
  5
1268
100
AcDbEntity
  8
90000_FRAME
370
    13
  6
CONTINUOUS
 62
     7
100
AcDbCircle
 10
614.875398
 20
331.024455
 30
0.0
 40
42.516657
100
AcDbArc
 50
242.86201
 51
247.104203
  0
ARC
  5
1269
100
AcDbEntity
  8
90000_FRAME
370
    13
  6
CONTINUOUS
 62
     7
100
AcDbCircle
 10
599.455793
 20
300.888729
 30
0.0
 40
8.665167
100
AcDbArc
 50
227.311928
 51
242.704032
  0
ARC
  5
126A
100
AcDbEntity
  8
90000_FRAME
370
    13
  6
CONTINUOUS
 62
     7
100
AcDbCircle
 10
597.039669
 20
298.066018
 30
0.0
 40
4.954087
100
AcDbArc
 50
194.795219
 51
225.717655
  0
ARC
  5
126B
100
AcDbEntity
  8
90000_FRAME
370
    13
  6
CONTINUOUS
 62
     7
100
AcDbCircle
 10
597.288302
 20
298.226898
 30
0.0
 40
5.236368
100
AcDbArc
 50
164.197486
 51
195.802514
  0
ARC
  5
126C
100
AcDbEntity
  8
90000_FRAME
370
    13
  6
CONTINUOUS
 62
     7
100
AcDbCircle
 10
599.516397
 20
294.673829
 30
0.0
 40
9.467699
100
AcDbArc
 50
86.221802
 51
120.42726
  0
ARC
  5
126D
100
AcDbEntity
  8
90000_FRAME
370
    13
  6
CONTINUOUS
 62
     7
100
AcDbCircle
 10
598.44097
 20
267.889158
 30
0.0
 40
36.271621
100
AcDbArc
 50
78.682705
 51
87.31476
  0
ARC
  5
126E
100
AcDbEntity
  8
90000_FRAME
370
    13
  6
CONTINUOUS
 62
     7
100
AcDbCircle
 10
596.616693
 20
298.656929
 30
0.0
 40
4.47899
100
AcDbArc
 50
142.813918
 51
167.152295
  0
ARC
  5
126F
100
AcDbEntity
  8
90000_FRAME
370
    13
  6
CONTINUOUS
 62
     7
100
AcDbCircle
 10
597.99793
 20
297.430602
 30
0.0
 40
6.322187
100
AcDbArc
 50
121.214095
 51
141.525477
  0
ARC
  5
1270
100
AcDbEntity
  8
90000_FRAME
370
    13
  6
CONTINUOUS
 62
     7
100
AcDbCircle
 10
600.306628
 20
300.674832
 30
0.0
 40
3.46451
100
AcDbArc
 50
222.776039
 51
239.036243
  0
ARC
  5
1271
100
AcDbEntity
  8
90000_FRAME
370
    13
  6
CONTINUOUS
 62
     7
100
AcDbCircle
 10
590.27979
 20
271.353743
 30
0.0
 40
27.435094
100
AcDbArc
 50
59.902027
 51
68.203648
  0
ARC
  5
1272
100
AcDbEntity
  8
90000_FRAME
370
    13
  6
CONTINUOUS
 62
     7
100
AcDbCircle
 10
603.913768
 20
307.057289
 30
0.0
 40
10.794964
100
AcDbArc
 50
240.0482
 51
251.377967
  0
ARC
  5
1273
100
AcDbEntity
  8
90000_FRAME
370
    13
  6
CONTINUOUS
 62
     7
100
AcDbCircle
 10
601.251939
 20
290.429694
 30
0.0
 40
5.73379
100
AcDbArc
 50
315.890455
 51
333.522926
  0
ARC
  5
1274
100
AcDbEntity
  8
90000_FRAME
370
    13
  6
CONTINUOUS
 62
     7
100
AcDbCircle
 10
601.270492
 20
290.216066
 30
0.0
 40
5.624915
100
AcDbArc
 50
335.386797
 51
24.391512
  0
ARC
  5
1275
100
AcDbEntity
  8
90000_FRAME
370
    13
  6
CONTINUOUS
 62
     7
100
AcDbCircle
 10
600.981672
 20
289.904639
 30
0.0
 40
6.01881
100
AcDbArc
 50
25.956292
 51
59.483483
  0
LINE
  5
1276
100
AcDbEntity
  8
90000_FRAME
370
    13
  6
CONTINUOUS
 62
     7
100
AcDbLine
 10
481.878929
 20
285.01281
 30
0.0
 11
481.878929
 21
288.815425
 31
0.0
  0
LINE
  5
1277
100
AcDbEntity
  8
90000_FRAME
370
    13
  6
CONTINUOUS
 62
     7
100
AcDbLine
 10
495.188082
 20
299.652879
 30
0.0
 11
495.188082
 21
303.455494
 31
0.0
  0
ARC
  5
1278
100
AcDbEntity
  8
90000_FRAME
370
    13
  6
CONTINUOUS
 62
     7
100
AcDbCircle
 10
488.697493
 20
292.461183
 30
0.0
 40
4.446477
100
AcDbArc
 50
277.709996
 51
295.688493
  0
ARC
  5
1279
100
AcDbEntity
  8
90000_FRAME
370
    13
  6
CONTINUOUS
 62
     7
100
AcDbCircle
 10
489.834733
 20
289.56188
 30
0.0
 40
1.360676
100
AcDbArc
 50
305.503221
 51
72.46529
  0
ARC
  5
127A
100
AcDbEntity
  8
90000_FRAME
370
    13
  6
CONTINUOUS
 62
     7
100
AcDbCircle
 10
487.570758
 20
303.168707
 30
0.0
 40
19.027179
100
AcDbArc
 50
252.59392
 51
280.98166
  0
ARC
  5
127B
100
AcDbEntity
  8
90000_FRAME
370
    13
  6
CONTINUOUS
 62
     7
100
AcDbCircle
 10
489.390099
 20
292.696652
 30
0.0
 40
8.402906
100
AcDbArc
 50
282.405836
 51
311.864443
  0
ARC
  5
127C
100
AcDbEntity
  8
90000_FRAME
370
    13
  6
CONTINUOUS
 62
     7
100
AcDbCircle
 10
488.295842
 20
299.130019
 30
0.0
 40
1.211851
100
AcDbArc
 50
154.440035
 51
221.82017
  0
ARC
  5
127D
100
AcDbEntity
  8
90000_FRAME
370
    13
  6
CONTINUOUS
 62
     7
100
AcDbCircle
 10
488.612727
 20
298.813135
 30
0.0
 40
1.641236
100
AcDbArc
 50
102.828783
 51
149.225964
  0
ARC
  5
127E
100
AcDbEntity
  8
90000_FRAME
370
    13
  6
CONTINUOUS
 62
     7
100
AcDbCircle
 10
490.280834
 20
291.843793
 30
0.0
 40
8.807346
100
AcDbArc
 50
84.040006
 51
103.342766
  0
ARC
  5
127F
100
AcDbEntity
  8
90000_FRAME
370
    13
  6
CONTINUOUS
 62
     7
100
AcDbCircle
 10
488.916979
 20
282.174338
 30
0.0
 40
18.569495
100
AcDbArc
 50
70.262586
 51
82.952419
  0
ARC
  5
1280
100
AcDbEntity
  8
90000_FRAME
370
    13
  6
CONTINUOUS
 62
     7
100
AcDbCircle
 10
486.860906
 20
300.860829
 30
0.0
 40
13.035024
100
AcDbArc
 50
247.530021
 51
280.757952
  0
ARC
  5
1281
100
AcDbEntity
  8
90000_FRAME
370
    13
  6
CONTINUOUS
 62
     7
100
AcDbCircle
 10
461.32104
 20
227.854749
 30
0.0
 40
69.326434
100
AcDbArc
 50
65.341467
 51
67.399777
  0
ARC
  5
1282
100
AcDbEntity
  8
90000_FRAME
370
    13
  6
CONTINUOUS
 62
     7
100
AcDbCircle
 10
504.504489
 20
331.024455
 30
0.0
 40
42.516657
100
AcDbArc
 50
242.86201
 51
247.104203
  0
ARC
  5
1283
100
AcDbEntity
  8
90000_FRAME
370
    13
  6
CONTINUOUS
 62
     7
100
AcDbCircle
 10
489.084885
 20
300.888729
 30
0.0
 40
8.665167
100
AcDbArc
 50
227.311928
 51
242.704032
  0
ARC
  5
1284
100
AcDbEntity
  8
90000_FRAME
370
    13
  6
CONTINUOUS
 62
     7
100
AcDbCircle
 10
486.668761
 20
298.066018
 30
0.0
 40
4.954087
100
AcDbArc
 50
194.795219
 51
225.717655
  0
ARC
  5
1285
100
AcDbEntity
  8
90000_FRAME
370
    13
  6
CONTINUOUS
 62
     7
100
AcDbCircle
 10
489.145489
 20
294.673829
 30
0.0
 40
9.467699
100
AcDbArc
 50
86.221802
 51
120.42726
  0
ARC
  5
1286
100
AcDbEntity
  8
90000_FRAME
370
    13
  6
CONTINUOUS
 62
     7
100
AcDbCircle
 10
488.070062
 20
267.889158
 30
0.0
 40
36.271621
100
AcDbArc
 50
78.682705
 51
87.31476
  0
ARC
  5
1287
100
AcDbEntity
  8
90000_FRAME
370
    13
  6
CONTINUOUS
 62
     7
100
AcDbCircle
 10
487.627022
 20
297.430602
 30
0.0
 40
6.322187
100
AcDbArc
 50
121.214095
 51
141.525477
  0
ARC
  5
1288
100
AcDbEntity
  8
90000_FRAME
370
    13
  6
CONTINUOUS
 62
     7
100
AcDbCircle
 10
489.93572
 20
300.674832
 30
0.0
 40
3.46451
100
AcDbArc
 50
222.776039
 51
239.036243
  0
ARC
  5
1289
100
AcDbEntity
  8
90000_FRAME
370
    13
  6
CONTINUOUS
 62
     7
100
AcDbCircle
 10
479.908881
 20
271.353743
 30
0.0
 40
27.435094
100
AcDbArc
 50
59.902027
 51
68.203648
  0
ARC
  5
128A
100
AcDbEntity
  8
90000_FRAME
370
    13
  6
CONTINUOUS
 62
     7
100
AcDbCircle
 10
493.542859
 20
307.057289
 30
0.0
 40
10.794964
100
AcDbArc
 50
240.0482
 51
251.377967
  0
ARC
  5
128B
100
AcDbEntity
  8
90000_FRAME
370
    13
  6
CONTINUOUS
 62
     7
100
AcDbCircle
 10
490.881031
 20
290.429694
 30
0.0
 40
5.73379
100
AcDbArc
 50
315.890455
 51
333.522926
  0
ARC
  5
128C
100
AcDbEntity
  8
90000_FRAME
370
    13
  6
CONTINUOUS
 62
     7
100
AcDbCircle
 10
490.899584
 20
290.216066
 30
0.0
 40
5.624915
100
AcDbArc
 50
335.386797
 51
24.391512
  0
ARC
  5
128D
100
AcDbEntity
  8
90000_FRAME
370
    13
  6
CONTINUOUS
 62
     7
100
AcDbCircle
 10
490.610764
 20
289.904639
 30
0.0
 40
6.01881
100
AcDbArc
 50
25.956292
 51
59.483483
  0
LINE
  5
128E
100
AcDbEntity
  8
90000_FRAME
370
    13
  6
CONTINUOUS
 62
     7
100
AcDbLine
 10
482.646243
 20
301.322403
 30
0.0
 11
483.742506
 21
302.418695
 31
0.0
  0
ARC
  5
128F
100
AcDbEntity
  8
90000_FRAME
370
    13
  6
CONTINUOUS
 62
     7
100
AcDbCircle
 10
486.917394
 20
298.226898
 30
0.0
 40
5.236368
100
AcDbArc
 50
164.197486
 51
195.802514
  0
ARC
  5
1290
100
AcDbEntity
  8
90000_FRAME
370
    13
  6
CONTINUOUS
 62
     7
100
AcDbCircle
 10
486.245785
 20
298.656929
 30
0.0
 40
4.47899
100
AcDbArc
 50
142.813918
 51
167.152295
  0
TEXT
  5
1291
100
AcDbEntity
  8
90000_FRAME
370
    13
  6
CONTINUOUS
 62
     7
100
AcDbText
 10
928.0
 20
265.5876
 30
0.0
 40
8.8
  1
1:4
 41
0.9
100
AcDbText
  0
TEXT
  5
1292
100
AcDbEntity
  8
90000_FRAME
370
    13
  6
CONTINUOUS
 62
     7
100
AcDbText
 10
648.0
 20
288.8
 30
0.0
 40
8.8
  1
3RW4425_00000441_002_ALL.dxf
 41
0.784213
100
AcDbText
  0
ENDSEC
  0
SECTION
  2
OBJECTS
  0
DICTIONARY
  5
FE4
100
AcDbDictionary
280
     0
281
     1
  3
ACAD_GROUP
350
FE5
  3
ACAD_MLINESTYLE
350
FE6
  0
DICTIONARY
  5
FE5
102
{ACAD_REACTORS
330
FE4
102
}
100
AcDbDictionary
280
     0
281
     1
  0
DICTIONARY
  5
FE6
102
{ACAD_REACTORS
330
FE4
102
}
100
AcDbDictionary
280
     0
281
     1
  3
Standard
350
FE7
  0
MLINESTYLE
  5
FE7
102
{ACAD_REACTORS
330
FE6
102
}
100
AcDbMlineStyle
  2
Standard
 70
     0
  3

 62
     0
 51
90.0
 52
90.0
 71
     2
 49
0.5
 62
   256
  6
ByLayer
 49
-0.5
 62
   256
  6
ByLayer
  0
ENDSEC
  0
EOF
