  0
SECTION
  2
HEADER
  9
$ACADVER
  1
AC1015
  9
$ACADMAINTVER
 70
     6
  9
$DWGCODEPAGE
  3
ANSI_1252
  9
$INSBASE
 10
0.0
 20
0.0
 30
0.0
  9
$EXTMIN
 10
69.395417
 20
287.976483
 30
-1.0
  9
$EXTMAX
 10
1026.514554
 20
492.804657
 30
0.7
  9
$LIMMIN
 10
0.0
 20
0.0
  9
$LIMMAX
 10
12.0
 20
9.0
  9
$ORTHOMODE
 70
     0
  9
$REGENMODE
 70
     1
  9
$FILLMODE
 70
     1
  9
$QTEXTMODE
 70
     0
  9
$MIRRTEXT
 70
     0
  9
$LTSCALE
 40
5.0
  9
$ATTMODE
 70
     1
  9
$TEXTSIZE
 40
0.2
  9
$TRACEWID
 40
0.05
  9
$TEXTSTYLE
  7
STANDARD
  9
$CLAYER
  8
0
  9
$CELTYPE
  6
ByLayer
  9
$CECOLOR
 62
   256
  9
$CELTSCALE
 40
1.0
  9
$DISPSILH
 70
     0
  9
$DIMSCALE
 40
1.0
  9
$DIMASZ
 40
0.18
  9
$DIMEXO
 40
0.0625
  9
$DIMDLI
 40
0.38
  9
$DIMRND
 40
0.0
  9
$DIMDLE
 40
0.0
  9
$DIMEXE
 40
0.18
  9
$DIMTP
 40
0.0
  9
$DIMTM
 40
0.0
  9
$DIMTXT
 40
0.18
  9
$DIMCEN
 40
0.09
  9
$DIMTSZ
 40
0.0
  9
$DIMTOL
 70
     0
  9
$DIMLIM
 70
     0
  9
$DIMTIH
 70
     1
  9
$DIMTOH
 70
     1
  9
$DIMSE1
 70
     0
  9
$DIMSE2
 70
     0
  9
$DIMTAD
 70
     0
  9
$DIMZIN
 70
     0
  9
$DIMBLK
  1

  9
$DIMASO
 70
     1
  9
$DIMSHO
 70
     1
  9
$DIMPOST
  1

  9
$DIMAPOST
  1

  9
$DIMALT
 70
     0
  9
$DIMALTD
 70
     2
  9
$DIMALTF
 40
25.4
  9
$DIMLFAC
 40
1.0
  9
$DIMTOFL
 70
     0
  9
$DIMTVP
 40
0.0
  9
$DIMTIX
 70
     0
  9
$DIMSOXD
 70
     0
  9
$DIMSAH
 70
     0
  9
$DIMBLK1
  1

  9
$DIMBLK2
  1

  9
$DIMSTYLE
  2
STANDARD
  9
$DIMCLRD
 70
     0
  9
$DIMCLRE
 70
     0
  9
$DIMCLRT
 70
     0
  9
$DIMTFAC
 40
1.0
  9
$DIMGAP
 40
0.09
  9
$DIMJUST
 70
     0
  9
$DIMSD1
 70
     0
  9
$DIMSD2
 70
     0
  9
$DIMTOLJ
 70
     1
  9
$DIMTZIN
 70
     0
  9
$DIMALTZ
 70
     0
  9
$DIMALTTZ
 70
     0
  9
$DIMUPT
 70
     0
  9
$DIMDEC
 70
     4
  9
$DIMTDEC
 70
     4
  9
$DIMALTU
 70
     2
  9
$DIMALTTD
 70
     2
  9
$DIMTXSTY
  7
STANDARD
  9
$DIMAUNIT
 70
     0
  9
$DIMADEC
 70
     0
  9
$DIMALTRND
 40
0.0
  9
$DIMAZIN
 70
     0
  9
$DIMDSEP
 70
     0
  9
$DIMATFIT
 70
     3
  9
$DIMFRAC
 70
     0
  9
$DIMLDRBLK
  1

  9
$DIMLUNIT
 70
     2
  9
$DIMLWD
 70
     0
  9
$DIMLWE
 70
     0
  9
$DIMTMOVE
 70
     0
  9
$LUNITS
 70
     2
  9
$LUPREC
 70
     4
  9
$SKETCHINC
 40
0.1
  9
$FILLETRAD
 40
0.0
  9
$AUNITS
 70
     0
  9
$AUPREC
 70
     0
  9
$MENU
  1
.
  9
$ELEVATION
 40
0.0
  9
$PELEVATION
 40
0.0
  9
$THICKNESS
 40
0.0
  9
$LIMCHECK
 70
     0
  9
$CHAMFERA
 40
0.0
  9
$CHAMFERB
 40
0.0
  9
$CHAMFERC
 40
0.0
  9
$CHAMFERD
 40
0.0
  9
$SKPOLY
 70
     0
  9
$TDCREATE
 40
2453353.758792454
  9
$TDUCREATE
 40
0.000000000
  9
$TDUPDATE
 40
0.000000000
  9
$TDUUPDATE
 40
2447892.958333334
  9
$TDINDWG
 40
19583144.0627810880
  9
$TDUSRTIMER
 40
0.0000000000
  9
$USRTIMER
 70
     1
  9
$ANGBASE
 50
0.0
  9
$ANGDIR
 70
     0
  9
$PDMODE
 70
     0
  9
$PDSIZE
 40
0.0
  9
$PLINEWID
 40
0.0
  9
$SPLFRAME
 70
     0
  9
$SPLINETYPE
 70
     6
  9
$SPLINESEGS
 70
     8
  9
$HANDSEED
  5
1471
  9
$SURFTAB1
 70
     6
  9
$SURFTAB2
 70
     6
  9
$SURFTYPE
 70
     6
  9
$SURFU
 70
     6
  9
$SURFV
 70
     6
  9
$UCSBASE
  2

  9
$UCSNAME
  2

  9
$UCSORG
 10
0.0
 20
0.0
 30
0.0
  9
$UCSXDIR
 10
1.0
 20
0.0
 30
0.0
  9
$UCSYDIR
 10
0.0
 20
1.0
 30
0.0
  9
$UCSORTHOREF
  2

  9
$UCSORTHOVIEW
 70
     0
  9
$UCSORGTOP
 10
0.0
 20
0.0
 30
0.0
  9
$UCSORGBOTTOM
 10
0.0
 20
0.0
 30
0.0
  9
$UCSORGLEFT
 10
0.0
 20
0.0
 30
0.0
  9
$UCSORGRIGHT
 10
0.0
 20
0.0
 30
0.0
  9
$UCSORGFRONT
 10
0.0
 20
0.0
 30
0.0
  9
$UCSORGBACK
 10
0.0
 20
0.0
 30
0.0
  9
$PUCSBASE
  2

  9
$PUCSNAME
  2

  9
$PUCSORG
 10
0.0
 20
0.0
 30
0.0
  9
$PUCSXDIR
 10
1.0
 20
0.0
 30
0.0
  9
$PUCSYDIR
 10
0.0
 20
1.0
 30
0.0
  9
$PUCSORTHOREF
  2

  9
$PUCSORTHOVIEW
 70
     0
  9
$PUCSORGTOP
 10
0.0
 20
0.0
 30
0.0
  9
$PUCSORGBOTTOM
 10
0.0
 20
0.0
 30
0.0
  9
$PUCSORGLEFT
 10
0.0
 20
0.0
 30
0.0
  9
$PUCSORGRIGHT
 10
0.0
 20
0.0
 30
0.0
  9
$PUCSORGFRONT
 10
0.0
 20
0.0
 30
0.0
  9
$PUCSORGBACK
 10
0.0
 20
0.0
 30
0.0
  9
$USERI1
 70
     0
  9
$USERI2
 70
     0
  9
$USERI3
 70
     0
  9
$USERI4
 70
     0
  9
$USERI5
 70
     0
  9
$USERR1
 40
0.0
  9
$USERR2
 40
0.0
  9
$USERR3
 40
0.0
  9
$USERR4
 40
0.0
  9
$USERR5
 40
0.0
  9
$WORLDVIEW
 70
     1
  9
$SHADEDGE
 70
     3
  9
$SHADEDIF
 70
    70
  9
$TILEMODE
 70
     1
  9
$MAXACTVP
 70
    64
  9
$PINSBASE
 10
0.0
 20
0.0
 30
0.0
  9
$PLIMCHECK
 70
     0
  9
$PEXTMIN
 10
0.0
 20
0.0
 30
0.0
  9
$PEXTMAX
 10
0.0
 20
0.0
 30
0.0
  9
$PLIMMIN
 10
0.0
 20
0.0
  9
$PLIMMAX
 10
0.0
 20
0.0
  9
$UNITMODE
 70
     0
  9
$VISRETAIN
 70
     1
  9
$PLINEGEN
 70
     0
  9
$PSLTSCALE
 70
     1
  9
$TREEDEPTH
 70
  3020
  9
$CMLSTYLE
  2
Standard
  9
$CMLJUST
 70
     0
  9
$CMLSCALE
 40
1.0
  9
$PROXYGRAPHICS
 70
     0
  9
$MEASUREMENT
 70
     0
  9
$CELWEIGHT
370
     0
  9
$ENDCAPS
280
     0
  9
$JOINSTYLE
280
     0
  9
$LWDISPLAY
290
     0
  9
$INSUNITS
 70
     0
  9
$HYPERLINKBASE
  1

  9
$STYLESHEET
  1

  9
$XEDIT
290
     1
  9
$CEPSNTYPE
380
     0
  9
$PSTYLEMODE
290
     1
  9
$FINGERPRINTGUID
  2

  9
$VERSIONGUID
  2

  9
$EXTNAMES
290
     1
  9
$PSVPSCALE
 40
0.0
  0
ENDSEC
  0
SECTION
  2
CLASSES
  0
CLASS
  1
LWPOLYLINE
  2
AcDbPolyline
  3
AutoCAD 2000
 90
        0
280
     0
281
     1
  0
CLASS
  1
IMAGE
  2
AcDbRasterImage
  3
ISM
 90
      127
280
     0
281
     1
  0
CLASS
  1
OLE2FRAME
  2
AcDbOle2Frame
  3
AutoCAD 2000
 90
        0
280
     0
281
     1
  0
CLASS
  1
HATCH
  2
AcDbHatch
  3
AutoCAD 2000
 90
        0
280
     0
281
     1
  0
CLASS
  1
DICTIONARYVAR
  2
AcDbDictionaryVar
  3
AutoCAD 2000
 90
        0
280
     0
281
     0
  0
CLASS
  1
RASTERVARIABLES
  2
AcDbRasterVariables
  3
ISM
 90
        0
280
     0
281
     0
  0
CLASS
  1
IMAGEDEF
  2
AcDbRasterImageDef
  3
ISM
 90
        0
280
     0
281
     0
  0
CLASS
  1
IMAGEDEF_REACTOR
  2
AcDbRasterImageDefReactor
  3
ISM
 90
        1
280
     0
281
     0
  0
CLASS
  1
IDBUFFER
  2
AcDbIdBuffer
  3
AutoCAD 2000
 90
        0
280
     0
281
     0
  0
CLASS
  1
SPATIAL_FILTER
  2
AcDbSpatialFilter
  3
AutoCAD 2000
 90
        0
280
     0
281
     0
  0
CLASS
  1
XRECORD
  2
AcDbXrecord
  3
AutoCAD 2000
 90
        0
280
     0
281
     0
  0
CLASS
  1
SORTENTSTABLE
  2
AcDbSortentsTable
  3
AutoCAD 2000
 90
        0
280
     0
281
     0
  0
CLASS
  1
LAYER_INDEX
  2
AcDbLayerIndex
  3
AutoCAD 2000
 90
        0
280
     0
281
     0
  0
CLASS
  1
SPATIAL_INDEX
  2
AcDbSpatialIndex
  3
AutoCAD 2000
 90
        0
280
     0
281
     0
  0
CLASS
  1
OBJECT_PTR
  2
CAseDLPNTableRecord
  3
"ASE-LPNTableRecord"
 90
        1
280
     0
281
     0
  0
CLASS
  1
LAYOUT
  2
AcDbLayout
  3
AutoCAD 2000
 90
        0
280
     0
281
     0
  0
CLASS
  1
PLOTSETTINGS
  2
AcDbPlotSettings
  3
AutoCAD 2000
 90
        0
280
     0
281
     0
  0
CLASS
  1
ACDBDICTIONARYWDFLT
  2
AcDbDictionaryWithDefault
  3
AutoCAD 2000
 90
        0
280
     0
281
     0
  0
CLASS
  1
ACDBPLACEHOLDER
  2
AcDbPlaceHolder
  3
AutoCAD 2000
 90
        0
280
     0
281
     0
  0
CLASS
  1
VBA_PROJECT
  2
AcDbVbaProject
  3
acadvba
 90
        0
280
     0
281
     0
  0
CLASS
  1
WIPEOUT
  2
AcDbWipeout
  3
WipeOut|AutoCAD Express Tool|expresstools@autodesk.com
 90
      127
280
     0
281
     1
  0
CLASS
  1
WIPEOUTVARIABLES
  2
AcDbWipeoutVariables
  3
WipeOut|AutoCAD Express Tool|expresstools@autodesk.com
 90
        0
280
     0
281
     0
  0
CLASS
  1
RTEXT
  2
RText
  3
RText|AutoCAD Express Tool|expresstools@autodesk.com
 90
        0
280
     0
281
     1
  0
CLASS
  1
ARCALIGNEDTEXT
  2
AcDbArcAlignedText
  3
ATEXT|AutoCAD Express Tool|expresstools@autodesk.com
 90
        0
280
     0
281
     1
  0
ENDSEC
  0
SECTION
  2
TABLES
  0
TABLE
  2
VPORT
  5
FB2
100
AcDbSymbolTable
 70
     1
  0
VPORT
  5
FD1
100
AcDbSymbolTableRecord
100
AcDbViewportTableRecord
  2
*ACTIVE
 70
     0
 10
0.0
 20
0.0
 11
1.0
 21
1.0
 12
450.328833
 22
266.374849
 13
0.0
 23
0.0
 14
0.5
 24
0.5
 15
0.5
 25
0.5
 16
0.0
 26
0.0
 36
1.0
 17
0.0
 27
0.0
 37
0.0
 40
620.078606
 41
1.701534
 42
50.0
 43
0.0
 44
0.0
 50
0.0
 51
0.0
 71
    16
 72
  1000
 73
     1
 74
     3
 75
     0
 76
     0
 77
     0
 78
     0
281
     0
 65
     0
110
0.0
120
0.0
130
0.0
111
1.0
121
0.0
131
0.0
112
0.0
122
1.0
132
0.0
345
0
346
0
 79
     0
146
0.0
  0
ENDTAB
  0
TABLE
  2
LTYPE
  5
FAF
100
AcDbSymbolTable
 70
     6
  0
LTYPE
  5
FB8
100
AcDbSymbolTableRecord
100
AcDbLinetypeTableRecord
  2
ByBlock
 70
    64
  3

 72
    65
 73
     0
 40
0.0
  0
LTYPE
  5
FB9
100
AcDbSymbolTableRecord
100
AcDbLinetypeTableRecord
  2
ByLayer
 70
    64
  3

 72
    65
 73
     0
 40
0.0
  0
LTYPE
  5
FBA
100
AcDbSymbolTableRecord
100
AcDbLinetypeTableRecord
  2
CONTINUOUS
 70
     0
  3
Solid line
 72
    65
 73
     0
 40
0.0
  0
LTYPE
  5
FBB
100
AcDbSymbolTableRecord
100
AcDbLinetypeTableRecord
  2
CENTER
 70
     0
  3
____ _ ____ _ ____ _ ____ _ ____ _ ____ _ ____
 72
    65
 73
     4
 40
0.6
 49
0.375
 74
     0
 49
-0.075
 74
     0
 49
0.075
 74
     0
 49
-0.075
 74
     0
  0
LTYPE
  5
FBC
100
AcDbSymbolTableRecord
100
AcDbLinetypeTableRecord
  2
ACAD_ISO02W100
 70
     0
  3
ISO Strichlinie __ __ __ __ __ __ __ __ __ __ _
 72
    65
 73
     2
 40
15.0
 49
12.0
 74
     0
 49
-3.0
 74
     0
  0
LTYPE
  5
FBD
100
AcDbSymbolTableRecord
100
AcDbLinetypeTableRecord
  2
DASHED
 70
     0
  3
_ _ _ _ _ _ _ _ _ _ _ _ _ _ _ _ _ _ _ _ _ _ _ _
 72
    65
 73
     2
 40
0.375
 49
0.25
 74
     0
 49
-0.125
 74
     0
  0
ENDTAB
  0
TABLE
  2
LAYER
  5
FAD
100
AcDbSymbolTable
 70
     5
  0
LAYER
  5
FBE
100
AcDbSymbolTableRecord
100
AcDbLayerTableRecord
  2
0
 70
     0
 62
     7
  6
CONTINUOUS
290
     1
370
    -3
390
0
  0
LAYER
  5
FBF
100
AcDbSymbolTableRecord
100
AcDbLayerTableRecord
  2
90000_FRAME
 70
     0
 62
     7
  6
CONTINUOUS
290
     1
370
    -3
390
0
  0
LAYER
  5
FC0
100
AcDbSymbolTableRecord
100
AcDbLayerTableRecord
  2
91000_TIP
 70
     0
 62
     7
  6
CONTINUOUS
290
     1
370
    -3
390
0
  0
LAYER
  5
FC1
100
AcDbSymbolTableRecord
100
AcDbLayerTableRecord
  2
10000_FRONT
 70
     0
 62
     7
  6
CONTINUOUS
290
     1
370
    -3
390
0
  0
LAYER
  5
FC5
100
AcDbSymbolTableRecord
100
AcDbLayerTableRecord
  2
DEFPOINTS
 70
     0
 62
     7
  6
CONTINUOUS
290
     0
370
    -3
390
0
  0
ENDTAB
  0
TABLE
  2
STYLE
  5
FAE
100
AcDbSymbolTable
 70
     1
  0
STYLE
  5
FD5
100
AcDbSymbolTableRecord
100
AcDbTextStyleTableRecord
  2
STANDARD
 70
     0
 40
0.0
 41
1.0
 50
0.0
 71
     0
 42
0.2
  3
txt.shx
  4

  0
ENDTAB
  0
TABLE
  2
VIEW
  5
FB0
100
AcDbSymbolTable
 70
     0
  0
ENDTAB
  0
TABLE
  2
UCS
  5
FB1
100
AcDbSymbolTable
 70
     0
  0
ENDTAB
  0
TABLE
  2
APPID
  5
FB3
100
AcDbSymbolTable
 70
     3
  0
APPID
  5
FD2
100
AcDbSymbolTableRecord
100
AcDbRegAppTableRecord
  2
ACAD
 70
     0
  0
APPID
  5
FD3
100
AcDbSymbolTableRecord
100
AcDbRegAppTableRecord
  2
AUSTER_ANSICHT
 70
     0
  0
APPID
  5
FD4
100
AcDbSymbolTableRecord
100
AcDbRegAppTableRecord
  2
AUSTER_FOLIE
 70
     0
  0
ENDTAB
  0
TABLE
  2
DIMSTYLE
  5
FB4
100
AcDbSymbolTable
 70
     3
100
AcDbDimStyleTable
 71
     0
  0
DIMSTYLE
105
FDF
100
AcDbSymbolTableRecord
100
AcDbDimStyleTableRecord
  2
STANDARD
 70
     0
  3

  4

 40
1.0
 41
0.18
 42
0.0625
 43
0.38
 44
0.18
 45
0.0
 46
0.0
 47
0.0
 48
0.0
 71
     0
 72
     0
 73
     1
 74
     1
 75
     0
 76
     0
 77
     0
 78
     0
 79
     0
140
0.18
141
0.09
142
0.0
143
25.4
144
1.0
145
0.0
146
1.0
147
0.09
148
0.0
170
     0
171
     2
172
     0
173
     0
174
     0
175
     0
176
     0
177
     0
178
     0
179
     0
271
     4
272
     4
273
     2
274
     2
275
     0
276
     0
277
     2
278
    46
279
     0
280
     0
281
     0
282
     0
283
     1
284
     0
285
     0
286
     0
288
     0
289
     3
340
FD5
341
0
342
0
343
0
344
0
371
    -2
372
    -2
  0
DIMSTYLE
105
FE0
100
AcDbSymbolTableRecord
100
AcDbDimStyleTableRecord
  2
DSTYLE1
 70
     0
  3

  4

 40
1.0
 41
3.0
 42
0.0
 43
0.38
 44
1.0
 45
0.0
 46
0.0
 47
0.0
 48
0.0
 71
     0
 72
     0
 73
     0
 74
     0
 75
     0
 76
     0
 77
     1
 78
     3
 79
     0
140
2.5
141
0.09
142
0.0
143
0.03937
144
1.0
145
0.0
146
1.0
147
1.0
148
0.0
170
     0
171
     2
172
     0
173
     0
174
     0
175
     0
176
     0
177
     0
178
     0
179
     0
271
     4
272
     4
273
     2
274
     2
275
     0
276
     0
277
     2
278
    46
279
     0
280
     0
281
     0
282
     0
283
     1
284
     0
285
     0
286
     0
288
     0
289
     3
340
FD5
341
0
342
0
343
0
344
0
371
    -2
372
    -2
  0
DIMSTYLE
105
FE1
100
AcDbSymbolTableRecord
100
AcDbDimStyleTableRecord
  2
H035
 70
     0
  3

  4

 40
0.0
 41
3.5
 42
0.0
 43
3.75
 44
2.0
 45
0.0
 46
0.0
 47
0.0
 48
0.0
 71
     0
 72
     0
 73
     0
 74
     0
 75
     0
 76
     0
 77
     1
 78
     8
 79
     0
140
3.5
141
2.5
142
0.0
143
0.039
144
1.0
145
0.0
146
1.0
147
0.5
148
0.0
170
     0
171
     4
172
     1
173
     0
174
     0
175
     0
176
   256
177
     7
178
     7
179
     0
271
     4
272
     4
273
     2
274
     2
275
     0
276
     0
277
     2
278
    46
279
     0
280
     0
281
     0
282
     0
283
     1
284
     0
285
     0
286
     0
288
     0
289
     3
340
FD5
341
0
342
0
343
0
344
0
371
    -2
372
    -2
  0
ENDTAB
  0
TABLE
  2
BLOCK_RECORD
  5
FDA
100
AcDbSymbolTable
 70
     2
  0
BLOCK_RECORD
  5
FD8
100
AcDbSymbolTableRecord
100
AcDbBlockTableRecord
  2
*Model_Space
340
0
  0
BLOCK_RECORD
  5
FD9
100
AcDbSymbolTableRecord
100
AcDbBlockTableRecord
  2
*Paper_Space
340
0
  0
BLOCK_RECORD
  5
FD6
100
AcDbSymbolTableRecord
100
AcDbBlockTableRecord
  2
$MODEL_SPACE
340
0
  0
BLOCK_RECORD
  5
FD7
100
AcDbSymbolTableRecord
100
AcDbBlockTableRecord
  2
$PAPER_SPACE
340
0
  0
ENDTAB
  0
ENDSEC
  0
SECTION
  2
BLOCKS
  0
BLOCK
  5
FDB
100
AcDbEntity
  8
0
390
0
100
AcDbBlockBegin
  2
*Model_Space
 70
     0
 10
0.0
 20
0.0
 30
0.0
  3
*Model_Space
  1

  0
ENDBLK
  5
FDC
100
AcDbEntity
  8
0
390
0
100
AcDbBlockEnd
  0
BLOCK
  5
FDD
100
AcDbEntity
 67
     1
  8
0
390
0
100
AcDbBlockBegin
  2
*Paper_Space
 70
     0
 10
0.0
 20
0.0
 30
0.0
  3
*Paper_Space
  1

  0
ENDBLK
  5
FDE
100
AcDbEntity
 67
     1
  8
0
390
0
100
AcDbBlockEnd
  0
BLOCK
  5
FE2
100
AcDbEntity
  8
0
100
AcDbBlockBegin
  2
$MODEL_SPACE
 70
     0
 10
0.0
 20
0.0
 30
0.0
  3
$MODEL_SPACE
  1

  0
ENDBLK
  5
21
100
AcDbEntity
  8
0
100
AcDbBlockEnd
  0
BLOCK
  5
FE3
100
AcDbEntity
  8
0
100
AcDbBlockBegin
  2
$PAPER_SPACE
 70
     0
 10
0.0
 20
0.0
 30
0.0
  3
$PAPER_SPACE
  1

  0
ENDBLK
  5
76
100
AcDbEntity
  8
0
100
AcDbBlockEnd
  0
ENDSEC
  0
SECTION
  2
ENTITIES
  0
ARC
  5
FE9
100
AcDbEntity
  8
10000_FRONT
370
    25
390
0
  6
CONTINUOUS
 62
     7
100
AcDbCircle
 10
163.9
 20
219.51
 30
0.0
 40
3.25
100
AcDbArc
 50
269.999993
 51
90.000007
  0
ARC
  5
FEA
100
AcDbEntity
  8
10000_FRONT
370
    25
390
0
  6
CONTINUOUS
 62
     7
100
AcDbCircle
 10
163.9
 20
203.51
 30
0.0
 40
3.25
100
AcDbArc
 50
269.999993
 51
90.000007
  0
ARC
  5
FEB
100
AcDbEntity
  8
10000_FRONT
370
    25
390
0
  6
CONTINUOUS
 62
     7
100
AcDbCircle
 10
155.3
 20
219.51
 30
0.0
 40
3.25
100
AcDbArc
 50
270.000003
 51
89.999997
  0
ARC
  5
FEC
100
AcDbEntity
  8
10000_FRONT
370
    25
390
0
  6
CONTINUOUS
 62
     7
100
AcDbCircle
 10
155.3
 20
203.51
 30
0.0
 40
3.25
100
AcDbArc
 50
270.000003
 51
89.999997
  0
ARC
  5
FED
100
AcDbEntity
  8
10000_FRONT
370
    25
390
0
  6
CONTINUOUS
 62
     7
100
AcDbCircle
 10
146.7
 20
219.51
 30
0.0
 40
3.25
100
AcDbArc
 50
269.999997
 51
90.000003
  0
ARC
  5
FEE
100
AcDbEntity
  8
10000_FRONT
370
    25
390
0
  6
CONTINUOUS
 62
     7
100
AcDbCircle
 10
146.7
 20
203.51
 30
0.0
 40
3.25
100
AcDbArc
 50
269.999997
 51
90.000003
  0
ARC
  5
FEF
100
AcDbEntity
  8
10000_FRONT
370
    25
390
0
  6
CONTINUOUS
 62
     7
100
AcDbCircle
 10
138.1
 20
219.51
 30
0.0
 40
3.25
100
AcDbArc
 50
270.000007
 51
89.999993
  0
ARC
  5
FF0
100
AcDbEntity
  8
10000_FRONT
370
    25
390
0
  6
CONTINUOUS
 62
     7
100
AcDbCircle
 10
138.1
 20
203.51
 30
0.0
 40
3.25
100
AcDbArc
 50
270.000007
 51
89.999993
  0
ARC
  5
FF1
100
AcDbEntity
  8
10000_FRONT
370
    25
390
0
  6
CONTINUOUS
 62
     7
100
AcDbCircle
 10
163.9
 20
219.51
 30
0.0
 40
3.25
100
AcDbArc
 50
90.000007
 51
269.999993
  0
ARC
  5
FF2
100
AcDbEntity
  8
10000_FRONT
370
    25
390
0
  6
CONTINUOUS
 62
     7
100
AcDbCircle
 10
163.9
 20
219.51
 30
0.0
 40
3.75
100
AcDbArc
 50
90.000006
 51
269.999994
  0
ARC
  5
FF3
100
AcDbEntity
  8
10000_FRONT
370
    25
390
0
  6
CONTINUOUS
 62
     7
100
AcDbCircle
 10
163.9
 20
203.51
 30
0.0
 40
3.25
100
AcDbArc
 50
90.000007
 51
269.999993
  0
ARC
  5
FF4
100
AcDbEntity
  8
10000_FRONT
370
    25
390
0
  6
CONTINUOUS
 62
     7
100
AcDbCircle
 10
163.9
 20
203.51
 30
0.0
 40
3.75
100
AcDbArc
 50
90.000006
 51
269.999994
  0
ARC
  5
FF5
100
AcDbEntity
  8
10000_FRONT
370
    25
390
0
  6
CONTINUOUS
 62
     7
100
AcDbCircle
 10
155.3
 20
219.51
 30
0.0
 40
3.25
100
AcDbArc
 50
89.999997
 51
270.000003
  0
ARC
  5
FF6
100
AcDbEntity
  8
10000_FRONT
370
    25
390
0
  6
CONTINUOUS
 62
     7
100
AcDbCircle
 10
155.3
 20
219.51
 30
0.0
 40
3.75
100
AcDbArc
 50
89.999997
 51
270.000003
  0
ARC
  5
FF7
100
AcDbEntity
  8
10000_FRONT
370
    25
390
0
  6
CONTINUOUS
 62
     7
100
AcDbCircle
 10
155.3
 20
203.51
 30
0.0
 40
3.25
100
AcDbArc
 50
89.999997
 51
270.000003
  0
ARC
  5
FF8
100
AcDbEntity
  8
10000_FRONT
370
    25
390
0
  6
CONTINUOUS
 62
     7
100
AcDbCircle
 10
155.3
 20
203.51
 30
0.0
 40
3.75
100
AcDbArc
 50
89.999997
 51
270.000003
  0
ARC
  5
FF9
100
AcDbEntity
  8
10000_FRONT
370
    25
390
0
  6
CONTINUOUS
 62
     7
100
AcDbCircle
 10
146.7
 20
219.51
 30
0.0
 40
3.25
100
AcDbArc
 50
90.000003
 51
269.999997
  0
ARC
  5
FFA
100
AcDbEntity
  8
10000_FRONT
370
    25
390
0
  6
CONTINUOUS
 62
     7
100
AcDbCircle
 10
146.7
 20
219.51
 30
0.0
 40
3.75
100
AcDbArc
 50
90.000003
 51
269.999997
  0
ARC
  5
FFB
100
AcDbEntity
  8
10000_FRONT
370
    25
390
0
  6
CONTINUOUS
 62
     7
100
AcDbCircle
 10
146.7
 20
203.51
 30
0.0
 40
3.25
100
AcDbArc
 50
90.000003
 51
269.999997
  0
ARC
  5
FFC
100
AcDbEntity
  8
10000_FRONT
370
    25
390
0
  6
CONTINUOUS
 62
     7
100
AcDbCircle
 10
146.7
 20
203.51
 30
0.0
 40
3.75
100
AcDbArc
 50
90.000003
 51
269.999997
  0
ARC
  5
FFD
100
AcDbEntity
  8
10000_FRONT
370
    25
390
0
  6
CONTINUOUS
 62
     7
100
AcDbCircle
 10
138.1
 20
219.51
 30
0.0
 40
3.25
100
AcDbArc
 50
89.999993
 51
270.000007
  0
ARC
  5
FFE
100
AcDbEntity
  8
10000_FRONT
370
    25
390
0
  6
CONTINUOUS
 62
     7
100
AcDbCircle
 10
138.1
 20
219.51
 30
0.0
 40
3.75
100
AcDbArc
 50
89.999994
 51
270.000006
  0
ARC
  5
FFF
100
AcDbEntity
  8
10000_FRONT
370
    25
390
0
  6
CONTINUOUS
 62
     7
100
AcDbCircle
 10
138.1
 20
203.51
 30
0.0
 40
3.25
100
AcDbArc
 50
89.999993
 51
270.000007
  0
ARC
  5
1000
100
AcDbEntity
  8
10000_FRONT
370
    25
390
0
  6
CONTINUOUS
 62
     7
100
AcDbCircle
 10
138.1
 20
203.51
 30
0.0
 40
3.75
100
AcDbArc
 50
89.999994
 51
270.000006
  0
ARC
  5
1001
100
AcDbEntity
  8
10000_FRONT
370
    25
390
0
  6
CONTINUOUS
 62
     7
100
AcDbCircle
 10
146.7
 20
203.5
 30
0.0
 40
2.7
100
AcDbArc
 50
90.000004
 51
166.915354
  0
ARC
  5
1002
100
AcDbEntity
  8
10000_FRONT
370
    25
390
0
  6
CONTINUOUS
 62
     7
100
AcDbCircle
 10
146.7
 20
203.5
 30
0.0
 40
2.9
100
AcDbArc
 50
90.000004
 51
269.999996
  0
ARC
  5
1003
100
AcDbEntity
  8
10000_FRONT
370
    25
390
0
  6
CONTINUOUS
 62
     7
100
AcDbCircle
 10
146.7
 20
203.5
 30
0.0
 40
2.7
100
AcDbArc
 50
196.597714
 51
269.999996
  0
LINE
  5
1004
100
AcDbEntity
  8
10000_FRONT
370
    25
390
0
  6
CONTINUOUS
 62
     7
100
AcDbLine
 10
143.996715
 20
202.870001
 30
0.0
 11
144.112498
 21
202.728745
 31
0.0
  0
ARC
  5
1005
100
AcDbEntity
  8
10000_FRONT
370
    25
390
0
  6
CONTINUOUS
 62
     7
100
AcDbCircle
 10
146.7
 20
203.5
 30
0.0
 40
2.775725
100
AcDbArc
 50
170.25143
 51
193.118598
  0
LINE
  5
1006
100
AcDbEntity
  8
10000_FRONT
370
    25
390
0
  6
CONTINUOUS
 62
     7
100
AcDbLine
 10
144.070101
 20
204.111254
 30
0.0
 11
143.964356
 21
203.97
 31
0.0
  0
ARC
  5
1007
100
AcDbEntity
  8
10000_FRONT
370
    25
390
0
  6
CONTINUOUS
 62
     7
100
AcDbCircle
 10
146.7
 20
219.5
 30
0.0
 40
2.7
100
AcDbArc
 50
90.000004
 51
166.915334
  0
ARC
  5
1008
100
AcDbEntity
  8
10000_FRONT
370
    25
390
0
  6
CONTINUOUS
 62
     7
100
AcDbCircle
 10
146.7
 20
219.5
 30
0.0
 40
2.9
100
AcDbArc
 50
90.000004
 51
269.999996
  0
ARC
  5
1009
100
AcDbEntity
  8
10000_FRONT
370
    25
390
0
  6
CONTINUOUS
 62
     7
100
AcDbCircle
 10
146.7
 20
219.5
 30
0.0
 40
2.7
100
AcDbArc
 50
196.597695
 51
269.999996
  0
LINE
  5
100A
100
AcDbEntity
  8
10000_FRONT
370
    25
390
0
  6
CONTINUOUS
 62
     7
100
AcDbLine
 10
143.996715
 20
218.87
 30
0.0
 11
144.112498
 21
218.728746
 31
0.0
  0
ARC
  5
100B
100
AcDbEntity
  8
10000_FRONT
370
    25
390
0
  6
CONTINUOUS
 62
     7
100
AcDbCircle
 10
146.7
 20
219.5
 30
0.0
 40
2.775725
100
AcDbArc
 50
170.251411
 51
193.118617
  0
LINE
  5
100C
100
AcDbEntity
  8
10000_FRONT
370
    25
390
0
  6
CONTINUOUS
 62
     7
100
AcDbLine
 10
144.070101
 20
220.111255
 30
0.0
 11
143.964356
 21
219.97
 31
0.0
  0
ARC
  5
100D
100
AcDbEntity
  8
10000_FRONT
370
    25
390
0
  6
CONTINUOUS
 62
     7
100
AcDbCircle
 10
138.1
 20
203.5
 30
0.0
 40
2.7
100
AcDbArc
 50
89.999992
 51
166.915353
  0
ARC
  5
100E
100
AcDbEntity
  8
10000_FRONT
370
    25
390
0
  6
CONTINUOUS
 62
     7
100
AcDbCircle
 10
138.1
 20
203.5
 30
0.0
 40
2.9
100
AcDbArc
 50
89.999992
 51
270.000008
  0
ARC
  5
100F
100
AcDbEntity
  8
10000_FRONT
370
    25
390
0
  6
CONTINUOUS
 62
     7
100
AcDbCircle
 10
138.1
 20
203.5
 30
0.0
 40
2.7
100
AcDbArc
 50
196.597715
 51
270.000008
  0
LINE
  5
1010
100
AcDbEntity
  8
10000_FRONT
370
    25
390
0
  6
CONTINUOUS
 62
     7
100
AcDbLine
 10
135.396715
 20
202.87
 30
0.0
 11
135.512498
 21
202.728745
 31
0.0
  0
ARC
  5
1011
100
AcDbEntity
  8
10000_FRONT
370
    25
390
0
  6
CONTINUOUS
 62
     7
100
AcDbCircle
 10
138.1
 20
203.5
 30
0.0
 40
2.775725
100
AcDbArc
 50
170.25143
 51
193.118598
  0
LINE
  5
1012
100
AcDbEntity
  8
10000_FRONT
370
    25
390
0
  6
CONTINUOUS
 62
     7
100
AcDbLine
 10
135.470101
 20
204.111254
 30
0.0
 11
135.364356
 21
203.97
 31
0.0
  0
ARC
  5
1013
100
AcDbEntity
  8
10000_FRONT
370
    25
390
0
  6
CONTINUOUS
 62
     7
100
AcDbCircle
 10
138.1
 20
219.5
 30
0.0
 40
2.7
100
AcDbArc
 50
89.999992
 51
166.915334
  0
ARC
  5
1014
100
AcDbEntity
  8
10000_FRONT
370
    25
390
0
  6
CONTINUOUS
 62
     7
100
AcDbCircle
 10
138.1
 20
219.5
 30
0.0
 40
2.9
100
AcDbArc
 50
89.999992
 51
270.000008
  0
ARC
  5
1015
100
AcDbEntity
  8
10000_FRONT
370
    25
390
0
  6
CONTINUOUS
 62
     7
100
AcDbCircle
 10
138.1
 20
219.5
 30
0.0
 40
2.7
100
AcDbArc
 50
196.597695
 51
270.000008
  0
LINE
  5
1016
100
AcDbEntity
  8
10000_FRONT
370
    25
390
0
  6
CONTINUOUS
 62
     7
100
AcDbLine
 10
135.396715
 20
218.87
 30
0.0
 11
135.512498
 21
218.728746
 31
0.0
  0
ARC
  5
1017
100
AcDbEntity
  8
10000_FRONT
370
    25
390
0
  6
CONTINUOUS
 62
     7
100
AcDbCircle
 10
138.1
 20
219.5
 30
0.0
 40
2.775725
100
AcDbArc
 50
170.251411
 51
193.118617
  0
LINE
  5
1018
100
AcDbEntity
  8
10000_FRONT
370
    25
390
0
  6
CONTINUOUS
 62
     7
100
AcDbLine
 10
135.470101
 20
220.111255
 30
0.0
 11
135.364356
 21
219.97
 31
0.0
  0
LINE
  5
1019
100
AcDbEntity
  8
10000_FRONT
370
    25
390
0
  6
CONTINUOUS
 62
     7
100
AcDbLine
 10
136.2348
 20
199.219801
 30
0.0
 11
136.2348
 21
198.1614
 31
0.0
  0
LINE
  5
101A
100
AcDbEntity
  8
10000_FRONT
370
    25
390
0
  6
CONTINUOUS
 62
     7
100
AcDbLine
 10
136.2348
 20
198.1614
 30
0.0
 11
135.499226
 21
198.1614
 31
0.0
  0
LINE
  5
101B
100
AcDbEntity
  8
10000_FRONT
370
    25
390
0
  6
CONTINUOUS
 62
     7
100
AcDbLine
 10
135.499226
 20
198.1614
 30
0.0
 11
136.2348
 21
199.219801
 31
0.0
  0
LINE
  5
101C
100
AcDbEntity
  8
10000_FRONT
370
    25
390
0
  6
CONTINUOUS
 62
     7
100
AcDbLine
 10
135.250015
 20
198.0242
 30
0.0
 11
136.33904
 21
199.592199
 31
0.0
  0
LINE
  5
101D
100
AcDbEntity
  8
10000_FRONT
370
    25
390
0
  6
CONTINUOUS
 62
     7
100
AcDbLine
 10
136.33904
 20
199.592199
 30
0.0
 11
136.372
 21
199.592199
 31
0.0
  0
LINE
  5
101E
100
AcDbEntity
  8
10000_FRONT
370
    25
390
0
  6
CONTINUOUS
 62
     7
100
AcDbLine
 10
136.372
 20
199.592199
 30
0.0
 11
136.372
 21
198.1614
 31
0.0
  0
LINE
  5
101F
100
AcDbEntity
  8
10000_FRONT
370
    25
390
0
  6
CONTINUOUS
 62
     7
100
AcDbLine
 10
136.372
 20
198.1614
 30
0.0
 11
136.756536
 21
198.1614
 31
0.0
  0
LINE
  5
1020
100
AcDbEntity
  8
10000_FRONT
370
    25
390
0
  6
CONTINUOUS
 62
     7
100
AcDbLine
 10
136.756536
 20
198.1614
 30
0.0
 11
136.756536
 21
198.0242
 31
0.0
  0
LINE
  5
1021
100
AcDbEntity
  8
10000_FRONT
370
    25
390
0
  6
CONTINUOUS
 62
     7
100
AcDbLine
 10
136.756536
 20
198.0242
 30
0.0
 11
136.372
 21
198.0242
 31
0.0
  0
LINE
  5
1022
100
AcDbEntity
  8
10000_FRONT
370
    25
390
0
  6
CONTINUOUS
 62
     7
100
AcDbLine
 10
136.372
 20
198.0242
 30
0.0
 11
136.372
 21
197.534199
 31
0.0
  0
LINE
  5
1023
100
AcDbEntity
  8
10000_FRONT
370
    25
390
0
  6
CONTINUOUS
 62
     7
100
AcDbLine
 10
136.372
 20
197.534199
 30
0.0
 11
136.2348
 21
197.534199
 31
0.0
  0
LINE
  5
1024
100
AcDbEntity
  8
10000_FRONT
370
    25
390
0
  6
CONTINUOUS
 62
     7
100
AcDbLine
 10
136.2348
 20
197.534199
 30
0.0
 11
136.2348
 21
198.0242
 31
0.0
  0
LINE
  5
1025
100
AcDbEntity
  8
10000_FRONT
370
    25
390
0
  6
CONTINUOUS
 62
     7
100
AcDbLine
 10
136.2348
 20
198.0242
 30
0.0
 11
135.250015
 21
198.0242
 31
0.0
  0
LINE
  5
1026
100
AcDbEntity
  8
10000_FRONT
370
    25
390
0
  6
CONTINUOUS
 62
     7
100
AcDbLine
 10
139.805656
 20
198.04533
 30
0.0
 11
139.7116
 21
198.325245
 31
0.0
  0
LINE
  5
1027
100
AcDbEntity
  8
10000_FRONT
370
    25
390
0
  6
CONTINUOUS
 62
     7
100
AcDbLine
 10
139.7116
 20
198.325245
 30
0.0
 11
139.7116
 21
198.799625
 31
0.0
  0
LINE
  5
1028
100
AcDbEntity
  8
10000_FRONT
370
    25
390
0
  6
CONTINUOUS
 62
     7
100
AcDbLine
 10
139.7116
 20
198.799625
 30
0.0
 11
139.805656
 21
199.079538
 31
0.0
  0
LINE
  5
1029
100
AcDbEntity
  8
10000_FRONT
370
    25
390
0
  6
CONTINUOUS
 62
     7
100
AcDbLine
 10
139.805656
 20
199.079538
 30
0.0
 11
139.992164
 21
199.359756
 31
0.0
  0
LINE
  5
102A
100
AcDbEntity
  8
10000_FRONT
370
    25
390
0
  6
CONTINUOUS
 62
     7
100
AcDbLine
 10
139.992164
 20
199.359756
 30
0.0
 11
140.270046
 21
199.453468
 31
0.0
  0
LINE
  5
102B
100
AcDbEntity
  8
10000_FRONT
370
    25
390
0
  6
CONTINUOUS
 62
     7
100
AcDbLine
 10
140.270046
 20
199.453468
 30
0.0
 11
140.456553
 21
199.453468
 31
0.0
  0
LINE
  5
102C
100
AcDbEntity
  8
10000_FRONT
370
    25
390
0
  6
CONTINUOUS
 62
     7
100
AcDbLine
 10
140.456553
 20
199.453468
 30
0.0
 11
140.734436
 21
199.359756
 31
0.0
  0
LINE
  5
102D
100
AcDbEntity
  8
10000_FRONT
370
    25
390
0
  6
CONTINUOUS
 62
     7
100
AcDbLine
 10
140.734436
 20
199.359756
 30
0.0
 11
140.922283
 21
199.079538
 31
0.0
  0
LINE
  5
102E
100
AcDbEntity
  8
10000_FRONT
370
    25
390
0
  6
CONTINUOUS
 62
     7
100
AcDbLine
 10
140.922283
 20
199.079538
 30
0.0
 11
141.015
 21
198.799625
 31
0.0
  0
LINE
  5
102F
100
AcDbEntity
  8
10000_FRONT
370
    25
390
0
  6
CONTINUOUS
 62
     7
100
AcDbLine
 10
141.015
 20
198.799625
 30
0.0
 11
141.015
 21
198.325245
 31
0.0
  0
LINE
  5
1030
100
AcDbEntity
  8
10000_FRONT
370
    25
390
0
  6
CONTINUOUS
 62
     7
100
AcDbLine
 10
141.015
 20
198.325245
 30
0.0
 11
140.922283
 21
198.04533
 31
0.0
  0
LINE
  5
1031
100
AcDbEntity
  8
10000_FRONT
370
    25
390
0
  6
CONTINUOUS
 62
     7
100
AcDbLine
 10
140.922283
 20
198.04533
 30
0.0
 11
140.734436
 21
197.765114
 31
0.0
  0
LINE
  5
1032
100
AcDbEntity
  8
10000_FRONT
370
    25
390
0
  6
CONTINUOUS
 62
     7
100
AcDbLine
 10
140.734436
 20
197.765114
 30
0.0
 11
140.479331
 21
197.671398
 31
0.0
  0
LINE
  5
1033
100
AcDbEntity
  8
10000_FRONT
370
    25
390
0
  6
CONTINUOUS
 62
     7
100
AcDbLine
 10
140.479331
 20
197.671398
 30
0.0
 11
140.270046
 21
197.671398
 31
0.0
  0
LINE
  5
1034
100
AcDbEntity
  8
10000_FRONT
370
    25
390
0
  6
CONTINUOUS
 62
     7
100
AcDbLine
 10
140.270046
 20
197.671398
 30
0.0
 11
139.992164
 21
197.765114
 31
0.0
  0
LINE
  5
1035
100
AcDbEntity
  8
10000_FRONT
370
    25
390
0
  6
CONTINUOUS
 62
     7
100
AcDbLine
 10
139.992164
 20
197.765114
 30
0.0
 11
139.805656
 21
198.04533
 31
0.0
  0
LINE
  5
1036
100
AcDbEntity
  8
10000_FRONT
370
    25
390
0
  6
CONTINUOUS
 62
     7
100
AcDbLine
 10
139.768409
 20
197.830036
 30
0.0
 11
139.673281
 21
198.027874
 31
0.0
  0
LINE
  5
1037
100
AcDbEntity
  8
10000_FRONT
370
    25
390
0
  6
CONTINUOUS
 62
     7
100
AcDbLine
 10
139.673281
 20
198.027874
 30
0.0
 11
139.5744
 21
198.320957
 31
0.0
  0
LINE
  5
1038
100
AcDbEntity
  8
10000_FRONT
370
    25
390
0
  6
CONTINUOUS
 62
     7
100
AcDbLine
 10
139.5744
 20
198.320957
 30
0.0
 11
139.5744
 21
198.805445
 31
0.0
  0
LINE
  5
1039
100
AcDbEntity
  8
10000_FRONT
370
    25
390
0
  6
CONTINUOUS
 62
     7
100
AcDbLine
 10
139.5744
 20
198.805445
 30
0.0
 11
139.673281
 21
199.098524
 31
0.0
  0
LINE
  5
103A
100
AcDbEntity
  8
10000_FRONT
370
    25
390
0
  6
CONTINUOUS
 62
     7
100
AcDbLine
 10
139.673281
 20
199.098524
 30
0.0
 11
139.768409
 21
199.296362
 31
0.0
  0
LINE
  5
103B
100
AcDbEntity
  8
10000_FRONT
370
    25
390
0
  6
CONTINUOUS
 62
     7
100
AcDbLine
 10
139.768409
 20
199.296362
 30
0.0
 11
139.96617
 21
199.493282
 31
0.0
  0
LINE
  5
103C
100
AcDbEntity
  8
10000_FRONT
370
    25
390
0
  6
CONTINUOUS
 62
     7
100
AcDbLine
 10
139.96617
 20
199.493282
 30
0.0
 11
140.165539
 21
199.592199
 31
0.0
  0
LINE
  5
103D
100
AcDbEntity
  8
10000_FRONT
370
    25
390
0
  6
CONTINUOUS
 62
     7
100
AcDbLine
 10
140.165539
 20
199.592199
 30
0.0
 11
140.559989
 21
199.592199
 31
0.0
  0
LINE
  5
103E
100
AcDbEntity
  8
10000_FRONT
370
    25
390
0
  6
CONTINUOUS
 62
     7
100
AcDbLine
 10
140.559989
 20
199.592199
 30
0.0
 11
140.760429
 21
199.493282
 31
0.0
  0
LINE
  5
103F
100
AcDbEntity
  8
10000_FRONT
370
    25
390
0
  6
CONTINUOUS
 62
     7
100
AcDbLine
 10
140.760429
 20
199.493282
 30
0.0
 11
140.956851
 21
199.296362
 31
0.0
  0
LINE
  5
1040
100
AcDbEntity
  8
10000_FRONT
370
    25
390
0
  6
CONTINUOUS
 62
     7
100
AcDbLine
 10
140.956851
 20
199.296362
 30
0.0
 11
141.053319
 21
199.098524
 31
0.0
  0
LINE
  5
1041
100
AcDbEntity
  8
10000_FRONT
370
    25
390
0
  6
CONTINUOUS
 62
     7
100
AcDbLine
 10
141.053319
 20
199.098524
 30
0.0
 11
141.1522
 21
198.805445
 31
0.0
  0
LINE
  5
1042
100
AcDbEntity
  8
10000_FRONT
370
    25
390
0
  6
CONTINUOUS
 62
     7
100
AcDbLine
 10
141.1522
 20
198.805445
 30
0.0
 11
141.1522
 21
198.320957
 31
0.0
  0
LINE
  5
1043
100
AcDbEntity
  8
10000_FRONT
370
    25
390
0
  6
CONTINUOUS
 62
     7
100
AcDbLine
 10
141.1522
 20
198.320957
 30
0.0
 11
141.053319
 21
198.027874
 31
0.0
  0
LINE
  5
1044
100
AcDbEntity
  8
10000_FRONT
370
    25
390
0
  6
CONTINUOUS
 62
     7
100
AcDbLine
 10
141.053319
 20
198.027874
 30
0.0
 11
140.956851
 21
197.830036
 31
0.0
  0
LINE
  5
1045
100
AcDbEntity
  8
10000_FRONT
370
    25
390
0
  6
CONTINUOUS
 62
     7
100
AcDbLine
 10
140.956851
 20
197.830036
 30
0.0
 11
140.760429
 21
197.633118
 31
0.0
  0
LINE
  5
1046
100
AcDbEntity
  8
10000_FRONT
370
    25
390
0
  6
CONTINUOUS
 62
     7
100
AcDbLine
 10
140.760429
 20
197.633118
 30
0.0
 11
140.559989
 21
197.534199
 31
0.0
  0
LINE
  5
1047
100
AcDbEntity
  8
10000_FRONT
370
    25
390
0
  6
CONTINUOUS
 62
     7
100
AcDbLine
 10
140.559989
 20
197.534199
 30
0.0
 11
140.165539
 21
197.534199
 31
0.0
  0
LINE
  5
1048
100
AcDbEntity
  8
10000_FRONT
370
    25
390
0
  6
CONTINUOUS
 62
     7
100
AcDbLine
 10
140.165539
 20
197.534199
 30
0.0
 11
139.96617
 21
197.633118
 31
0.0
  0
LINE
  5
1049
100
AcDbEntity
  8
10000_FRONT
370
    25
390
0
  6
CONTINUOUS
 62
     7
100
AcDbLine
 10
139.96617
 20
197.633118
 30
0.0
 11
139.768409
 21
197.830036
 31
0.0
  0
LINE
  5
104A
100
AcDbEntity
  8
10000_FRONT
370
    25
390
0
  6
CONTINUOUS
 62
     7
100
AcDbLine
 10
145.2348
 20
199.219801
 30
0.0
 11
145.2348
 21
198.1614
 31
0.0
  0
LINE
  5
104B
100
AcDbEntity
  8
10000_FRONT
370
    25
390
0
  6
CONTINUOUS
 62
     7
100
AcDbLine
 10
145.2348
 20
198.1614
 30
0.0
 11
144.499226
 21
198.1614
 31
0.0
  0
LINE
  5
104C
100
AcDbEntity
  8
10000_FRONT
370
    25
390
0
  6
CONTINUOUS
 62
     7
100
AcDbLine
 10
144.499226
 20
198.1614
 30
0.0
 11
145.2348
 21
199.219801
 31
0.0
  0
LINE
  5
104D
100
AcDbEntity
  8
10000_FRONT
370
    25
390
0
  6
CONTINUOUS
 62
     7
100
AcDbLine
 10
144.250015
 20
198.0242
 30
0.0
 11
145.33904
 21
199.592199
 31
0.0
  0
LINE
  5
104E
100
AcDbEntity
  8
10000_FRONT
370
    25
390
0
  6
CONTINUOUS
 62
     7
100
AcDbLine
 10
145.33904
 20
199.592199
 30
0.0
 11
145.372
 21
199.592199
 31
0.0
  0
LINE
  5
104F
100
AcDbEntity
  8
10000_FRONT
370
    25
390
0
  6
CONTINUOUS
 62
     7
100
AcDbLine
 10
145.372
 20
199.592199
 30
0.0
 11
145.372
 21
198.1614
 31
0.0
  0
LINE
  5
1050
100
AcDbEntity
  8
10000_FRONT
370
    25
390
0
  6
CONTINUOUS
 62
     7
100
AcDbLine
 10
145.372
 20
198.1614
 30
0.0
 11
145.756535
 21
198.1614
 31
0.0
  0
LINE
  5
1051
100
AcDbEntity
  8
10000_FRONT
370
    25
390
0
  6
CONTINUOUS
 62
     7
100
AcDbLine
 10
145.756535
 20
198.1614
 30
0.0
 11
145.756535
 21
198.0242
 31
0.0
  0
LINE
  5
1052
100
AcDbEntity
  8
10000_FRONT
370
    25
390
0
  6
CONTINUOUS
 62
     7
100
AcDbLine
 10
145.756535
 20
198.0242
 30
0.0
 11
145.372
 21
198.0242
 31
0.0
  0
LINE
  5
1053
100
AcDbEntity
  8
10000_FRONT
370
    25
390
0
  6
CONTINUOUS
 62
     7
100
AcDbLine
 10
145.372
 20
198.0242
 30
0.0
 11
145.372
 21
197.534199
 31
0.0
  0
LINE
  5
1054
100
AcDbEntity
  8
10000_FRONT
370
    25
390
0
  6
CONTINUOUS
 62
     7
100
AcDbLine
 10
145.372
 20
197.534199
 30
0.0
 11
145.2348
 21
197.534199
 31
0.0
  0
LINE
  5
1055
100
AcDbEntity
  8
10000_FRONT
370
    25
390
0
  6
CONTINUOUS
 62
     7
100
AcDbLine
 10
145.2348
 20
197.534199
 30
0.0
 11
145.2348
 21
198.0242
 31
0.0
  0
LINE
  5
1056
100
AcDbEntity
  8
10000_FRONT
370
    25
390
0
  6
CONTINUOUS
 62
     7
100
AcDbLine
 10
145.2348
 20
198.0242
 30
0.0
 11
144.250015
 21
198.0242
 31
0.0
  0
LINE
  5
1057
100
AcDbEntity
  8
10000_FRONT
370
    25
390
0
  6
CONTINUOUS
 62
     7
100
AcDbLine
 10
148.505657
 20
198.04533
 30
0.0
 11
148.4116
 21
198.325245
 31
0.0
  0
LINE
  5
1058
100
AcDbEntity
  8
10000_FRONT
370
    25
390
0
  6
CONTINUOUS
 62
     7
100
AcDbLine
 10
148.4116
 20
198.325245
 30
0.0
 11
148.4116
 21
198.799625
 31
0.0
  0
LINE
  5
1059
100
AcDbEntity
  8
10000_FRONT
370
    25
390
0
  6
CONTINUOUS
 62
     7
100
AcDbLine
 10
148.4116
 20
198.799625
 30
0.0
 11
148.505657
 21
199.079538
 31
0.0
  0
LINE
  5
105A
100
AcDbEntity
  8
10000_FRONT
370
    25
390
0
  6
CONTINUOUS
 62
     7
100
AcDbLine
 10
148.505657
 20
199.079538
 30
0.0
 11
148.692163
 21
199.359756
 31
0.0
  0
LINE
  5
105B
100
AcDbEntity
  8
10000_FRONT
370
    25
390
0
  6
CONTINUOUS
 62
     7
100
AcDbLine
 10
148.692163
 20
199.359756
 30
0.0
 11
148.970047
 21
199.453468
 31
0.0
  0
LINE
  5
105C
100
AcDbEntity
  8
10000_FRONT
370
    25
390
0
  6
CONTINUOUS
 62
     7
100
AcDbLine
 10
148.970047
 20
199.453468
 30
0.0
 11
149.156553
 21
199.453468
 31
0.0
  0
LINE
  5
105D
100
AcDbEntity
  8
10000_FRONT
370
    25
390
0
  6
CONTINUOUS
 62
     7
100
AcDbLine
 10
149.156553
 20
199.453468
 30
0.0
 11
149.434436
 21
199.359756
 31
0.0
  0
LINE
  5
105E
100
AcDbEntity
  8
10000_FRONT
370
    25
390
0
  6
CONTINUOUS
 62
     7
100
AcDbLine
 10
149.434436
 20
199.359756
 30
0.0
 11
149.622283
 21
199.079538
 31
0.0
  0
LINE
  5
105F
100
AcDbEntity
  8
10000_FRONT
370
    25
390
0
  6
CONTINUOUS
 62
     7
100
AcDbLine
 10
149.622283
 20
199.079538
 30
0.0
 11
149.715
 21
198.799625
 31
0.0
  0
LINE
  5
1060
100
AcDbEntity
  8
10000_FRONT
370
    25
390
0
  6
CONTINUOUS
 62
     7
100
AcDbLine
 10
149.715
 20
198.799625
 30
0.0
 11
149.715
 21
198.325245
 31
0.0
  0
LINE
  5
1061
100
AcDbEntity
  8
10000_FRONT
370
    25
390
0
  6
CONTINUOUS
 62
     7
100
AcDbLine
 10
149.715
 20
198.325245
 30
0.0
 11
149.622283
 21
198.04533
 31
0.0
  0
LINE
  5
1062
100
AcDbEntity
  8
10000_FRONT
370
    25
390
0
  6
CONTINUOUS
 62
     7
100
AcDbLine
 10
149.622283
 20
198.04533
 30
0.0
 11
149.434436
 21
197.765114
 31
0.0
  0
LINE
  5
1063
100
AcDbEntity
  8
10000_FRONT
370
    25
390
0
  6
CONTINUOUS
 62
     7
100
AcDbLine
 10
149.434436
 20
197.765114
 30
0.0
 11
149.179331
 21
197.671398
 31
0.0
  0
LINE
  5
1064
100
AcDbEntity
  8
10000_FRONT
370
    25
390
0
  6
CONTINUOUS
 62
     7
100
AcDbLine
 10
149.179331
 20
197.671398
 30
0.0
 11
148.970047
 21
197.671398
 31
0.0
  0
LINE
  5
1065
100
AcDbEntity
  8
10000_FRONT
370
    25
390
0
  6
CONTINUOUS
 62
     7
100
AcDbLine
 10
148.970047
 20
197.671398
 30
0.0
 11
148.692163
 21
197.765114
 31
0.0
  0
LINE
  5
1066
100
AcDbEntity
  8
10000_FRONT
370
    25
390
0
  6
CONTINUOUS
 62
     7
100
AcDbLine
 10
148.692163
 20
197.765114
 30
0.0
 11
148.505657
 21
198.04533
 31
0.0
  0
LINE
  5
1067
100
AcDbEntity
  8
10000_FRONT
370
    25
390
0
  6
CONTINUOUS
 62
     7
100
AcDbLine
 10
148.468409
 20
197.830036
 30
0.0
 11
148.373281
 21
198.027874
 31
0.0
  0
LINE
  5
1068
100
AcDbEntity
  8
10000_FRONT
370
    25
390
0
  6
CONTINUOUS
 62
     7
100
AcDbLine
 10
148.373281
 20
198.027874
 30
0.0
 11
148.2744
 21
198.320957
 31
0.0
  0
LINE
  5
1069
100
AcDbEntity
  8
10000_FRONT
370
    25
390
0
  6
CONTINUOUS
 62
     7
100
AcDbLine
 10
148.2744
 20
198.320957
 30
0.0
 11
148.2744
 21
198.805445
 31
0.0
  0
LINE
  5
106A
100
AcDbEntity
  8
10000_FRONT
370
    25
390
0
  6
CONTINUOUS
 62
     7
100
AcDbLine
 10
148.2744
 20
198.805445
 30
0.0
 11
148.373281
 21
199.098524
 31
0.0
  0
LINE
  5
106B
100
AcDbEntity
  8
10000_FRONT
370
    25
390
0
  6
CONTINUOUS
 62
     7
100
AcDbLine
 10
148.373281
 20
199.098524
 30
0.0
 11
148.468409
 21
199.296362
 31
0.0
  0
LINE
  5
106C
100
AcDbEntity
  8
10000_FRONT
370
    25
390
0
  6
CONTINUOUS
 62
     7
100
AcDbLine
 10
148.468409
 20
199.296362
 30
0.0
 11
148.66617
 21
199.493282
 31
0.0
  0
LINE
  5
106D
100
AcDbEntity
  8
10000_FRONT
370
    25
390
0
  6
CONTINUOUS
 62
     7
100
AcDbLine
 10
148.66617
 20
199.493282
 30
0.0
 11
148.865539
 21
199.592199
 31
0.0
  0
LINE
  5
106E
100
AcDbEntity
  8
10000_FRONT
370
    25
390
0
  6
CONTINUOUS
 62
     7
100
AcDbLine
 10
148.865539
 20
199.592199
 30
0.0
 11
149.259989
 21
199.592199
 31
0.0
  0
LINE
  5
106F
100
AcDbEntity
  8
10000_FRONT
370
    25
390
0
  6
CONTINUOUS
 62
     7
100
AcDbLine
 10
149.259989
 20
199.592199
 30
0.0
 11
149.46043
 21
199.493282
 31
0.0
  0
LINE
  5
1070
100
AcDbEntity
  8
10000_FRONT
370
    25
390
0
  6
CONTINUOUS
 62
     7
100
AcDbLine
 10
149.46043
 20
199.493282
 30
0.0
 11
149.656851
 21
199.296362
 31
0.0
  0
LINE
  5
1071
100
AcDbEntity
  8
10000_FRONT
370
    25
390
0
  6
CONTINUOUS
 62
     7
100
AcDbLine
 10
149.656851
 20
199.296362
 30
0.0
 11
149.753319
 21
199.098524
 31
0.0
  0
LINE
  5
1072
100
AcDbEntity
  8
10000_FRONT
370
    25
390
0
  6
CONTINUOUS
 62
     7
100
AcDbLine
 10
149.753319
 20
199.098524
 30
0.0
 11
149.8522
 21
198.805445
 31
0.0
  0
LINE
  5
1073
100
AcDbEntity
  8
10000_FRONT
370
    25
390
0
  6
CONTINUOUS
 62
     7
100
AcDbLine
 10
149.8522
 20
198.805445
 30
0.0
 11
149.8522
 21
198.320957
 31
0.0
  0
LINE
  5
1074
100
AcDbEntity
  8
10000_FRONT
370
    25
390
0
  6
CONTINUOUS
 62
     7
100
AcDbLine
 10
149.8522
 20
198.320957
 30
0.0
 11
149.753319
 21
198.027874
 31
0.0
  0
LINE
  5
1075
100
AcDbEntity
  8
10000_FRONT
370
    25
390
0
  6
CONTINUOUS
 62
     7
100
AcDbLine
 10
149.753319
 20
198.027874
 30
0.0
 11
149.656851
 21
197.830036
 31
0.0
  0
LINE
  5
1076
100
AcDbEntity
  8
10000_FRONT
370
    25
390
0
  6
CONTINUOUS
 62
     7
100
AcDbLine
 10
149.656851
 20
197.830036
 30
0.0
 11
149.46043
 21
197.633118
 31
0.0
  0
LINE
  5
1077
100
AcDbEntity
  8
10000_FRONT
370
    25
390
0
  6
CONTINUOUS
 62
     7
100
AcDbLine
 10
149.46043
 20
197.633118
 30
0.0
 11
149.259989
 21
197.534199
 31
0.0
  0
LINE
  5
1078
100
AcDbEntity
  8
10000_FRONT
370
    25
390
0
  6
CONTINUOUS
 62
     7
100
AcDbLine
 10
149.259989
 20
197.534199
 30
0.0
 11
148.865539
 21
197.534199
 31
0.0
  0
LINE
  5
1079
100
AcDbEntity
  8
10000_FRONT
370
    25
390
0
  6
CONTINUOUS
 62
     7
100
AcDbLine
 10
148.865539
 20
197.534199
 30
0.0
 11
148.66617
 21
197.633118
 31
0.0
  0
LINE
  5
107A
100
AcDbEntity
  8
10000_FRONT
370
    25
390
0
  6
CONTINUOUS
 62
     7
100
AcDbLine
 10
148.66617
 20
197.633118
 30
0.0
 11
148.468409
 21
197.830036
 31
0.0
  0
LINE
  5
107B
100
AcDbEntity
  8
10000_FRONT
370
    25
390
0
  6
CONTINUOUS
 62
     7
100
AcDbLine
 10
146.6773
 20
197.534199
 30
0.0
 11
146.6773
 21
199.592199
 31
0.0
  0
LINE
  5
107C
100
AcDbEntity
  8
10000_FRONT
370
    25
390
0
  6
CONTINUOUS
 62
     7
100
AcDbLine
 10
146.6773
 20
199.592199
 30
0.0
 11
146.709456
 21
199.592199
 31
0.0
  0
LINE
  5
107D
100
AcDbEntity
  8
10000_FRONT
370
    25
390
0
  6
CONTINUOUS
 62
     7
100
AcDbLine
 10
146.709456
 20
199.592199
 30
0.0
 11
147.92925
 21
197.910583
 31
0.0
  0
LINE
  5
107E
100
AcDbEntity
  8
10000_FRONT
370
    25
390
0
  6
CONTINUOUS
 62
     7
100
AcDbLine
 10
147.92925
 20
197.910583
 30
0.0
 11
147.92925
 21
199.592199
 31
0.0
  0
LINE
  5
107F
100
AcDbEntity
  8
10000_FRONT
370
    25
390
0
  6
CONTINUOUS
 62
     7
100
AcDbLine
 10
147.92925
 20
199.592199
 30
0.0
 11
148.06645
 21
199.592199
 31
0.0
  0
LINE
  5
1080
100
AcDbEntity
  8
10000_FRONT
370
    25
390
0
  6
CONTINUOUS
 62
     7
100
AcDbLine
 10
148.06645
 20
199.592199
 30
0.0
 11
148.06645
 21
197.534199
 31
0.0
  0
LINE
  5
1081
100
AcDbEntity
  8
10000_FRONT
370
    25
390
0
  6
CONTINUOUS
 62
     7
100
AcDbLine
 10
148.06645
 20
197.534199
 30
0.0
 11
148.032954
 21
197.534199
 31
0.0
  0
LINE
  5
1082
100
AcDbEntity
  8
10000_FRONT
370
    25
390
0
  6
CONTINUOUS
 62
     7
100
AcDbLine
 10
148.032954
 20
197.534199
 30
0.0
 11
146.8145
 21
199.215818
 31
0.0
  0
LINE
  5
1083
100
AcDbEntity
  8
10000_FRONT
370
    25
390
0
  6
CONTINUOUS
 62
     7
100
AcDbLine
 10
146.8145
 20
199.215818
 30
0.0
 11
146.8145
 21
197.534199
 31
0.0
  0
LINE
  5
1084
100
AcDbEntity
  8
10000_FRONT
370
    25
390
0
  6
CONTINUOUS
 62
     7
100
AcDbLine
 10
146.8145
 20
197.534199
 30
0.0
 11
146.6773
 21
197.534199
 31
0.0
  0
LINE
  5
1085
100
AcDbEntity
  8
10000_FRONT
370
    25
390
0
  6
CONTINUOUS
 62
     7
100
AcDbLine
 10
143.371137
 20
197.644451
 30
0.0
 11
143.371137
 21
197.757149
 31
0.0
  0
LINE
  5
1086
100
AcDbEntity
  8
10000_FRONT
370
    25
390
0
  6
CONTINUOUS
 62
     7
100
AcDbLine
 10
143.371137
 20
197.757149
 30
0.0
 11
143.481004
 21
197.867401
 31
0.0
  0
LINE
  5
1087
100
AcDbEntity
  8
10000_FRONT
370
    25
390
0
  6
CONTINUOUS
 62
     7
100
AcDbLine
 10
143.481004
 20
197.867401
 30
0.0
 11
143.593551
 21
197.867401
 31
0.0
  0
LINE
  5
1088
100
AcDbEntity
  8
10000_FRONT
370
    25
390
0
  6
CONTINUOUS
 62
     7
100
AcDbLine
 10
143.593551
 20
197.867401
 30
0.0
 11
143.703418
 21
197.757149
 31
0.0
  0
LINE
  5
1089
100
AcDbEntity
  8
10000_FRONT
370
    25
390
0
  6
CONTINUOUS
 62
     7
100
AcDbLine
 10
143.703418
 20
197.757149
 30
0.0
 11
143.703418
 21
197.644451
 31
0.0
  0
LINE
  5
108A
100
AcDbEntity
  8
10000_FRONT
370
    25
390
0
  6
CONTINUOUS
 62
     7
100
AcDbLine
 10
143.703418
 20
197.644451
 30
0.0
 11
143.593551
 21
197.534199
 31
0.0
  0
LINE
  5
108B
100
AcDbEntity
  8
10000_FRONT
370
    25
390
0
  6
CONTINUOUS
 62
     7
100
AcDbLine
 10
143.593551
 20
197.534199
 30
0.0
 11
143.481004
 21
197.534199
 31
0.0
  0
LINE
  5
108C
100
AcDbEntity
  8
10000_FRONT
370
    25
390
0
  6
CONTINUOUS
 62
     7
100
AcDbLine
 10
143.481004
 20
197.534199
 30
0.0
 11
143.371137
 21
197.644451
 31
0.0
  0
LINE
  5
108D
100
AcDbEntity
  8
10000_FRONT
370
    25
390
0
  6
CONTINUOUS
 62
     7
100
AcDbLine
 10
137.8773
 20
197.534199
 30
0.0
 11
137.8773
 21
199.592199
 31
0.0
  0
LINE
  5
108E
100
AcDbEntity
  8
10000_FRONT
370
    25
390
0
  6
CONTINUOUS
 62
     7
100
AcDbLine
 10
137.8773
 20
199.592199
 30
0.0
 11
137.909456
 21
199.592199
 31
0.0
  0
LINE
  5
108F
100
AcDbEntity
  8
10000_FRONT
370
    25
390
0
  6
CONTINUOUS
 62
     7
100
AcDbLine
 10
137.909456
 20
199.592199
 30
0.0
 11
139.12925
 21
197.910583
 31
0.0
  0
LINE
  5
1090
100
AcDbEntity
  8
10000_FRONT
370
    25
390
0
  6
CONTINUOUS
 62
     7
100
AcDbLine
 10
139.12925
 20
197.910583
 30
0.0
 11
139.12925
 21
199.592199
 31
0.0
  0
LINE
  5
1091
100
AcDbEntity
  8
10000_FRONT
370
    25
390
0
  6
CONTINUOUS
 62
     7
100
AcDbLine
 10
139.12925
 20
199.592199
 30
0.0
 11
139.26645
 21
199.592199
 31
0.0
  0
LINE
  5
1092
100
AcDbEntity
  8
10000_FRONT
370
    25
390
0
  6
CONTINUOUS
 62
     7
100
AcDbLine
 10
139.26645
 20
199.592199
 30
0.0
 11
139.26645
 21
197.534199
 31
0.0
  0
LINE
  5
1093
100
AcDbEntity
  8
10000_FRONT
370
    25
390
0
  6
CONTINUOUS
 62
     7
100
AcDbLine
 10
139.26645
 20
197.534199
 30
0.0
 11
139.232954
 21
197.534199
 31
0.0
  0
LINE
  5
1094
100
AcDbEntity
  8
10000_FRONT
370
    25
390
0
  6
CONTINUOUS
 62
     7
100
AcDbLine
 10
139.232954
 20
197.534199
 30
0.0
 11
138.0145
 21
199.215818
 31
0.0
  0
LINE
  5
1095
100
AcDbEntity
  8
10000_FRONT
370
    25
390
0
  6
CONTINUOUS
 62
     7
100
AcDbLine
 10
138.0145
 20
199.215818
 30
0.0
 11
138.0145
 21
197.534199
 31
0.0
  0
LINE
  5
1096
100
AcDbEntity
  8
10000_FRONT
370
    25
390
0
  6
CONTINUOUS
 62
     7
100
AcDbLine
 10
138.0145
 20
197.534199
 30
0.0
 11
137.8773
 21
197.534199
 31
0.0
  0
LINE
  5
1097
100
AcDbEntity
  8
10000_FRONT
370
    25
390
0
  6
CONTINUOUS
 62
     7
100
AcDbLine
 10
134.371136
 20
197.644451
 30
0.0
 11
134.371136
 21
197.757149
 31
0.0
  0
LINE
  5
1098
100
AcDbEntity
  8
10000_FRONT
370
    25
390
0
  6
CONTINUOUS
 62
     7
100
AcDbLine
 10
134.371136
 20
197.757149
 30
0.0
 11
134.481003
 21
197.867401
 31
0.0
  0
LINE
  5
1099
100
AcDbEntity
  8
10000_FRONT
370
    25
390
0
  6
CONTINUOUS
 62
     7
100
AcDbLine
 10
134.481003
 20
197.867401
 30
0.0
 11
134.593552
 21
197.867401
 31
0.0
  0
LINE
  5
109A
100
AcDbEntity
  8
10000_FRONT
370
    25
390
0
  6
CONTINUOUS
 62
     7
100
AcDbLine
 10
134.593552
 20
197.867401
 30
0.0
 11
134.703419
 21
197.757149
 31
0.0
  0
LINE
  5
109B
100
AcDbEntity
  8
10000_FRONT
370
    25
390
0
  6
CONTINUOUS
 62
     7
100
AcDbLine
 10
134.703419
 20
197.757149
 30
0.0
 11
134.703419
 21
197.644451
 31
0.0
  0
LINE
  5
109C
100
AcDbEntity
  8
10000_FRONT
370
    25
390
0
  6
CONTINUOUS
 62
     7
100
AcDbLine
 10
134.703419
 20
197.644451
 30
0.0
 11
134.593552
 21
197.534199
 31
0.0
  0
LINE
  5
109D
100
AcDbEntity
  8
10000_FRONT
370
    25
390
0
  6
CONTINUOUS
 62
     7
100
AcDbLine
 10
134.593552
 20
197.534199
 30
0.0
 11
134.481003
 21
197.534199
 31
0.0
  0
LINE
  5
109E
100
AcDbEntity
  8
10000_FRONT
370
    25
390
0
  6
CONTINUOUS
 62
     7
100
AcDbLine
 10
134.481003
 20
197.534199
 30
0.0
 11
134.371136
 21
197.644451
 31
0.0
  0
LINE
  5
109F
100
AcDbEntity
  8
10000_FRONT
370
    25
390
0
  6
CONTINUOUS
 62
     7
100
AcDbLine
 10
168.0
 20
226.51
 30
0.0
 11
134.0
 21
226.51
 31
0.0
  0
ARC
  5
10A0
100
AcDbEntity
  8
10000_FRONT
370
    25
390
0
  6
CONTINUOUS
 62
     7
100
AcDbCircle
 10
134.0
 20
225.51
 30
0.0
 40
1.0
100
AcDbArc
 50
90.0
 51
180.0
  0
LINE
  5
10A1
100
AcDbEntity
  8
10000_FRONT
370
    25
390
0
  6
CONTINUOUS
 62
     7
100
AcDbLine
 10
133.0
 20
225.51
 30
0.0
 11
133.0
 21
197.509998
 31
0.0
  0
ARC
  5
10A2
100
AcDbEntity
  8
10000_FRONT
370
    25
390
0
  6
CONTINUOUS
 62
     7
100
AcDbCircle
 10
134.0
 20
197.51
 30
0.0
 40
1.0
100
AcDbArc
 50
180.000096
 51
270.0
  0
LINE
  5
10A3
100
AcDbEntity
  8
10000_FRONT
370
    25
390
0
  6
CONTINUOUS
 62
     7
100
AcDbLine
 10
134.0
 20
196.509998
 30
0.0
 11
168.0
 21
196.509998
 31
0.0
  0
ARC
  5
10A4
100
AcDbEntity
  8
10000_FRONT
370
    25
390
0
  6
CONTINUOUS
 62
     7
100
AcDbCircle
 10
168.0
 20
197.51
 30
0.0
 40
1.0
100
AcDbArc
 50
270.0
 51
359.999904
  0
LINE
  5
10A5
100
AcDbEntity
  8
10000_FRONT
370
    25
390
0
  6
CONTINUOUS
 62
     7
100
AcDbLine
 10
169.0
 20
225.51
 30
0.0
 11
169.0
 21
197.509998
 31
0.0
  0
ARC
  5
10A6
100
AcDbEntity
  8
10000_FRONT
370
    25
390
0
  6
CONTINUOUS
 62
     7
100
AcDbCircle
 10
168.0
 20
225.51
 30
0.0
 40
1.0
100
AcDbArc
 50
0.0
 51
90.0
  0
ARC
  5
10A7
100
AcDbEntity
  8
10000_FRONT
370
    25
390
0
  6
CONTINUOUS
 62
     7
100
AcDbCircle
 10
138.1
 20
203.51
 30
0.0
 40
3.75
100
AcDbArc
 50
270.000006
 51
89.999994
  0
ARC
  5
10A8
100
AcDbEntity
  8
10000_FRONT
370
    25
390
0
  6
CONTINUOUS
 62
     7
100
AcDbCircle
 10
138.1
 20
219.51
 30
0.0
 40
3.75
100
AcDbArc
 50
270.000006
 51
89.999994
  0
ARC
  5
10A9
100
AcDbEntity
  8
10000_FRONT
370
    25
390
0
  6
CONTINUOUS
 62
     7
100
AcDbCircle
 10
146.7
 20
203.51
 30
0.0
 40
3.75
100
AcDbArc
 50
269.999997
 51
90.000003
  0
ARC
  5
10AA
100
AcDbEntity
  8
10000_FRONT
370
    25
390
0
  6
CONTINUOUS
 62
     7
100
AcDbCircle
 10
146.7
 20
219.51
 30
0.0
 40
3.75
100
AcDbArc
 50
269.999997
 51
90.000003
  0
ARC
  5
10AB
100
AcDbEntity
  8
10000_FRONT
370
    25
390
0
  6
CONTINUOUS
 62
     7
100
AcDbCircle
 10
155.3
 20
203.51
 30
0.0
 40
3.75
100
AcDbArc
 50
270.000003
 51
89.999997
  0
ARC
  5
10AC
100
AcDbEntity
  8
10000_FRONT
370
    25
390
0
  6
CONTINUOUS
 62
     7
100
AcDbCircle
 10
155.3
 20
219.51
 30
0.0
 40
3.75
100
AcDbArc
 50
270.000003
 51
89.999997
  0
ARC
  5
10AD
100
AcDbEntity
  8
10000_FRONT
370
    25
390
0
  6
CONTINUOUS
 62
     7
100
AcDbCircle
 10
163.9
 20
203.51
 30
0.0
 40
3.75
100
AcDbArc
 50
269.999994
 51
90.000006
  0
ARC
  5
10AE
100
AcDbEntity
  8
10000_FRONT
370
    25
390
0
  6
CONTINUOUS
 62
     7
100
AcDbCircle
 10
163.9
 20
219.51
 30
0.0
 40
3.75
100
AcDbArc
 50
269.999994
 51
90.000006
  0
LINE
  5
10AF
100
AcDbEntity
  8
10000_FRONT
370
    25
390
0
  6
CONTINUOUS
 62
     7
100
AcDbLine
 10
167.0
 20
207.959999
 30
0.0
 11
135.0
 21
207.959999
 31
0.0
  0
LINE
  5
10B0
100
AcDbEntity
  8
10000_FRONT
370
    25
390
0
  6
CONTINUOUS
 62
     7
100
AcDbLine
 10
135.0
 20
207.959999
 30
0.0
 11
135.0
 21
215.06
 31
0.0
  0
LINE
  5
10B1
100
AcDbEntity
  8
10000_FRONT
370
    25
390
0
  6
CONTINUOUS
 62
     7
100
AcDbLine
 10
135.0
 20
215.06
 30
0.0
 11
155.36
 21
215.06
 31
0.0
  0
LINE
  5
10B2
100
AcDbEntity
  8
10000_FRONT
370
    25
390
0
  6
CONTINUOUS
 62
     7
100
AcDbLine
 10
155.36
 20
213.959999
 30
0.0
 11
155.36
 21
215.06
 31
0.0
  0
LINE
  5
10B3
100
AcDbEntity
  8
10000_FRONT
370
    25
390
0
  6
CONTINUOUS
 62
     7
100
AcDbLine
 10
156.56
 20
213.959999
 30
0.0
 11
155.36
 21
213.959999
 31
0.0
  0
LINE
  5
10B4
100
AcDbEntity
  8
10000_FRONT
370
    25
390
0
  6
CONTINUOUS
 62
     7
100
AcDbLine
 10
156.56
 20
215.06
 30
0.0
 11
156.56
 21
213.959999
 31
0.0
  0
LINE
  5
10B5
100
AcDbEntity
  8
10000_FRONT
370
    25
390
0
  6
CONTINUOUS
 62
     7
100
AcDbLine
 10
156.56
 20
215.06
 30
0.0
 11
167.0
 21
215.06
 31
0.0
  0
LINE
  5
10B6
100
AcDbEntity
  8
10000_FRONT
370
    25
390
0
  6
CONTINUOUS
 62
     7
100
AcDbLine
 10
167.0
 20
215.06
 30
0.0
 11
167.0
 21
207.959999
 31
0.0
  0
LINE
  5
10B7
100
AcDbEntity
  8
10000_FRONT
370
    25
390
0
  6
CONTINUOUS
 62
     7
100
AcDbLine
 10
135.373816
 20
223.732956
 30
0.0
 11
135.26127
 21
223.959581
 31
0.0
  0
LINE
  5
10B8
100
AcDbEntity
  8
10000_FRONT
370
    25
390
0
  6
CONTINUOUS
 62
     7
100
AcDbLine
 10
135.26127
 20
223.959581
 30
0.0
 11
135.405972
 21
223.959581
 31
0.0
  0
LINE
  5
10B9
100
AcDbEntity
  8
10000_FRONT
370
    25
390
0
  6
CONTINUOUS
 62
     7
100
AcDbLine
 10
135.405972
 20
223.959581
 30
0.0
 11
135.471625
 21
223.825444
 31
0.0
  0
LINE
  5
10BA
100
AcDbEntity
  8
10000_FRONT
370
    25
390
0
  6
CONTINUOUS
 62
     7
100
AcDbLine
 10
135.471625
 20
223.825444
 30
0.0
 11
135.782469
 21
223.6714
 31
0.0
  0
LINE
  5
10BB
100
AcDbEntity
  8
10000_FRONT
370
    25
390
0
  6
CONTINUOUS
 62
     7
100
AcDbLine
 10
135.782469
 20
223.6714
 30
0.0
 11
136.062496
 21
223.6714
 31
0.0
  0
LINE
  5
10BC
100
AcDbEntity
  8
10000_FRONT
370
    25
390
0
  6
CONTINUOUS
 62
     7
100
AcDbLine
 10
136.062496
 20
223.6714
 30
0.0
 11
136.246055
 21
223.735713
 31
0.0
  0
LINE
  5
10BD
100
AcDbEntity
  8
10000_FRONT
370
    25
390
0
  6
CONTINUOUS
 62
     7
100
AcDbLine
 10
136.246055
 20
223.735713
 30
0.0
 11
136.37468
 21
223.820238
 31
0.0
  0
LINE
  5
10BE
100
AcDbEntity
  8
10000_FRONT
370
    25
390
0
  6
CONTINUOUS
 62
     7
100
AcDbLine
 10
136.37468
 20
223.820238
 30
0.0
 11
136.460429
 21
223.948863
 31
0.0
  0
LINE
  5
10BF
100
AcDbEntity
  8
10000_FRONT
370
    25
390
0
  6
CONTINUOUS
 62
     7
100
AcDbLine
 10
136.460429
 20
223.948863
 30
0.0
 11
136.523402
 21
224.134144
 31
0.0
  0
LINE
  5
10C0
100
AcDbEntity
  8
10000_FRONT
370
    25
390
0
  6
CONTINUOUS
 62
     7
100
AcDbLine
 10
136.523402
 20
224.134144
 30
0.0
 11
136.523402
 21
224.223875
 31
0.0
  0
LINE
  5
10C1
100
AcDbEntity
  8
10000_FRONT
370
    25
390
0
  6
CONTINUOUS
 62
     7
100
AcDbLine
 10
136.523402
 20
224.223875
 30
0.0
 11
136.460429
 21
224.407625
 31
0.0
  0
LINE
  5
10C2
100
AcDbEntity
  8
10000_FRONT
370
    25
390
0
  6
CONTINUOUS
 62
     7
100
AcDbLine
 10
136.460429
 20
224.407625
 30
0.0
 11
136.37468
 21
224.537782
 31
0.0
  0
LINE
  5
10C3
100
AcDbEntity
  8
10000_FRONT
370
    25
390
0
  6
CONTINUOUS
 62
     7
100
AcDbLine
 10
136.37468
 20
224.537782
 30
0.0
 11
136.246055
 21
224.622307
 31
0.0
  0
LINE
  5
10C4
100
AcDbEntity
  8
10000_FRONT
370
    25
390
0
  6
CONTINUOUS
 62
     7
100
AcDbLine
 10
136.246055
 20
224.622307
 30
0.0
 11
136.062496
 21
224.685088
 31
0.0
  0
LINE
  5
10C5
100
AcDbEntity
  8
10000_FRONT
370
    25
390
0
  6
CONTINUOUS
 62
     7
100
AcDbLine
 10
136.062496
 20
224.685088
 30
0.0
 11
135.732894
 21
224.685088
 31
0.0
  0
LINE
  5
10C6
100
AcDbEntity
  8
10000_FRONT
370
    25
390
0
  6
CONTINUOUS
 62
     7
100
AcDbLine
 10
135.732894
 20
224.685088
 30
0.0
 11
136.327785
 21
225.455
 31
0.0
  0
LINE
  5
10C7
100
AcDbEntity
  8
10000_FRONT
370
    25
390
0
  6
CONTINUOUS
 62
     7
100
AcDbLine
 10
136.327785
 20
225.455
 30
0.0
 11
135.466266
 21
225.455
 31
0.0
  0
LINE
  5
10C8
100
AcDbEntity
  8
10000_FRONT
370
    25
390
0
  6
CONTINUOUS
 62
     7
100
AcDbLine
 10
135.466266
 20
225.455
 30
0.0
 11
135.466266
 21
225.5922
 31
0.0
  0
LINE
  5
10C9
100
AcDbEntity
  8
10000_FRONT
370
    25
390
0
  6
CONTINUOUS
 62
     7
100
AcDbLine
 10
135.466266
 20
225.5922
 30
0.0
 11
136.597095
 21
225.5922
 31
0.0
  0
LINE
  5
10CA
100
AcDbEntity
  8
10000_FRONT
370
    25
390
0
  6
CONTINUOUS
 62
     7
100
AcDbLine
 10
136.597095
 20
225.5922
 30
0.0
 11
135.994164
 21
224.82535
 31
0.0
  0
LINE
  5
10CB
100
AcDbEntity
  8
10000_FRONT
370
    25
390
0
  6
CONTINUOUS
 62
     7
100
AcDbLine
 10
135.994164
 20
224.82535
 30
0.0
 11
136.067856
 21
224.82535
 31
0.0
  0
LINE
  5
10CC
100
AcDbEntity
  8
10000_FRONT
370
    25
390
0
  6
CONTINUOUS
 62
     7
100
AcDbLine
 10
136.067856
 20
224.82535
 30
0.0
 11
136.363961
 21
224.726431
 31
0.0
  0
LINE
  5
10CD
100
AcDbEntity
  8
10000_FRONT
370
    25
390
0
  6
CONTINUOUS
 62
     7
100
AcDbLine
 10
136.363961
 20
224.726431
 30
0.0
 11
136.564938
 21
224.525837
 31
0.0
  0
LINE
  5
10CE
100
AcDbEntity
  8
10000_FRONT
370
    25
390
0
  6
CONTINUOUS
 62
     7
100
AcDbLine
 10
136.564938
 20
224.525837
 30
0.0
 11
136.662746
 21
224.23
 31
0.0
  0
LINE
  5
10CF
100
AcDbEntity
  8
10000_FRONT
370
    25
390
0
  6
CONTINUOUS
 62
     7
100
AcDbLine
 10
136.662746
 20
224.23
 30
0.0
 11
136.662746
 21
224.128325
 31
0.0
  0
LINE
  5
10D0
100
AcDbEntity
  8
10000_FRONT
370
    25
390
0
  6
CONTINUOUS
 62
     7
100
AcDbLine
 10
136.662746
 20
224.128325
 30
0.0
 11
136.564938
 21
223.832488
 31
0.0
  0
LINE
  5
10D1
100
AcDbEntity
  8
10000_FRONT
370
    25
390
0
  6
CONTINUOUS
 62
     7
100
AcDbLine
 10
136.564938
 20
223.832488
 30
0.0
 11
136.363961
 21
223.633119
 31
0.0
  0
LINE
  5
10D2
100
AcDbEntity
  8
10000_FRONT
370
    25
390
0
  6
CONTINUOUS
 62
     7
100
AcDbLine
 10
136.363961
 20
223.633119
 30
0.0
 11
136.067856
 21
223.5342
 31
0.0
  0
LINE
  5
10D3
100
AcDbEntity
  8
10000_FRONT
370
    25
390
0
  6
CONTINUOUS
 62
     7
100
AcDbLine
 10
136.067856
 20
223.5342
 30
0.0
 11
135.774429
 21
223.5342
 31
0.0
  0
LINE
  5
10D4
100
AcDbEntity
  8
10000_FRONT
370
    25
390
0
  6
CONTINUOUS
 62
     7
100
AcDbLine
 10
135.774429
 20
223.5342
 30
0.0
 11
135.478324
 21
223.631894
 31
0.0
  0
LINE
  5
10D5
100
AcDbEntity
  8
10000_FRONT
370
    25
390
0
  6
CONTINUOUS
 62
     7
100
AcDbLine
 10
135.478324
 20
223.631894
 30
0.0
 11
135.373816
 21
223.732956
 31
0.0
  0
LINE
  5
10D6
100
AcDbEntity
  8
10000_FRONT
370
    25
390
0
  6
CONTINUOUS
 62
     7
100
AcDbLine
 10
139.805656
 20
224.045331
 30
0.0
 11
139.7116
 21
224.325244
 31
0.0
  0
LINE
  5
10D7
100
AcDbEntity
  8
10000_FRONT
370
    25
390
0
  6
CONTINUOUS
 62
     7
100
AcDbLine
 10
139.7116
 20
224.325244
 30
0.0
 11
139.7116
 21
224.799625
 31
0.0
  0
LINE
  5
10D8
100
AcDbEntity
  8
10000_FRONT
370
    25
390
0
  6
CONTINUOUS
 62
     7
100
AcDbLine
 10
139.7116
 20
224.799625
 30
0.0
 11
139.805656
 21
225.079537
 31
0.0
  0
LINE
  5
10D9
100
AcDbEntity
  8
10000_FRONT
370
    25
390
0
  6
CONTINUOUS
 62
     7
100
AcDbLine
 10
139.805656
 20
225.079537
 30
0.0
 11
139.992164
 21
225.359756
 31
0.0
  0
LINE
  5
10DA
100
AcDbEntity
  8
10000_FRONT
370
    25
390
0
  6
CONTINUOUS
 62
     7
100
AcDbLine
 10
139.992164
 20
225.359756
 30
0.0
 11
140.270046
 21
225.453469
 31
0.0
  0
LINE
  5
10DB
100
AcDbEntity
  8
10000_FRONT
370
    25
390
0
  6
CONTINUOUS
 62
     7
100
AcDbLine
 10
140.270046
 20
225.453469
 30
0.0
 11
140.456553
 21
225.453469
 31
0.0
  0
LINE
  5
10DC
100
AcDbEntity
  8
10000_FRONT
370
    25
390
0
  6
CONTINUOUS
 62
     7
100
AcDbLine
 10
140.456553
 20
225.453469
 30
0.0
 11
140.734436
 21
225.359756
 31
0.0
  0
LINE
  5
10DD
100
AcDbEntity
  8
10000_FRONT
370
    25
390
0
  6
CONTINUOUS
 62
     7
100
AcDbLine
 10
140.734436
 20
225.359756
 30
0.0
 11
140.922283
 21
225.079537
 31
0.0
  0
LINE
  5
10DE
100
AcDbEntity
  8
10000_FRONT
370
    25
390
0
  6
CONTINUOUS
 62
     7
100
AcDbLine
 10
140.922283
 20
225.079537
 30
0.0
 11
141.015
 21
224.799625
 31
0.0
  0
LINE
  5
10DF
100
AcDbEntity
  8
10000_FRONT
370
    25
390
0
  6
CONTINUOUS
 62
     7
100
AcDbLine
 10
141.015
 20
224.799625
 30
0.0
 11
141.015
 21
224.325244
 31
0.0
  0
LINE
  5
10E0
100
AcDbEntity
  8
10000_FRONT
370
    25
390
0
  6
CONTINUOUS
 62
     7
100
AcDbLine
 10
141.015
 20
224.325244
 30
0.0
 11
140.922283
 21
224.045331
 31
0.0
  0
LINE
  5
10E1
100
AcDbEntity
  8
10000_FRONT
370
    25
390
0
  6
CONTINUOUS
 62
     7
100
AcDbLine
 10
140.922283
 20
224.045331
 30
0.0
 11
140.734436
 21
223.765112
 31
0.0
  0
LINE
  5
10E2
100
AcDbEntity
  8
10000_FRONT
370
    25
390
0
  6
CONTINUOUS
 62
     7
100
AcDbLine
 10
140.734436
 20
223.765112
 30
0.0
 11
140.479331
 21
223.6714
 31
0.0
  0
LINE
  5
10E3
100
AcDbEntity
  8
10000_FRONT
370
    25
390
0
  6
CONTINUOUS
 62
     7
100
AcDbLine
 10
140.479331
 20
223.6714
 30
0.0
 11
140.270046
 21
223.6714
 31
0.0
  0
LINE
  5
10E4
100
AcDbEntity
  8
10000_FRONT
370
    25
390
0
  6
CONTINUOUS
 62
     7
100
AcDbLine
 10
140.270046
 20
223.6714
 30
0.0
 11
139.992164
 21
223.765112
 31
0.0
  0
LINE
  5
10E5
100
AcDbEntity
  8
10000_FRONT
370
    25
390
0
  6
CONTINUOUS
 62
     7
100
AcDbLine
 10
139.992164
 20
223.765112
 30
0.0
 11
139.805656
 21
224.045331
 31
0.0
  0
LINE
  5
10E6
100
AcDbEntity
  8
10000_FRONT
370
    25
390
0
  6
CONTINUOUS
 62
     7
100
AcDbLine
 10
139.768409
 20
223.830038
 30
0.0
 11
139.673281
 21
224.027875
 31
0.0
  0
LINE
  5
10E7
100
AcDbEntity
  8
10000_FRONT
370
    25
390
0
  6
CONTINUOUS
 62
     7
100
AcDbLine
 10
139.673281
 20
224.027875
 30
0.0
 11
139.5744
 21
224.320957
 31
0.0
  0
LINE
  5
10E8
100
AcDbEntity
  8
10000_FRONT
370
    25
390
0
  6
CONTINUOUS
 62
     7
100
AcDbLine
 10
139.5744
 20
224.320957
 30
0.0
 11
139.5744
 21
224.805444
 31
0.0
  0
LINE
  5
10E9
100
AcDbEntity
  8
10000_FRONT
370
    25
390
0
  6
CONTINUOUS
 62
     7
100
AcDbLine
 10
139.5744
 20
224.805444
 30
0.0
 11
139.673281
 21
225.098525
 31
0.0
  0
LINE
  5
10EA
100
AcDbEntity
  8
10000_FRONT
370
    25
390
0
  6
CONTINUOUS
 62
     7
100
AcDbLine
 10
139.673281
 20
225.098525
 30
0.0
 11
139.768409
 21
225.296362
 31
0.0
  0
LINE
  5
10EB
100
AcDbEntity
  8
10000_FRONT
370
    25
390
0
  6
CONTINUOUS
 62
     7
100
AcDbLine
 10
139.768409
 20
225.296362
 30
0.0
 11
139.96617
 21
225.493281
 31
0.0
  0
LINE
  5
10EC
100
AcDbEntity
  8
10000_FRONT
370
    25
390
0
  6
CONTINUOUS
 62
     7
100
AcDbLine
 10
139.96617
 20
225.493281
 30
0.0
 11
140.165539
 21
225.5922
 31
0.0
  0
LINE
  5
10ED
100
AcDbEntity
  8
10000_FRONT
370
    25
390
0
  6
CONTINUOUS
 62
     7
100
AcDbLine
 10
140.165539
 20
225.5922
 30
0.0
 11
140.559989
 21
225.5922
 31
0.0
  0
LINE
  5
10EE
100
AcDbEntity
  8
10000_FRONT
370
    25
390
0
  6
CONTINUOUS
 62
     7
100
AcDbLine
 10
140.559989
 20
225.5922
 30
0.0
 11
140.760429
 21
225.493281
 31
0.0
  0
LINE
  5
10EF
100
AcDbEntity
  8
10000_FRONT
370
    25
390
0
  6
CONTINUOUS
 62
     7
100
AcDbLine
 10
140.760429
 20
225.493281
 30
0.0
 11
140.956851
 21
225.296362
 31
0.0
  0
LINE
  5
10F0
100
AcDbEntity
  8
10000_FRONT
370
    25
390
0
  6
CONTINUOUS
 62
     7
100
AcDbLine
 10
140.956851
 20
225.296362
 30
0.0
 11
141.053319
 21
225.098525
 31
0.0
  0
LINE
  5
10F1
100
AcDbEntity
  8
10000_FRONT
370
    25
390
0
  6
CONTINUOUS
 62
     7
100
AcDbLine
 10
141.053319
 20
225.098525
 30
0.0
 11
141.1522
 21
224.805444
 31
0.0
  0
LINE
  5
10F2
100
AcDbEntity
  8
10000_FRONT
370
    25
390
0
  6
CONTINUOUS
 62
     7
100
AcDbLine
 10
141.1522
 20
224.805444
 30
0.0
 11
141.1522
 21
224.320957
 31
0.0
  0
LINE
  5
10F3
100
AcDbEntity
  8
10000_FRONT
370
    25
390
0
  6
CONTINUOUS
 62
     7
100
AcDbLine
 10
141.1522
 20
224.320957
 30
0.0
 11
141.053319
 21
224.027875
 31
0.0
  0
LINE
  5
10F4
100
AcDbEntity
  8
10000_FRONT
370
    25
390
0
  6
CONTINUOUS
 62
     7
100
AcDbLine
 10
141.053319
 20
224.027875
 30
0.0
 11
140.956851
 21
223.830038
 31
0.0
  0
LINE
  5
10F5
100
AcDbEntity
  8
10000_FRONT
370
    25
390
0
  6
CONTINUOUS
 62
     7
100
AcDbLine
 10
140.956851
 20
223.830038
 30
0.0
 11
140.760429
 21
223.633119
 31
0.0
  0
LINE
  5
10F6
100
AcDbEntity
  8
10000_FRONT
370
    25
390
0
  6
CONTINUOUS
 62
     7
100
AcDbLine
 10
140.760429
 20
223.633119
 30
0.0
 11
140.559989
 21
223.5342
 31
0.0
  0
LINE
  5
10F7
100
AcDbEntity
  8
10000_FRONT
370
    25
390
0
  6
CONTINUOUS
 62
     7
100
AcDbLine
 10
140.559989
 20
223.5342
 30
0.0
 11
140.165539
 21
223.5342
 31
0.0
  0
LINE
  5
10F8
100
AcDbEntity
  8
10000_FRONT
370
    25
390
0
  6
CONTINUOUS
 62
     7
100
AcDbLine
 10
140.165539
 20
223.5342
 30
0.0
 11
139.96617
 21
223.633119
 31
0.0
  0
LINE
  5
10F9
100
AcDbEntity
  8
10000_FRONT
370
    25
390
0
  6
CONTINUOUS
 62
     7
100
AcDbLine
 10
139.96617
 20
223.633119
 30
0.0
 11
139.768409
 21
223.830038
 31
0.0
  0
LINE
  5
10FA
100
AcDbEntity
  8
10000_FRONT
370
    25
390
0
  6
CONTINUOUS
 62
     7
100
AcDbLine
 10
144.373816
 20
223.732956
 30
0.0
 11
144.26127
 21
223.959581
 31
0.0
  0
LINE
  5
10FB
100
AcDbEntity
  8
10000_FRONT
370
    25
390
0
  6
CONTINUOUS
 62
     7
100
AcDbLine
 10
144.26127
 20
223.959581
 30
0.0
 11
144.405972
 21
223.959581
 31
0.0
  0
LINE
  5
10FC
100
AcDbEntity
  8
10000_FRONT
370
    25
390
0
  6
CONTINUOUS
 62
     7
100
AcDbLine
 10
144.405972
 20
223.959581
 30
0.0
 11
144.471625
 21
223.825444
 31
0.0
  0
LINE
  5
10FD
100
AcDbEntity
  8
10000_FRONT
370
    25
390
0
  6
CONTINUOUS
 62
     7
100
AcDbLine
 10
144.471625
 20
223.825444
 30
0.0
 11
144.782469
 21
223.6714
 31
0.0
  0
LINE
  5
10FE
100
AcDbEntity
  8
10000_FRONT
370
    25
390
0
  6
CONTINUOUS
 62
     7
100
AcDbLine
 10
144.782469
 20
223.6714
 30
0.0
 11
145.062496
 21
223.6714
 31
0.0
  0
LINE
  5
10FF
100
AcDbEntity
  8
10000_FRONT
370
    25
390
0
  6
CONTINUOUS
 62
     7
100
AcDbLine
 10
145.062496
 20
223.6714
 30
0.0
 11
145.246055
 21
223.735713
 31
0.0
  0
LINE
  5
1100
100
AcDbEntity
  8
10000_FRONT
370
    25
390
0
  6
CONTINUOUS
 62
     7
100
AcDbLine
 10
145.246055
 20
223.735713
 30
0.0
 11
145.37468
 21
223.820238
 31
0.0
  0
LINE
  5
1101
100
AcDbEntity
  8
10000_FRONT
370
    25
390
0
  6
CONTINUOUS
 62
     7
100
AcDbLine
 10
145.37468
 20
223.820238
 30
0.0
 11
145.46043
 21
223.948863
 31
0.0
  0
LINE
  5
1102
100
AcDbEntity
  8
10000_FRONT
370
    25
390
0
  6
CONTINUOUS
 62
     7
100
AcDbLine
 10
145.46043
 20
223.948863
 30
0.0
 11
145.523402
 21
224.134144
 31
0.0
  0
LINE
  5
1103
100
AcDbEntity
  8
10000_FRONT
370
    25
390
0
  6
CONTINUOUS
 62
     7
100
AcDbLine
 10
145.523402
 20
224.134144
 30
0.0
 11
145.523402
 21
224.223875
 31
0.0
  0
LINE
  5
1104
100
AcDbEntity
  8
10000_FRONT
370
    25
390
0
  6
CONTINUOUS
 62
     7
100
AcDbLine
 10
145.523402
 20
224.223875
 30
0.0
 11
145.46043
 21
224.407625
 31
0.0
  0
LINE
  5
1105
100
AcDbEntity
  8
10000_FRONT
370
    25
390
0
  6
CONTINUOUS
 62
     7
100
AcDbLine
 10
145.46043
 20
224.407625
 30
0.0
 11
145.37468
 21
224.537782
 31
0.0
  0
LINE
  5
1106
100
AcDbEntity
  8
10000_FRONT
370
    25
390
0
  6
CONTINUOUS
 62
     7
100
AcDbLine
 10
145.37468
 20
224.537782
 30
0.0
 11
145.246055
 21
224.622307
 31
0.0
  0
LINE
  5
1107
100
AcDbEntity
  8
10000_FRONT
370
    25
390
0
  6
CONTINUOUS
 62
     7
100
AcDbLine
 10
145.246055
 20
224.622307
 30
0.0
 11
145.062496
 21
224.685088
 31
0.0
  0
LINE
  5
1108
100
AcDbEntity
  8
10000_FRONT
370
    25
390
0
  6
CONTINUOUS
 62
     7
100
AcDbLine
 10
145.062496
 20
224.685088
 30
0.0
 11
144.732894
 21
224.685088
 31
0.0
  0
LINE
  5
1109
100
AcDbEntity
  8
10000_FRONT
370
    25
390
0
  6
CONTINUOUS
 62
     7
100
AcDbLine
 10
144.732894
 20
224.685088
 30
0.0
 11
145.327785
 21
225.455
 31
0.0
  0
LINE
  5
110A
100
AcDbEntity
  8
10000_FRONT
370
    25
390
0
  6
CONTINUOUS
 62
     7
100
AcDbLine
 10
145.327785
 20
225.455
 30
0.0
 11
144.466266
 21
225.455
 31
0.0
  0
LINE
  5
110B
100
AcDbEntity
  8
10000_FRONT
370
    25
390
0
  6
CONTINUOUS
 62
     7
100
AcDbLine
 10
144.466266
 20
225.455
 30
0.0
 11
144.466266
 21
225.5922
 31
0.0
  0
LINE
  5
110C
100
AcDbEntity
  8
10000_FRONT
370
    25
390
0
  6
CONTINUOUS
 62
     7
100
AcDbLine
 10
144.466266
 20
225.5922
 30
0.0
 11
145.597094
 21
225.5922
 31
0.0
  0
LINE
  5
110D
100
AcDbEntity
  8
10000_FRONT
370
    25
390
0
  6
CONTINUOUS
 62
     7
100
AcDbLine
 10
145.597094
 20
225.5922
 30
0.0
 11
144.994164
 21
224.82535
 31
0.0
  0
LINE
  5
110E
100
AcDbEntity
  8
10000_FRONT
370
    25
390
0
  6
CONTINUOUS
 62
     7
100
AcDbLine
 10
144.994164
 20
224.82535
 30
0.0
 11
145.067856
 21
224.82535
 31
0.0
  0
LINE
  5
110F
100
AcDbEntity
  8
10000_FRONT
370
    25
390
0
  6
CONTINUOUS
 62
     7
100
AcDbLine
 10
145.067856
 20
224.82535
 30
0.0
 11
145.363961
 21
224.726431
 31
0.0
  0
LINE
  5
1110
100
AcDbEntity
  8
10000_FRONT
370
    25
390
0
  6
CONTINUOUS
 62
     7
100
AcDbLine
 10
145.363961
 20
224.726431
 30
0.0
 11
145.564938
 21
224.525837
 31
0.0
  0
LINE
  5
1111
100
AcDbEntity
  8
10000_FRONT
370
    25
390
0
  6
CONTINUOUS
 62
     7
100
AcDbLine
 10
145.564938
 20
224.525837
 30
0.0
 11
145.662746
 21
224.23
 31
0.0
  0
LINE
  5
1112
100
AcDbEntity
  8
10000_FRONT
370
    25
390
0
  6
CONTINUOUS
 62
     7
100
AcDbLine
 10
145.662746
 20
224.23
 30
0.0
 11
145.662746
 21
224.128325
 31
0.0
  0
LINE
  5
1113
100
AcDbEntity
  8
10000_FRONT
370
    25
390
0
  6
CONTINUOUS
 62
     7
100
AcDbLine
 10
145.662746
 20
224.128325
 30
0.0
 11
145.564938
 21
223.832488
 31
0.0
  0
LINE
  5
1114
100
AcDbEntity
  8
10000_FRONT
370
    25
390
0
  6
CONTINUOUS
 62
     7
100
AcDbLine
 10
145.564938
 20
223.832488
 30
0.0
 11
145.363961
 21
223.633119
 31
0.0
  0
LINE
  5
1115
100
AcDbEntity
  8
10000_FRONT
370
    25
390
0
  6
CONTINUOUS
 62
     7
100
AcDbLine
 10
145.363961
 20
223.633119
 30
0.0
 11
145.067856
 21
223.5342
 31
0.0
  0
LINE
  5
1116
100
AcDbEntity
  8
10000_FRONT
370
    25
390
0
  6
CONTINUOUS
 62
     7
100
AcDbLine
 10
145.067856
 20
223.5342
 30
0.0
 11
144.77443
 21
223.5342
 31
0.0
  0
LINE
  5
1117
100
AcDbEntity
  8
10000_FRONT
370
    25
390
0
  6
CONTINUOUS
 62
     7
100
AcDbLine
 10
144.77443
 20
223.5342
 30
0.0
 11
144.478324
 21
223.631894
 31
0.0
  0
LINE
  5
1118
100
AcDbEntity
  8
10000_FRONT
370
    25
390
0
  6
CONTINUOUS
 62
     7
100
AcDbLine
 10
144.478324
 20
223.631894
 30
0.0
 11
144.373816
 21
223.732956
 31
0.0
  0
LINE
  5
1119
100
AcDbEntity
  8
10000_FRONT
370
    25
390
0
  6
CONTINUOUS
 62
     7
100
AcDbLine
 10
148.505657
 20
224.045331
 30
0.0
 11
148.4116
 21
224.325244
 31
0.0
  0
LINE
  5
111A
100
AcDbEntity
  8
10000_FRONT
370
    25
390
0
  6
CONTINUOUS
 62
     7
100
AcDbLine
 10
148.4116
 20
224.325244
 30
0.0
 11
148.4116
 21
224.799625
 31
0.0
  0
LINE
  5
111B
100
AcDbEntity
  8
10000_FRONT
370
    25
390
0
  6
CONTINUOUS
 62
     7
100
AcDbLine
 10
148.4116
 20
224.799625
 30
0.0
 11
148.505657
 21
225.079537
 31
0.0
  0
LINE
  5
111C
100
AcDbEntity
  8
10000_FRONT
370
    25
390
0
  6
CONTINUOUS
 62
     7
100
AcDbLine
 10
148.505657
 20
225.079537
 30
0.0
 11
148.692163
 21
225.359756
 31
0.0
  0
LINE
  5
111D
100
AcDbEntity
  8
10000_FRONT
370
    25
390
0
  6
CONTINUOUS
 62
     7
100
AcDbLine
 10
148.692163
 20
225.359756
 30
0.0
 11
148.970047
 21
225.453469
 31
0.0
  0
LINE
  5
111E
100
AcDbEntity
  8
10000_FRONT
370
    25
390
0
  6
CONTINUOUS
 62
     7
100
AcDbLine
 10
148.970047
 20
225.453469
 30
0.0
 11
149.156553
 21
225.453469
 31
0.0
  0
LINE
  5
111F
100
AcDbEntity
  8
10000_FRONT
370
    25
390
0
  6
CONTINUOUS
 62
     7
100
AcDbLine
 10
149.156553
 20
225.453469
 30
0.0
 11
149.434436
 21
225.359756
 31
0.0
  0
LINE
  5
1120
100
AcDbEntity
  8
10000_FRONT
370
    25
390
0
  6
CONTINUOUS
 62
     7
100
AcDbLine
 10
149.434436
 20
225.359756
 30
0.0
 11
149.622283
 21
225.079537
 31
0.0
  0
LINE
  5
1121
100
AcDbEntity
  8
10000_FRONT
370
    25
390
0
  6
CONTINUOUS
 62
     7
100
AcDbLine
 10
149.622283
 20
225.079537
 30
0.0
 11
149.715
 21
224.799625
 31
0.0
  0
LINE
  5
1122
100
AcDbEntity
  8
10000_FRONT
370
    25
390
0
  6
CONTINUOUS
 62
     7
100
AcDbLine
 10
149.715
 20
224.799625
 30
0.0
 11
149.715
 21
224.325244
 31
0.0
  0
LINE
  5
1123
100
AcDbEntity
  8
10000_FRONT
370
    25
390
0
  6
CONTINUOUS
 62
     7
100
AcDbLine
 10
149.715
 20
224.325244
 30
0.0
 11
149.622283
 21
224.045331
 31
0.0
  0
LINE
  5
1124
100
AcDbEntity
  8
10000_FRONT
370
    25
390
0
  6
CONTINUOUS
 62
     7
100
AcDbLine
 10
149.622283
 20
224.045331
 30
0.0
 11
149.434436
 21
223.765112
 31
0.0
  0
LINE
  5
1125
100
AcDbEntity
  8
10000_FRONT
370
    25
390
0
  6
CONTINUOUS
 62
     7
100
AcDbLine
 10
149.434436
 20
223.765112
 30
0.0
 11
149.179331
 21
223.6714
 31
0.0
  0
LINE
  5
1126
100
AcDbEntity
  8
10000_FRONT
370
    25
390
0
  6
CONTINUOUS
 62
     7
100
AcDbLine
 10
149.179331
 20
223.6714
 30
0.0
 11
148.970047
 21
223.6714
 31
0.0
  0
LINE
  5
1127
100
AcDbEntity
  8
10000_FRONT
370
    25
390
0
  6
CONTINUOUS
 62
     7
100
AcDbLine
 10
148.970047
 20
223.6714
 30
0.0
 11
148.692163
 21
223.765112
 31
0.0
  0
LINE
  5
1128
100
AcDbEntity
  8
10000_FRONT
370
    25
390
0
  6
CONTINUOUS
 62
     7
100
AcDbLine
 10
148.692163
 20
223.765112
 30
0.0
 11
148.505657
 21
224.045331
 31
0.0
  0
LINE
  5
1129
100
AcDbEntity
  8
10000_FRONT
370
    25
390
0
  6
CONTINUOUS
 62
     7
100
AcDbLine
 10
148.468409
 20
223.830038
 30
0.0
 11
148.373281
 21
224.027875
 31
0.0
  0
LINE
  5
112A
100
AcDbEntity
  8
10000_FRONT
370
    25
390
0
  6
CONTINUOUS
 62
     7
100
AcDbLine
 10
148.373281
 20
224.027875
 30
0.0
 11
148.2744
 21
224.320957
 31
0.0
  0
LINE
  5
112B
100
AcDbEntity
  8
10000_FRONT
370
    25
390
0
  6
CONTINUOUS
 62
     7
100
AcDbLine
 10
148.2744
 20
224.320957
 30
0.0
 11
148.2744
 21
224.805444
 31
0.0
  0
LINE
  5
112C
100
AcDbEntity
  8
10000_FRONT
370
    25
390
0
  6
CONTINUOUS
 62
     7
100
AcDbLine
 10
148.2744
 20
224.805444
 30
0.0
 11
148.373281
 21
225.098525
 31
0.0
  0
LINE
  5
112D
100
AcDbEntity
  8
10000_FRONT
370
    25
390
0
  6
CONTINUOUS
 62
     7
100
AcDbLine
 10
148.373281
 20
225.098525
 30
0.0
 11
148.468409
 21
225.296362
 31
0.0
  0
LINE
  5
112E
100
AcDbEntity
  8
10000_FRONT
370
    25
390
0
  6
CONTINUOUS
 62
     7
100
AcDbLine
 10
148.468409
 20
225.296362
 30
0.0
 11
148.66617
 21
225.493281
 31
0.0
  0
LINE
  5
112F
100
AcDbEntity
  8
10000_FRONT
370
    25
390
0
  6
CONTINUOUS
 62
     7
100
AcDbLine
 10
148.66617
 20
225.493281
 30
0.0
 11
148.865539
 21
225.5922
 31
0.0
  0
LINE
  5
1130
100
AcDbEntity
  8
10000_FRONT
370
    25
390
0
  6
CONTINUOUS
 62
     7
100
AcDbLine
 10
148.865539
 20
225.5922
 30
0.0
 11
149.259989
 21
225.5922
 31
0.0
  0
LINE
  5
1131
100
AcDbEntity
  8
10000_FRONT
370
    25
390
0
  6
CONTINUOUS
 62
     7
100
AcDbLine
 10
149.259989
 20
225.5922
 30
0.0
 11
149.46043
 21
225.493281
 31
0.0
  0
LINE
  5
1132
100
AcDbEntity
  8
10000_FRONT
370
    25
390
0
  6
CONTINUOUS
 62
     7
100
AcDbLine
 10
149.46043
 20
225.493281
 30
0.0
 11
149.656851
 21
225.296362
 31
0.0
  0
LINE
  5
1133
100
AcDbEntity
  8
10000_FRONT
370
    25
390
0
  6
CONTINUOUS
 62
     7
100
AcDbLine
 10
149.656851
 20
225.296362
 30
0.0
 11
149.753319
 21
225.098525
 31
0.0
  0
LINE
  5
1134
100
AcDbEntity
  8
10000_FRONT
370
    25
390
0
  6
CONTINUOUS
 62
     7
100
AcDbLine
 10
149.753319
 20
225.098525
 30
0.0
 11
149.8522
 21
224.805444
 31
0.0
  0
LINE
  5
1135
100
AcDbEntity
  8
10000_FRONT
370
    25
390
0
  6
CONTINUOUS
 62
     7
100
AcDbLine
 10
149.8522
 20
224.805444
 30
0.0
 11
149.8522
 21
224.320957
 31
0.0
  0
LINE
  5
1136
100
AcDbEntity
  8
10000_FRONT
370
    25
390
0
  6
CONTINUOUS
 62
     7
100
AcDbLine
 10
149.8522
 20
224.320957
 30
0.0
 11
149.753319
 21
224.027875
 31
0.0
  0
LINE
  5
1137
100
AcDbEntity
  8
10000_FRONT
370
    25
390
0
  6
CONTINUOUS
 62
     7
100
AcDbLine
 10
149.753319
 20
224.027875
 30
0.0
 11
149.656851
 21
223.830038
 31
0.0
  0
LINE
  5
1138
100
AcDbEntity
  8
10000_FRONT
370
    25
390
0
  6
CONTINUOUS
 62
     7
100
AcDbLine
 10
149.656851
 20
223.830038
 30
0.0
 11
149.46043
 21
223.633119
 31
0.0
  0
LINE
  5
1139
100
AcDbEntity
  8
10000_FRONT
370
    25
390
0
  6
CONTINUOUS
 62
     7
100
AcDbLine
 10
149.46043
 20
223.633119
 30
0.0
 11
149.259989
 21
223.5342
 31
0.0
  0
LINE
  5
113A
100
AcDbEntity
  8
10000_FRONT
370
    25
390
0
  6
CONTINUOUS
 62
     7
100
AcDbLine
 10
149.259989
 20
223.5342
 30
0.0
 11
148.865539
 21
223.5342
 31
0.0
  0
LINE
  5
113B
100
AcDbEntity
  8
10000_FRONT
370
    25
390
0
  6
CONTINUOUS
 62
     7
100
AcDbLine
 10
148.865539
 20
223.5342
 30
0.0
 11
148.66617
 21
223.633119
 31
0.0
  0
LINE
  5
113C
100
AcDbEntity
  8
10000_FRONT
370
    25
390
0
  6
CONTINUOUS
 62
     7
100
AcDbLine
 10
148.66617
 20
223.633119
 30
0.0
 11
148.468409
 21
223.830038
 31
0.0
  0
LINE
  5
113D
100
AcDbEntity
  8
10000_FRONT
370
    25
390
0
  6
CONTINUOUS
 62
     7
100
AcDbLine
 10
146.6773
 20
223.5342
 30
0.0
 11
146.6773
 21
225.5922
 31
0.0
  0
LINE
  5
113E
100
AcDbEntity
  8
10000_FRONT
370
    25
390
0
  6
CONTINUOUS
 62
     7
100
AcDbLine
 10
146.6773
 20
225.5922
 30
0.0
 11
146.709456
 21
225.5922
 31
0.0
  0
LINE
  5
113F
100
AcDbEntity
  8
10000_FRONT
370
    25
390
0
  6
CONTINUOUS
 62
     7
100
AcDbLine
 10
146.709456
 20
225.5922
 30
0.0
 11
147.92925
 21
223.910582
 31
0.0
  0
LINE
  5
1140
100
AcDbEntity
  8
10000_FRONT
370
    25
390
0
  6
CONTINUOUS
 62
     7
100
AcDbLine
 10
147.92925
 20
223.910582
 30
0.0
 11
147.92925
 21
225.5922
 31
0.0
  0
LINE
  5
1141
100
AcDbEntity
  8
10000_FRONT
370
    25
390
0
  6
CONTINUOUS
 62
     7
100
AcDbLine
 10
147.92925
 20
225.5922
 30
0.0
 11
148.06645
 21
225.5922
 31
0.0
  0
LINE
  5
1142
100
AcDbEntity
  8
10000_FRONT
370
    25
390
0
  6
CONTINUOUS
 62
     7
100
AcDbLine
 10
148.06645
 20
225.5922
 30
0.0
 11
148.06645
 21
223.5342
 31
0.0
  0
LINE
  5
1143
100
AcDbEntity
  8
10000_FRONT
370
    25
390
0
  6
CONTINUOUS
 62
     7
100
AcDbLine
 10
148.06645
 20
223.5342
 30
0.0
 11
148.032954
 21
223.5342
 31
0.0
  0
LINE
  5
1144
100
AcDbEntity
  8
10000_FRONT
370
    25
390
0
  6
CONTINUOUS
 62
     7
100
AcDbLine
 10
148.032954
 20
223.5342
 30
0.0
 11
146.8145
 21
225.215819
 31
0.0
  0
LINE
  5
1145
100
AcDbEntity
  8
10000_FRONT
370
    25
390
0
  6
CONTINUOUS
 62
     7
100
AcDbLine
 10
146.8145
 20
225.215819
 30
0.0
 11
146.8145
 21
223.5342
 31
0.0
  0
LINE
  5
1146
100
AcDbEntity
  8
10000_FRONT
370
    25
390
0
  6
CONTINUOUS
 62
     7
100
AcDbLine
 10
146.8145
 20
223.5342
 30
0.0
 11
146.6773
 21
223.5342
 31
0.0
  0
LINE
  5
1147
100
AcDbEntity
  8
10000_FRONT
370
    25
390
0
  6
CONTINUOUS
 62
     7
100
AcDbLine
 10
143.371137
 20
223.64445
 30
0.0
 11
143.371137
 21
223.75715
 31
0.0
  0
LINE
  5
1148
100
AcDbEntity
  8
10000_FRONT
370
    25
390
0
  6
CONTINUOUS
 62
     7
100
AcDbLine
 10
143.371137
 20
223.75715
 30
0.0
 11
143.481004
 21
223.8674
 31
0.0
  0
LINE
  5
1149
100
AcDbEntity
  8
10000_FRONT
370
    25
390
0
  6
CONTINUOUS
 62
     7
100
AcDbLine
 10
143.481004
 20
223.8674
 30
0.0
 11
143.593551
 21
223.8674
 31
0.0
  0
LINE
  5
114A
100
AcDbEntity
  8
10000_FRONT
370
    25
390
0
  6
CONTINUOUS
 62
     7
100
AcDbLine
 10
143.593551
 20
223.8674
 30
0.0
 11
143.703418
 21
223.75715
 31
0.0
  0
LINE
  5
114B
100
AcDbEntity
  8
10000_FRONT
370
    25
390
0
  6
CONTINUOUS
 62
     7
100
AcDbLine
 10
143.703418
 20
223.75715
 30
0.0
 11
143.703418
 21
223.64445
 31
0.0
  0
LINE
  5
114C
100
AcDbEntity
  8
10000_FRONT
370
    25
390
0
  6
CONTINUOUS
 62
     7
100
AcDbLine
 10
143.703418
 20
223.64445
 30
0.0
 11
143.593551
 21
223.5342
 31
0.0
  0
LINE
  5
114D
100
AcDbEntity
  8
10000_FRONT
370
    25
390
0
  6
CONTINUOUS
 62
     7
100
AcDbLine
 10
143.593551
 20
223.5342
 30
0.0
 11
143.481004
 21
223.5342
 31
0.0
  0
LINE
  5
114E
100
AcDbEntity
  8
10000_FRONT
370
    25
390
0
  6
CONTINUOUS
 62
     7
100
AcDbLine
 10
143.481004
 20
223.5342
 30
0.0
 11
143.371137
 21
223.64445
 31
0.0
  0
LINE
  5
114F
100
AcDbEntity
  8
10000_FRONT
370
    25
390
0
  6
CONTINUOUS
 62
     7
100
AcDbLine
 10
137.8773
 20
223.5342
 30
0.0
 11
137.8773
 21
225.5922
 31
0.0
  0
LINE
  5
1150
100
AcDbEntity
  8
10000_FRONT
370
    25
390
0
  6
CONTINUOUS
 62
     7
100
AcDbLine
 10
137.8773
 20
225.5922
 30
0.0
 11
137.909456
 21
225.5922
 31
0.0
  0
LINE
  5
1151
100
AcDbEntity
  8
10000_FRONT
370
    25
390
0
  6
CONTINUOUS
 62
     7
100
AcDbLine
 10
137.909456
 20
225.5922
 30
0.0
 11
139.12925
 21
223.910582
 31
0.0
  0
LINE
  5
1152
100
AcDbEntity
  8
10000_FRONT
370
    25
390
0
  6
CONTINUOUS
 62
     7
100
AcDbLine
 10
139.12925
 20
223.910582
 30
0.0
 11
139.12925
 21
225.5922
 31
0.0
  0
LINE
  5
1153
100
AcDbEntity
  8
10000_FRONT
370
    25
390
0
  6
CONTINUOUS
 62
     7
100
AcDbLine
 10
139.12925
 20
225.5922
 30
0.0
 11
139.26645
 21
225.5922
 31
0.0
  0
LINE
  5
1154
100
AcDbEntity
  8
10000_FRONT
370
    25
390
0
  6
CONTINUOUS
 62
     7
100
AcDbLine
 10
139.26645
 20
225.5922
 30
0.0
 11
139.26645
 21
223.5342
 31
0.0
  0
LINE
  5
1155
100
AcDbEntity
  8
10000_FRONT
370
    25
390
0
  6
CONTINUOUS
 62
     7
100
AcDbLine
 10
139.26645
 20
223.5342
 30
0.0
 11
139.232954
 21
223.5342
 31
0.0
  0
LINE
  5
1156
100
AcDbEntity
  8
10000_FRONT
370
    25
390
0
  6
CONTINUOUS
 62
     7
100
AcDbLine
 10
139.232954
 20
223.5342
 30
0.0
 11
138.0145
 21
225.215819
 31
0.0
  0
LINE
  5
1157
100
AcDbEntity
  8
10000_FRONT
370
    25
390
0
  6
CONTINUOUS
 62
     7
100
AcDbLine
 10
138.0145
 20
225.215819
 30
0.0
 11
138.0145
 21
223.5342
 31
0.0
  0
LINE
  5
1158
100
AcDbEntity
  8
10000_FRONT
370
    25
390
0
  6
CONTINUOUS
 62
     7
100
AcDbLine
 10
138.0145
 20
223.5342
 30
0.0
 11
137.8773
 21
223.5342
 31
0.0
  0
LINE
  5
1159
100
AcDbEntity
  8
10000_FRONT
370
    25
390
0
  6
CONTINUOUS
 62
     7
100
AcDbLine
 10
134.371136
 20
223.64445
 30
0.0
 11
134.371136
 21
223.75715
 31
0.0
  0
LINE
  5
115A
100
AcDbEntity
  8
10000_FRONT
370
    25
390
0
  6
CONTINUOUS
 62
     7
100
AcDbLine
 10
134.371136
 20
223.75715
 30
0.0
 11
134.481003
 21
223.8674
 31
0.0
  0
LINE
  5
115B
100
AcDbEntity
  8
10000_FRONT
370
    25
390
0
  6
CONTINUOUS
 62
     7
100
AcDbLine
 10
134.481003
 20
223.8674
 30
0.0
 11
134.593552
 21
223.8674
 31
0.0
  0
LINE
  5
115C
100
AcDbEntity
  8
10000_FRONT
370
    25
390
0
  6
CONTINUOUS
 62
     7
100
AcDbLine
 10
134.593552
 20
223.8674
 30
0.0
 11
134.703419
 21
223.75715
 31
0.0
  0
LINE
  5
115D
100
AcDbEntity
  8
10000_FRONT
370
    25
390
0
  6
CONTINUOUS
 62
     7
100
AcDbLine
 10
134.703419
 20
223.75715
 30
0.0
 11
134.703419
 21
223.64445
 31
0.0
  0
LINE
  5
115E
100
AcDbEntity
  8
10000_FRONT
370
    25
390
0
  6
CONTINUOUS
 62
     7
100
AcDbLine
 10
134.703419
 20
223.64445
 30
0.0
 11
134.593552
 21
223.5342
 31
0.0
  0
LINE
  5
115F
100
AcDbEntity
  8
10000_FRONT
370
    25
390
0
  6
CONTINUOUS
 62
     7
100
AcDbLine
 10
134.593552
 20
223.5342
 30
0.0
 11
134.481003
 21
223.5342
 31
0.0
  0
LINE
  5
1160
100
AcDbEntity
  8
10000_FRONT
370
    25
390
0
  6
CONTINUOUS
 62
     7
100
AcDbLine
 10
134.481003
 20
223.5342
 30
0.0
 11
134.371136
 21
223.64445
 31
0.0
  0
LINE
  5
1161
100
AcDbEntity
  8
10000_FRONT
370
    25
390
0
  6
CONTINUOUS
 62
     7
100
AcDbLine
 10
159.3
 20
210.700001
 30
0.0
 11
159.3
 21
212.299999
 31
0.0
  0
ARC
  5
1162
100
AcDbEntity
  8
10000_FRONT
370
    25
390
0
  6
CONTINUOUS
 62
     7
100
AcDbCircle
 10
159.35
 20
210.7
 30
0.0
 40
0.05
100
AcDbArc
 50
179.999126
 51
270.000437
  0
LINE
  5
1163
100
AcDbEntity
  8
10000_FRONT
370
    25
390
0
  6
CONTINUOUS
 62
     7
100
AcDbLine
 10
164.25
 20
210.65
 30
0.0
 11
159.35
 21
210.65
 31
0.0
  0
ARC
  5
1164
100
AcDbEntity
  8
10000_FRONT
370
    25
390
0
  6
CONTINUOUS
 62
     7
100
AcDbCircle
 10
164.25
 20
210.7
 30
0.0
 40
0.05
100
AcDbArc
 50
270.0
 51
0.000874
  0
LINE
  5
1165
100
AcDbEntity
  8
10000_FRONT
370
    25
390
0
  6
CONTINUOUS
 62
     7
100
AcDbLine
 10
164.3
 20
212.299999
 30
0.0
 11
164.3
 21
210.700001
 31
0.0
  0
ARC
  5
1166
100
AcDbEntity
  8
10000_FRONT
370
    25
390
0
  6
CONTINUOUS
 62
     7
100
AcDbCircle
 10
164.25
 20
212.3
 30
0.0
 40
0.05
100
AcDbArc
 50
359.999126
 51
90.0
  0
LINE
  5
1167
100
AcDbEntity
  8
10000_FRONT
370
    25
390
0
  6
CONTINUOUS
 62
     7
100
AcDbLine
 10
159.35
 20
212.35
 30
0.0
 11
164.25
 21
212.35
 31
0.0
  0
ARC
  5
1168
100
AcDbEntity
  8
10000_FRONT
370
    25
390
0
  6
CONTINUOUS
 62
     7
100
AcDbCircle
 10
159.35
 20
212.3
 30
0.0
 40
0.05
100
AcDbArc
 50
89.999563
 51
180.000874
  0
LINE
  5
1169
100
AcDbEntity
  8
10000_FRONT
370
    25
390
0
  6
CONTINUOUS
 62
     7
100
AcDbLine
 10
165.0
 20
212.049999
 30
0.0
 11
165.0
 21
210.950001
 31
0.0
  0
ARC
  5
116A
100
AcDbEntity
  8
10000_FRONT
370
    25
390
0
  6
CONTINUOUS
 62
     7
100
AcDbCircle
 10
164.0
 20
210.95
 30
0.0
 40
1.0
100
AcDbArc
 50
270.0
 51
0.0
  0
LINE
  5
116B
100
AcDbEntity
  8
10000_FRONT
370
    25
390
0
  6
CONTINUOUS
 62
     7
100
AcDbLine
 10
164.0
 20
209.950001
 30
0.0
 11
159.6
 21
209.950001
 31
0.0
  0
ARC
  5
116C
100
AcDbEntity
  8
10000_FRONT
370
    25
390
0
  6
CONTINUOUS
 62
     7
100
AcDbCircle
 10
159.6
 20
210.95
 30
0.0
 40
1.0
100
AcDbArc
 50
180.0
 51
270.000022
  0
LINE
  5
116D
100
AcDbEntity
  8
10000_FRONT
370
    25
390
0
  6
CONTINUOUS
 62
     7
100
AcDbLine
 10
158.6
 20
210.950001
 30
0.0
 11
158.6
 21
212.049999
 31
0.0
  0
ARC
  5
116E
100
AcDbEntity
  8
10000_FRONT
370
    25
390
0
  6
CONTINUOUS
 62
     7
100
AcDbCircle
 10
164.0
 20
212.05
 30
0.0
 40
1.0
100
AcDbArc
 50
0.0
 51
90.0
  0
LINE
  5
116F
100
AcDbEntity
  8
10000_FRONT
370
    25
390
0
  6
CONTINUOUS
 62
     7
100
AcDbLine
 10
159.6
 20
213.049999
 30
0.0
 11
164.0
 21
213.049999
 31
0.0
  0
ARC
  5
1170
100
AcDbEntity
  8
10000_FRONT
370
    25
390
0
  6
CONTINUOUS
 62
     7
100
AcDbCircle
 10
159.6
 20
212.05
 30
0.0
 40
1.0
100
AcDbArc
 50
89.999978
 51
180.0
  0
ARC
  5
1171
100
AcDbEntity
  8
10000_FRONT
370
    25
390
0
  6
CONTINUOUS
 62
     7
100
AcDbCircle
 10
138.1
 20
219.5
 30
0.0
 40
2.9
100
AcDbArc
 50
270.000008
 51
89.999992
  0
LINE
  5
1172
100
AcDbEntity
  8
10000_FRONT
370
    25
390
0
  6
CONTINUOUS
 62
     7
100
AcDbLine
 10
134.209999
 20
194.25
 30
0.0
 11
134.209999
 21
196.5
 31
0.0
  0
LINE
  5
1173
100
AcDbEntity
  8
10000_FRONT
370
    25
390
0
  6
CONTINUOUS
 62
     7
100
AcDbLine
 10
134.209999
 20
192.75
 30
0.0
 11
134.209999
 21
194.25
 31
0.0
  0
LINE
  5
1174
100
AcDbEntity
  8
10000_FRONT
370
    25
390
0
  6
CONTINUOUS
 62
     7
100
AcDbLine
 10
134.209999
 20
228.75
 30
0.0
 11
134.209999
 21
230.25
 31
0.0
  0
LINE
  5
1175
100
AcDbEntity
  8
10000_FRONT
370
    25
390
0
  6
CONTINUOUS
 62
     7
100
AcDbLine
 10
134.209999
 20
226.51
 30
0.0
 11
134.209999
 21
228.75
 31
0.0
  0
ARC
  5
1176
100
AcDbEntity
  8
10000_FRONT
370
    25
390
0
  6
CONTINUOUS
 62
     7
100
AcDbCircle
 10
138.1
 20
203.5
 30
0.0
 40
2.9
100
AcDbArc
 50
270.000008
 51
89.999992
  0
ARC
  5
1177
100
AcDbEntity
  8
10000_FRONT
370
    25
390
0
  6
CONTINUOUS
 62
     7
100
AcDbCircle
 10
146.7
 20
219.5
 30
0.0
 40
2.9
100
AcDbArc
 50
269.999996
 51
90.000004
  0
LINE
  5
1178
100
AcDbEntity
  8
10000_FRONT
370
    25
390
0
  6
CONTINUOUS
 62
     7
100
AcDbLine
 10
142.803333
 20
228.75
 30
0.0
 11
142.803333
 21
230.25
 31
0.0
  0
LINE
  5
1179
100
AcDbEntity
  8
10000_FRONT
370
    25
390
0
  6
CONTINUOUS
 62
     7
100
AcDbLine
 10
142.803333
 20
226.51
 30
0.0
 11
142.803333
 21
228.75
 31
0.0
  0
ARC
  5
117A
100
AcDbEntity
  8
10000_FRONT
370
    25
390
0
  6
CONTINUOUS
 62
     7
100
AcDbCircle
 10
146.7
 20
203.5
 30
0.0
 40
2.9
100
AcDbArc
 50
269.999996
 51
90.000004
  0
LINE
  5
117B
100
AcDbEntity
  8
10000_FRONT
370
    25
390
0
  6
CONTINUOUS
 62
     7
100
AcDbLine
 10
159.196667
 20
192.75
 30
0.0
 11
159.196667
 21
194.25
 31
0.0
  0
LINE
  5
117C
100
AcDbEntity
  8
10000_FRONT
370
    25
390
0
  6
CONTINUOUS
 62
     7
100
AcDbLine
 10
159.196667
 20
196.5
 30
0.0
 11
159.196667
 21
194.25
 31
0.0
  0
LINE
  5
117D
100
AcDbEntity
  8
10000_FRONT
370
    25
390
0
  6
CONTINUOUS
 62
     7
100
AcDbLine
 10
167.790001
 20
228.75
 30
0.0
 11
167.790001
 21
226.51
 31
0.0
  0
LINE
  5
117E
100
AcDbEntity
  8
10000_FRONT
370
    25
390
0
  6
CONTINUOUS
 62
     7
100
AcDbLine
 10
167.790001
 20
228.75
 30
0.0
 11
167.790001
 21
230.25
 31
0.0
  0
LINE
  5
117F
100
AcDbEntity
  8
10000_FRONT
370
    25
390
0
  6
CONTINUOUS
 62
     7
100
AcDbLine
 10
167.790001
 20
192.75
 30
0.0
 11
167.790001
 21
194.25
 31
0.0
  0
LINE
  5
1180
100
AcDbEntity
  8
10000_FRONT
370
    25
390
0
  6
CONTINUOUS
 62
     7
100
AcDbLine
 10
167.790001
 20
196.5
 30
0.0
 11
167.790001
 21
194.25
 31
0.0
  0
LINE
  5
1181
100
AcDbEntity
  8
10000_FRONT
370
    25
390
0
  6
CONTINUOUS
 62
     7
100
AcDbLine
 10
159.196667
 20
228.75
 30
0.0
 11
159.196667
 21
226.51
 31
0.0
  0
LINE
  5
1182
100
AcDbEntity
  8
10000_FRONT
370
    25
390
0
  6
CONTINUOUS
 62
     7
100
AcDbLine
 10
159.196667
 20
228.75
 30
0.0
 11
159.196667
 21
230.25
 31
0.0
  0
LINE
  5
1183
100
AcDbEntity
  8
10000_FRONT
370
    25
390
0
  6
CONTINUOUS
 62
     7
100
AcDbLine
 10
138.585
 20
219.97
 30
0.0
 11
138.585
 21
218.87
 31
0.0
  0
LINE
  5
1184
100
AcDbEntity
  8
10000_FRONT
370
    25
390
0
  6
CONTINUOUS
 62
     7
100
AcDbLine
 10
138.585
 20
220.14
 30
0.0
 11
138.585
 21
219.97
 31
0.0
  0
LINE
  5
1185
100
AcDbEntity
  8
10000_FRONT
370
    25
390
0
  6
CONTINUOUS
 62
     7
100
AcDbLine
 10
138.585
 20
221.2
 30
0.0
 11
138.585
 21
220.14
 31
0.0
  0
LINE
  5
1186
100
AcDbEntity
  8
10000_FRONT
370
    25
390
0
  6
CONTINUOUS
 62
     7
100
AcDbLine
 10
138.585
 20
218.7
 30
0.0
 11
138.585
 21
217.65
 31
0.0
  0
LINE
  5
1187
100
AcDbEntity
  8
10000_FRONT
370
    25
390
0
  6
CONTINUOUS
 62
     7
100
AcDbLine
 10
138.585
 20
218.87
 30
0.0
 11
138.585
 21
218.7
 31
0.0
  0
LINE
  5
1188
100
AcDbEntity
  8
10000_FRONT
370
    25
390
0
  6
CONTINUOUS
 62
     7
100
AcDbLine
 10
138.585
 20
217.65
 30
0.0
 11
137.585
 21
217.65
 31
0.0
  0
LINE
  5
1189
100
AcDbEntity
  8
10000_FRONT
370
    25
390
0
  6
CONTINUOUS
 62
     7
100
AcDbLine
 10
137.585
 20
221.2
 30
0.0
 11
138.585
 21
221.2
 31
0.0
  0
LINE
  5
118A
100
AcDbEntity
  8
10000_FRONT
370
    25
390
0
  6
CONTINUOUS
 62
     7
100
AcDbLine
 10
137.585
 20
220.14
 30
0.0
 11
137.585
 21
221.2
 31
0.0
  0
LINE
  5
118B
100
AcDbEntity
  8
10000_FRONT
370
    25
390
0
  6
CONTINUOUS
 62
     7
100
AcDbLine
 10
137.585
 20
219.97
 30
0.0
 11
137.585
 21
220.14
 31
0.0
  0
LINE
  5
118C
100
AcDbEntity
  8
10000_FRONT
370
    25
390
0
  6
CONTINUOUS
 62
     7
100
AcDbLine
 10
137.585
 20
218.87
 30
0.0
 11
137.585
 21
219.97
 31
0.0
  0
LINE
  5
118D
100
AcDbEntity
  8
10000_FRONT
370
    25
390
0
  6
CONTINUOUS
 62
     7
100
AcDbLine
 10
137.585
 20
218.7
 30
0.0
 11
137.585
 21
218.87
 31
0.0
  0
LINE
  5
118E
100
AcDbEntity
  8
10000_FRONT
370
    25
390
0
  6
CONTINUOUS
 62
     7
100
AcDbLine
 10
137.585
 20
217.65
 30
0.0
 11
137.585
 21
218.7
 31
0.0
  0
LINE
  5
118F
100
AcDbEntity
  8
10000_FRONT
370
    25
390
0
  6
CONTINUOUS
 62
     7
100
AcDbLine
 10
140.468544
 20
218.7
 30
0.0
 11
138.585
 21
218.7
 31
0.0
  0
LINE
  5
1190
100
AcDbEntity
  8
10000_FRONT
370
    25
390
0
  6
CONTINUOUS
 62
     7
100
AcDbLine
 10
137.585
 20
218.7
 30
0.0
 11
135.731456
 21
218.7
 31
0.0
  0
ARC
  5
1191
100
AcDbEntity
  8
10000_FRONT
370
    25
390
0
  6
CONTINUOUS
 62
     7
100
AcDbCircle
 10
138.1
 20
219.5
 30
0.0
 40
2.5
100
AcDbArc
 50
198.662927
 51
341.337072
  0
LINE
  5
1192
100
AcDbEntity
  8
10000_FRONT
370
    25
390
0
  6
CONTINUOUS
 62
     7
100
AcDbLine
 10
135.364356
 20
219.97
 30
0.0
 11
137.585
 21
219.97
 31
0.0
  0
LINE
  5
1193
100
AcDbEntity
  8
10000_FRONT
370
    25
390
0
  6
CONTINUOUS
 62
     7
100
AcDbLine
 10
135.683308
 20
220.14
 30
0.0
 11
137.585
 21
220.14
 31
0.0
  0
LINE
  5
1194
100
AcDbEntity
  8
10000_FRONT
370
    25
390
0
  6
CONTINUOUS
 62
     7
100
AcDbLine
 10
135.470101
 20
220.111255
 30
0.0
 11
135.472809
 21
220.113748
 31
0.0
  0
LINE
  5
1195
100
AcDbEntity
  8
10000_FRONT
370
    25
390
0
  6
CONTINUOUS
 62
     7
100
AcDbLine
 10
135.472809
 20
220.113748
 30
0.0
 11
135.476683
 21
220.11624
 31
0.0
  0
LINE
  5
1196
100
AcDbEntity
  8
10000_FRONT
370
    25
390
0
  6
CONTINUOUS
 62
     7
100
AcDbLine
 10
135.476683
 20
220.11624
 30
0.0
 11
135.481674
 21
220.118646
 31
0.0
  0
LINE
  5
1197
100
AcDbEntity
  8
10000_FRONT
370
    25
390
0
  6
CONTINUOUS
 62
     7
100
AcDbLine
 10
135.481674
 20
220.118646
 30
0.0
 11
135.487646
 21
220.120883
 31
0.0
  0
LINE
  5
1198
100
AcDbEntity
  8
10000_FRONT
370
    25
390
0
  6
CONTINUOUS
 62
     7
100
AcDbLine
 10
135.487646
 20
220.120883
 30
0.0
 11
135.494942
 21
220.123049
 31
0.0
  0
LINE
  5
1199
100
AcDbEntity
  8
10000_FRONT
370
    25
390
0
  6
CONTINUOUS
 62
     7
100
AcDbLine
 10
135.494942
 20
220.123049
 30
0.0
 11
135.503647
 21
220.125204
 31
0.0
  0
LINE
  5
119A
100
AcDbEntity
  8
10000_FRONT
370
    25
390
0
  6
CONTINUOUS
 62
     7
100
AcDbLine
 10
135.503647
 20
220.125204
 30
0.0
 11
135.513444
 21
220.127284
 31
0.0
  0
LINE
  5
119B
100
AcDbEntity
  8
10000_FRONT
370
    25
390
0
  6
CONTINUOUS
 62
     7
100
AcDbLine
 10
135.513444
 20
220.127284
 30
0.0
 11
135.524016
 21
220.129221
 31
0.0
  0
LINE
  5
119C
100
AcDbEntity
  8
10000_FRONT
370
    25
390
0
  6
CONTINUOUS
 62
     7
100
AcDbLine
 10
135.524016
 20
220.129221
 30
0.0
 11
135.53505
 21
220.130951
 31
0.0
  0
LINE
  5
119D
100
AcDbEntity
  8
10000_FRONT
370
    25
390
0
  6
CONTINUOUS
 62
     7
100
AcDbLine
 10
135.53505
 20
220.130951
 30
0.0
 11
135.547107
 21
220.132544
 31
0.0
  0
LINE
  5
119E
100
AcDbEntity
  8
10000_FRONT
370
    25
390
0
  6
CONTINUOUS
 62
     7
100
AcDbLine
 10
135.547107
 20
220.132544
 30
0.0
 11
135.560426
 21
220.134051
 31
0.0
  0
LINE
  5
119F
100
AcDbEntity
  8
10000_FRONT
370
    25
390
0
  6
CONTINUOUS
 62
     7
100
AcDbLine
 10
135.560426
 20
220.134051
 30
0.0
 11
135.574568
 21
220.13543
 31
0.0
  0
LINE
  5
11A0
100
AcDbEntity
  8
10000_FRONT
370
    25
390
0
  6
CONTINUOUS
 62
     7
100
AcDbLine
 10
135.574568
 20
220.13543
 30
0.0
 11
135.58909
 21
220.136639
 31
0.0
  0
LINE
  5
11A1
100
AcDbEntity
  8
10000_FRONT
370
    25
390
0
  6
CONTINUOUS
 62
     7
100
AcDbLine
 10
135.58909
 20
220.136639
 30
0.0
 11
135.603553
 21
220.137632
 31
0.0
  0
LINE
  5
11A2
100
AcDbEntity
  8
10000_FRONT
370
    25
390
0
  6
CONTINUOUS
 62
     7
100
AcDbLine
 10
135.603553
 20
220.137632
 30
0.0
 11
135.618541
 21
220.138437
 31
0.0
  0
LINE
  5
11A3
100
AcDbEntity
  8
10000_FRONT
370
    25
390
0
  6
CONTINUOUS
 62
     7
100
AcDbLine
 10
135.618541
 20
220.138437
 30
0.0
 11
135.634529
 21
220.139092
 31
0.0
  0
LINE
  5
11A4
100
AcDbEntity
  8
10000_FRONT
370
    25
390
0
  6
CONTINUOUS
 62
     7
100
AcDbLine
 10
135.634529
 20
220.139092
 30
0.0
 11
135.650998
 21
220.139583
 31
0.0
  0
LINE
  5
11A5
100
AcDbEntity
  8
10000_FRONT
370
    25
390
0
  6
CONTINUOUS
 62
     7
100
AcDbLine
 10
135.650998
 20
220.139583
 30
0.0
 11
135.667431
 21
220.139891
 31
0.0
  0
LINE
  5
11A6
100
AcDbEntity
  8
10000_FRONT
370
    25
390
0
  6
CONTINUOUS
 62
     7
100
AcDbLine
 10
135.667431
 20
220.139891
 30
0.0
 11
135.683308
 21
220.14
 31
0.0
  0
LINE
  5
11A7
100
AcDbEntity
  8
10000_FRONT
370
    25
390
0
  6
CONTINUOUS
 62
     7
100
AcDbLine
 10
135.396715
 20
218.87
 30
0.0
 11
137.585
 21
218.87
 31
0.0
  0
LINE
  5
11A8
100
AcDbEntity
  8
10000_FRONT
370
    25
390
0
  6
CONTINUOUS
 62
     7
100
AcDbLine
 10
135.731456
 20
218.7
 30
0.0
 11
135.718221
 21
218.700075
 31
0.0
  0
LINE
  5
11A9
100
AcDbEntity
  8
10000_FRONT
370
    25
390
0
  6
CONTINUOUS
 62
     7
100
AcDbLine
 10
135.718221
 20
218.700075
 30
0.0
 11
135.704536
 21
218.700285
 31
0.0
  0
LINE
  5
11AA
100
AcDbEntity
  8
10000_FRONT
370
    25
390
0
  6
CONTINUOUS
 62
     7
100
AcDbLine
 10
135.704536
 20
218.700285
 30
0.0
 11
135.690694
 21
218.700622
 31
0.0
  0
LINE
  5
11AB
100
AcDbEntity
  8
10000_FRONT
370
    25
390
0
  6
CONTINUOUS
 62
     7
100
AcDbLine
 10
135.690694
 20
218.700622
 30
0.0
 11
135.676979
 21
218.701077
 31
0.0
  0
LINE
  5
11AC
100
AcDbEntity
  8
10000_FRONT
370
    25
390
0
  6
CONTINUOUS
 62
     7
100
AcDbLine
 10
135.676979
 20
218.701077
 30
0.0
 11
135.663681
 21
218.701639
 31
0.0
  0
LINE
  5
11AD
100
AcDbEntity
  8
10000_FRONT
370
    25
390
0
  6
CONTINUOUS
 62
     7
100
AcDbLine
 10
135.663681
 20
218.701639
 30
0.0
 11
135.651089
 21
218.702302
 31
0.0
  0
LINE
  5
11AE
100
AcDbEntity
  8
10000_FRONT
370
    25
390
0
  6
CONTINUOUS
 62
     7
100
AcDbLine
 10
135.651089
 20
218.702302
 30
0.0
 11
135.638982
 21
218.703085
 31
0.0
  0
LINE
  5
11AF
100
AcDbEntity
  8
10000_FRONT
370
    25
390
0
  6
CONTINUOUS
 62
     7
100
AcDbLine
 10
135.638982
 20
218.703085
 30
0.0
 11
135.626748
 21
218.704021
 31
0.0
  0
LINE
  5
11B0
100
AcDbEntity
  8
10000_FRONT
370
    25
390
0
  6
CONTINUOUS
 62
     7
100
AcDbLine
 10
135.626748
 20
218.704021
 30
0.0
 11
135.614622
 21
218.705087
 31
0.0
  0
LINE
  5
11B1
100
AcDbEntity
  8
10000_FRONT
370
    25
390
0
  6
CONTINUOUS
 62
     7
100
AcDbLine
 10
135.614622
 20
218.705087
 30
0.0
 11
135.602855
 21
218.706259
 31
0.0
  0
LINE
  5
11B2
100
AcDbEntity
  8
10000_FRONT
370
    25
390
0
  6
CONTINUOUS
 62
     7
100
AcDbLine
 10
135.602855
 20
218.706259
 30
0.0
 11
135.591697
 21
218.707513
 31
0.0
  0
LINE
  5
11B3
100
AcDbEntity
  8
10000_FRONT
370
    25
390
0
  6
CONTINUOUS
 62
     7
100
AcDbLine
 10
135.591697
 20
218.707513
 30
0.0
 11
135.5814
 21
218.708827
 31
0.0
  0
LINE
  5
11B4
100
AcDbEntity
  8
10000_FRONT
370
    25
390
0
  6
CONTINUOUS
 62
     7
100
AcDbLine
 10
135.5814
 20
218.708827
 30
0.0
 11
135.571957
 21
218.710212
 31
0.0
  0
LINE
  5
11B5
100
AcDbEntity
  8
10000_FRONT
370
    25
390
0
  6
CONTINUOUS
 62
     7
100
AcDbLine
 10
135.571957
 20
218.710212
 30
0.0
 11
135.562791
 21
218.71175
 31
0.0
  0
LINE
  5
11B6
100
AcDbEntity
  8
10000_FRONT
370
    25
390
0
  6
CONTINUOUS
 62
     7
100
AcDbLine
 10
135.562791
 20
218.71175
 30
0.0
 11
135.554032
 21
218.71341
 31
0.0
  0
LINE
  5
11B7
100
AcDbEntity
  8
10000_FRONT
370
    25
390
0
  6
CONTINUOUS
 62
     7
100
AcDbLine
 10
135.554032
 20
218.71341
 30
0.0
 11
135.54587
 21
218.715158
 31
0.0
  0
LINE
  5
11B8
100
AcDbEntity
  8
10000_FRONT
370
    25
390
0
  6
CONTINUOUS
 62
     7
100
AcDbLine
 10
135.54587
 20
218.715158
 30
0.0
 11
135.538492
 21
218.716951
 31
0.0
  0
LINE
  5
11B9
100
AcDbEntity
  8
10000_FRONT
370
    25
390
0
  6
CONTINUOUS
 62
     7
100
AcDbLine
 10
135.538492
 20
218.716951
 30
0.0
 11
135.532088
 21
218.718756
 31
0.0
  0
LINE
  5
11BA
100
AcDbEntity
  8
10000_FRONT
370
    25
390
0
  6
CONTINUOUS
 62
     7
100
AcDbLine
 10
135.532088
 20
218.718756
 30
0.0
 11
135.526703
 21
218.720578
 31
0.0
  0
LINE
  5
11BB
100
AcDbEntity
  8
10000_FRONT
370
    25
390
0
  6
CONTINUOUS
 62
     7
100
AcDbLine
 10
135.526703
 20
218.720578
 30
0.0
 11
135.521995
 21
218.72253
 31
0.0
  0
LINE
  5
11BC
100
AcDbEntity
  8
10000_FRONT
370
    25
390
0
  6
CONTINUOUS
 62
     7
100
AcDbLine
 10
135.521995
 20
218.72253
 30
0.0
 11
135.518013
 21
218.724576
 31
0.0
  0
LINE
  5
11BD
100
AcDbEntity
  8
10000_FRONT
370
    25
390
0
  6
CONTINUOUS
 62
     7
100
AcDbLine
 10
135.518013
 20
218.724576
 30
0.0
 11
135.514849
 21
218.726665
 31
0.0
  0
LINE
  5
11BE
100
AcDbEntity
  8
10000_FRONT
370
    25
390
0
  6
CONTINUOUS
 62
     7
100
AcDbLine
 10
135.514849
 20
218.726665
 30
0.0
 11
135.512498
 21
218.728745
 31
0.0
  0
LINE
  5
11BF
100
AcDbEntity
  8
10000_FRONT
370
    25
390
0
  6
CONTINUOUS
 62
     7
100
AcDbLine
 10
138.585
 20
218.87
 30
0.0
 11
140.803285
 21
218.87
 31
0.0
  0
LINE
  5
11C0
100
AcDbEntity
  8
10000_FRONT
370
    25
390
0
  6
CONTINUOUS
 62
     7
100
AcDbLine
 10
140.687502
 20
218.728745
 30
0.0
 11
140.684557
 21
218.726224
 31
0.0
  0
LINE
  5
11C1
100
AcDbEntity
  8
10000_FRONT
370
    25
390
0
  6
CONTINUOUS
 62
     7
100
AcDbLine
 10
140.684557
 20
218.726224
 30
0.0
 11
140.680405
 21
218.723706
 31
0.0
  0
LINE
  5
11C2
100
AcDbEntity
  8
10000_FRONT
370
    25
390
0
  6
CONTINUOUS
 62
     7
100
AcDbLine
 10
140.680405
 20
218.723706
 30
0.0
 11
140.675111
 21
218.721284
 31
0.0
  0
LINE
  5
11C3
100
AcDbEntity
  8
10000_FRONT
370
    25
390
0
  6
CONTINUOUS
 62
     7
100
AcDbLine
 10
140.675111
 20
218.721284
 30
0.0
 11
140.668821
 21
218.719039
 31
0.0
  0
LINE
  5
11C4
100
AcDbEntity
  8
10000_FRONT
370
    25
390
0
  6
CONTINUOUS
 62
     7
100
AcDbLine
 10
140.668821
 20
218.719039
 30
0.0
 11
140.661141
 21
218.716856
 31
0.0
  0
LINE
  5
11C5
100
AcDbEntity
  8
10000_FRONT
370
    25
390
0
  6
CONTINUOUS
 62
     7
100
AcDbLine
 10
140.661141
 20
218.716856
 30
0.0
 11
140.65205
 21
218.714691
 31
0.0
  0
LINE
  5
11C6
100
AcDbEntity
  8
10000_FRONT
370
    25
390
0
  6
CONTINUOUS
 62
     7
100
AcDbLine
 10
140.65205
 20
218.714691
 30
0.0
 11
140.641882
 21
218.712611
 31
0.0
  0
LINE
  5
11C7
100
AcDbEntity
  8
10000_FRONT
370
    25
390
0
  6
CONTINUOUS
 62
     7
100
AcDbLine
 10
140.641882
 20
218.712611
 30
0.0
 11
140.63097
 21
218.710682
 31
0.0
  0
LINE
  5
11C8
100
AcDbEntity
  8
10000_FRONT
370
    25
390
0
  6
CONTINUOUS
 62
     7
100
AcDbLine
 10
140.63097
 20
218.710682
 30
0.0
 11
140.619624
 21
218.708968
 31
0.0
  0
LINE
  5
11C9
100
AcDbEntity
  8
10000_FRONT
370
    25
390
0
  6
CONTINUOUS
 62
     7
100
AcDbLine
 10
140.619624
 20
218.708968
 30
0.0
 11
140.607164
 21
218.707377
 31
0.0
  0
LINE
  5
11CA
100
AcDbEntity
  8
10000_FRONT
370
    25
390
0
  6
CONTINUOUS
 62
     7
100
AcDbLine
 10
140.607164
 20
218.707377
 30
0.0
 11
140.593483
 21
218.705878
 31
0.0
  0
LINE
  5
11CB
100
AcDbEntity
  8
10000_FRONT
370
    25
390
0
  6
CONTINUOUS
 62
     7
100
AcDbLine
 10
140.593483
 20
218.705878
 30
0.0
 11
140.579025
 21
218.704511
 31
0.0
  0
LINE
  5
11CC
100
AcDbEntity
  8
10000_FRONT
370
    25
390
0
  6
CONTINUOUS
 62
     7
100
AcDbLine
 10
140.579025
 20
218.704511
 30
0.0
 11
140.564234
 21
218.703318
 31
0.0
  0
LINE
  5
11CD
100
AcDbEntity
  8
10000_FRONT
370
    25
390
0
  6
CONTINUOUS
 62
     7
100
AcDbLine
 10
140.564234
 20
218.703318
 30
0.0
 11
140.549549
 21
218.70234
 31
0.0
  0
LINE
  5
11CE
100
AcDbEntity
  8
10000_FRONT
370
    25
390
0
  6
CONTINUOUS
 62
     7
100
AcDbLine
 10
140.549549
 20
218.70234
 30
0.0
 11
140.534259
 21
218.701544
 31
0.0
  0
LINE
  5
11CF
100
AcDbEntity
  8
10000_FRONT
370
    25
390
0
  6
CONTINUOUS
 62
     7
100
AcDbLine
 10
140.534259
 20
218.701544
 30
0.0
 11
140.518002
 21
218.700895
 31
0.0
  0
LINE
  5
11D0
100
AcDbEntity
  8
10000_FRONT
370
    25
390
0
  6
CONTINUOUS
 62
     7
100
AcDbLine
 10
140.518002
 20
218.700895
 30
0.0
 11
140.501289
 21
218.700412
 31
0.0
  0
LINE
  5
11D1
100
AcDbEntity
  8
10000_FRONT
370
    25
390
0
  6
CONTINUOUS
 62
     7
100
AcDbLine
 10
140.501289
 20
218.700412
 30
0.0
 11
140.484632
 21
218.700109
 31
0.0
  0
LINE
  5
11D2
100
AcDbEntity
  8
10000_FRONT
370
    25
390
0
  6
CONTINUOUS
 62
     7
100
AcDbLine
 10
140.484632
 20
218.700109
 30
0.0
 11
140.468544
 21
218.7
 31
0.0
  0
LINE
  5
11D3
100
AcDbEntity
  8
10000_FRONT
370
    25
390
0
  6
CONTINUOUS
 62
     7
100
AcDbLine
 10
140.687502
 20
218.728745
 30
0.0
 11
140.803285
 21
218.87
 31
0.0
  0
LINE
  5
11D4
100
AcDbEntity
  8
10000_FRONT
370
    25
390
0
  6
CONTINUOUS
 62
     7
100
AcDbLine
 10
138.585
 20
219.97
 30
0.0
 11
140.835644
 21
219.97
 31
0.0
  0
ARC
  5
11D5
100
AcDbEntity
  8
10000_FRONT
370
    25
390
0
  6
CONTINUOUS
 62
     7
100
AcDbCircle
 10
138.1
 20
219.5
 30
0.0
 40
2.775725
100
AcDbArc
 50
346.881382
 51
9.74859
  0
LINE
  5
11D6
100
AcDbEntity
  8
10000_FRONT
370
    25
390
0
  6
CONTINUOUS
 62
     7
100
AcDbLine
 10
138.585
 20
220.14
 30
0.0
 11
140.516692
 21
220.14
 31
0.0
  0
LINE
  5
11D7
100
AcDbEntity
  8
10000_FRONT
370
    25
390
0
  6
CONTINUOUS
 62
     7
100
AcDbLine
 10
140.835644
 20
219.97
 30
0.0
 11
140.729899
 21
220.111255
 31
0.0
  0
LINE
  5
11D8
100
AcDbEntity
  8
10000_FRONT
370
    25
390
0
  6
CONTINUOUS
 62
     7
100
AcDbLine
 10
140.516692
 20
220.14
 30
0.0
 11
140.532569
 21
220.139891
 31
0.0
  0
LINE
  5
11D9
100
AcDbEntity
  8
10000_FRONT
370
    25
390
0
  6
CONTINUOUS
 62
     7
100
AcDbLine
 10
140.532569
 20
220.139891
 30
0.0
 11
140.549002
 21
220.139583
 31
0.0
  0
LINE
  5
11DA
100
AcDbEntity
  8
10000_FRONT
370
    25
390
0
  6
CONTINUOUS
 62
     7
100
AcDbLine
 10
140.549002
 20
220.139583
 30
0.0
 11
140.565472
 21
220.139092
 31
0.0
  0
LINE
  5
11DB
100
AcDbEntity
  8
10000_FRONT
370
    25
390
0
  6
CONTINUOUS
 62
     7
100
AcDbLine
 10
140.565472
 20
220.139092
 30
0.0
 11
140.581459
 21
220.138437
 31
0.0
  0
LINE
  5
11DC
100
AcDbEntity
  8
10000_FRONT
370
    25
390
0
  6
CONTINUOUS
 62
     7
100
AcDbLine
 10
140.581459
 20
220.138437
 30
0.0
 11
140.596447
 21
220.137632
 31
0.0
  0
LINE
  5
11DD
100
AcDbEntity
  8
10000_FRONT
370
    25
390
0
  6
CONTINUOUS
 62
     7
100
AcDbLine
 10
140.596447
 20
220.137632
 30
0.0
 11
140.610909
 21
220.136639
 31
0.0
  0
LINE
  5
11DE
100
AcDbEntity
  8
10000_FRONT
370
    25
390
0
  6
CONTINUOUS
 62
     7
100
AcDbLine
 10
140.610909
 20
220.136639
 30
0.0
 11
140.625432
 21
220.13543
 31
0.0
  0
LINE
  5
11DF
100
AcDbEntity
  8
10000_FRONT
370
    25
390
0
  6
CONTINUOUS
 62
     7
100
AcDbLine
 10
140.625432
 20
220.13543
 30
0.0
 11
140.639574
 21
220.134051
 31
0.0
  0
LINE
  5
11E0
100
AcDbEntity
  8
10000_FRONT
370
    25
390
0
  6
CONTINUOUS
 62
     7
100
AcDbLine
 10
140.639574
 20
220.134051
 30
0.0
 11
140.652893
 21
220.132544
 31
0.0
  0
LINE
  5
11E1
100
AcDbEntity
  8
10000_FRONT
370
    25
390
0
  6
CONTINUOUS
 62
     7
100
AcDbLine
 10
140.652893
 20
220.132544
 30
0.0
 11
140.664949
 21
220.130951
 31
0.0
  0
LINE
  5
11E2
100
AcDbEntity
  8
10000_FRONT
370
    25
390
0
  6
CONTINUOUS
 62
     7
100
AcDbLine
 10
140.664949
 20
220.130951
 30
0.0
 11
140.675983
 21
220.129221
 31
0.0
  0
LINE
  5
11E3
100
AcDbEntity
  8
10000_FRONT
370
    25
390
0
  6
CONTINUOUS
 62
     7
100
AcDbLine
 10
140.675983
 20
220.129221
 30
0.0
 11
140.686556
 21
220.127284
 31
0.0
  0
LINE
  5
11E4
100
AcDbEntity
  8
10000_FRONT
370
    25
390
0
  6
CONTINUOUS
 62
     7
100
AcDbLine
 10
140.686556
 20
220.127284
 30
0.0
 11
140.696353
 21
220.125204
 31
0.0
  0
LINE
  5
11E5
100
AcDbEntity
  8
10000_FRONT
370
    25
390
0
  6
CONTINUOUS
 62
     7
100
AcDbLine
 10
140.696353
 20
220.125204
 30
0.0
 11
140.705059
 21
220.123049
 31
0.0
  0
LINE
  5
11E6
100
AcDbEntity
  8
10000_FRONT
370
    25
390
0
  6
CONTINUOUS
 62
     7
100
AcDbLine
 10
140.705059
 20
220.123049
 30
0.0
 11
140.712354
 21
220.120883
 31
0.0
  0
LINE
  5
11E7
100
AcDbEntity
  8
10000_FRONT
370
    25
390
0
  6
CONTINUOUS
 62
     7
100
AcDbLine
 10
140.712354
 20
220.120883
 30
0.0
 11
140.718326
 21
220.118646
 31
0.0
  0
LINE
  5
11E8
100
AcDbEntity
  8
10000_FRONT
370
    25
390
0
  6
CONTINUOUS
 62
     7
100
AcDbLine
 10
140.718326
 20
220.118646
 30
0.0
 11
140.723317
 21
220.11624
 31
0.0
  0
LINE
  5
11E9
100
AcDbEntity
  8
10000_FRONT
370
    25
390
0
  6
CONTINUOUS
 62
     7
100
AcDbLine
 10
140.723317
 20
220.11624
 30
0.0
 11
140.727191
 21
220.113748
 31
0.0
  0
LINE
  5
11EA
100
AcDbEntity
  8
10000_FRONT
370
    25
390
0
  6
CONTINUOUS
 62
     7
100
AcDbLine
 10
140.727191
 20
220.113748
 30
0.0
 11
140.729898
 21
220.111255
 31
0.0
  0
ARC
  5
11EB
100
AcDbEntity
  8
10000_FRONT
370
    25
390
0
  6
CONTINUOUS
 62
     7
100
AcDbCircle
 10
138.1
 20
219.5
 30
0.0
 40
2.5
100
AcDbArc
 50
14.832854
 51
165.167147
  0
ARC
  5
11EC
100
AcDbEntity
  8
10000_FRONT
370
    25
390
0
  6
CONTINUOUS
 62
     7
100
AcDbCircle
 10
138.1
 20
219.5
 30
0.0
 40
2.7
100
AcDbArc
 50
13.084667
 51
89.999992
  0
ARC
  5
11ED
100
AcDbEntity
  8
10000_FRONT
370
    25
390
0
  6
CONTINUOUS
 62
     7
100
AcDbCircle
 10
138.1
 20
219.5
 30
0.0
 40
2.7
100
AcDbArc
 50
270.000008
 51
343.402304
  0
LINE
  5
11EE
100
AcDbEntity
  8
10000_FRONT
370
    25
390
0
  6
CONTINUOUS
 62
     7
100
AcDbLine
 10
138.585
 20
203.969999
 30
0.0
 11
138.585
 21
202.870001
 31
0.0
  0
LINE
  5
11EF
100
AcDbEntity
  8
10000_FRONT
370
    25
390
0
  6
CONTINUOUS
 62
     7
100
AcDbLine
 10
138.585
 20
204.139999
 30
0.0
 11
138.585
 21
203.969999
 31
0.0
  0
LINE
  5
11F0
100
AcDbEntity
  8
10000_FRONT
370
    25
390
0
  6
CONTINUOUS
 62
     7
100
AcDbLine
 10
138.585
 20
205.200001
 30
0.0
 11
138.585
 21
204.139999
 31
0.0
  0
LINE
  5
11F1
100
AcDbEntity
  8
10000_FRONT
370
    25
390
0
  6
CONTINUOUS
 62
     7
100
AcDbLine
 10
138.585
 20
202.700001
 30
0.0
 11
138.585
 21
201.65
 31
0.0
  0
LINE
  5
11F2
100
AcDbEntity
  8
10000_FRONT
370
    25
390
0
  6
CONTINUOUS
 62
     7
100
AcDbLine
 10
138.585
 20
202.870001
 30
0.0
 11
138.585
 21
202.700001
 31
0.0
  0
LINE
  5
11F3
100
AcDbEntity
  8
10000_FRONT
370
    25
390
0
  6
CONTINUOUS
 62
     7
100
AcDbLine
 10
138.585
 20
201.65
 30
0.0
 11
137.585
 21
201.65
 31
0.0
  0
LINE
  5
11F4
100
AcDbEntity
  8
10000_FRONT
370
    25
390
0
  6
CONTINUOUS
 62
     7
100
AcDbLine
 10
137.585
 20
205.200001
 30
0.0
 11
138.585
 21
205.200001
 31
0.0
  0
LINE
  5
11F5
100
AcDbEntity
  8
10000_FRONT
370
    25
390
0
  6
CONTINUOUS
 62
     7
100
AcDbLine
 10
137.585
 20
204.139999
 30
0.0
 11
137.585
 21
205.200001
 31
0.0
  0
LINE
  5
11F6
100
AcDbEntity
  8
10000_FRONT
370
    25
390
0
  6
CONTINUOUS
 62
     7
100
AcDbLine
 10
137.585
 20
203.969999
 30
0.0
 11
137.585
 21
204.139999
 31
0.0
  0
LINE
  5
11F7
100
AcDbEntity
  8
10000_FRONT
370
    25
390
0
  6
CONTINUOUS
 62
     7
100
AcDbLine
 10
137.585
 20
202.870001
 30
0.0
 11
137.585
 21
203.969999
 31
0.0
  0
LINE
  5
11F8
100
AcDbEntity
  8
10000_FRONT
370
    25
390
0
  6
CONTINUOUS
 62
     7
100
AcDbLine
 10
137.585
 20
202.700001
 30
0.0
 11
137.585
 21
202.870001
 31
0.0
  0
LINE
  5
11F9
100
AcDbEntity
  8
10000_FRONT
370
    25
390
0
  6
CONTINUOUS
 62
     7
100
AcDbLine
 10
137.585
 20
201.65
 30
0.0
 11
137.585
 21
202.700001
 31
0.0
  0
LINE
  5
11FA
100
AcDbEntity
  8
10000_FRONT
370
    25
390
0
  6
CONTINUOUS
 62
     7
100
AcDbLine
 10
140.468544
 20
202.700001
 30
0.0
 11
138.585
 21
202.700001
 31
0.0
  0
LINE
  5
11FB
100
AcDbEntity
  8
10000_FRONT
370
    25
390
0
  6
CONTINUOUS
 62
     7
100
AcDbLine
 10
137.585
 20
202.700001
 30
0.0
 11
135.731456
 21
202.700001
 31
0.0
  0
ARC
  5
11FC
100
AcDbEntity
  8
10000_FRONT
370
    25
390
0
  6
CONTINUOUS
 62
     7
100
AcDbCircle
 10
138.1
 20
203.5
 30
0.0
 40
2.5
100
AcDbArc
 50
198.662906
 51
341.337093
  0
LINE
  5
11FD
100
AcDbEntity
  8
10000_FRONT
370
    25
390
0
  6
CONTINUOUS
 62
     7
100
AcDbLine
 10
135.364356
 20
203.969999
 30
0.0
 11
137.585
 21
203.969999
 31
0.0
  0
LINE
  5
11FE
100
AcDbEntity
  8
10000_FRONT
370
    25
390
0
  6
CONTINUOUS
 62
     7
100
AcDbLine
 10
135.683308
 20
204.139999
 30
0.0
 11
137.585
 21
204.139999
 31
0.0
  0
LINE
  5
11FF
100
AcDbEntity
  8
10000_FRONT
370
    25
390
0
  6
CONTINUOUS
 62
     7
100
AcDbLine
 10
135.470101
 20
204.111254
 30
0.0
 11
135.472809
 21
204.113747
 31
0.0
  0
LINE
  5
1200
100
AcDbEntity
  8
10000_FRONT
370
    25
390
0
  6
CONTINUOUS
 62
     7
100
AcDbLine
 10
135.472809
 20
204.113747
 30
0.0
 11
135.476683
 21
204.11624
 31
0.0
  0
LINE
  5
1201
100
AcDbEntity
  8
10000_FRONT
370
    25
390
0
  6
CONTINUOUS
 62
     7
100
AcDbLine
 10
135.476683
 20
204.11624
 30
0.0
 11
135.481674
 21
204.118647
 31
0.0
  0
LINE
  5
1202
100
AcDbEntity
  8
10000_FRONT
370
    25
390
0
  6
CONTINUOUS
 62
     7
100
AcDbLine
 10
135.481674
 20
204.118647
 30
0.0
 11
135.487646
 21
204.120882
 31
0.0
  0
LINE
  5
1203
100
AcDbEntity
  8
10000_FRONT
370
    25
390
0
  6
CONTINUOUS
 62
     7
100
AcDbLine
 10
135.487646
 20
204.120882
 30
0.0
 11
135.494942
 21
204.123049
 31
0.0
  0
LINE
  5
1204
100
AcDbEntity
  8
10000_FRONT
370
    25
390
0
  6
CONTINUOUS
 62
     7
100
AcDbLine
 10
135.494942
 20
204.123049
 30
0.0
 11
135.503647
 21
204.125204
 31
0.0
  0
LINE
  5
1205
100
AcDbEntity
  8
10000_FRONT
370
    25
390
0
  6
CONTINUOUS
 62
     7
100
AcDbLine
 10
135.503647
 20
204.125204
 30
0.0
 11
135.513444
 21
204.127283
 31
0.0
  0
LINE
  5
1206
100
AcDbEntity
  8
10000_FRONT
370
    25
390
0
  6
CONTINUOUS
 62
     7
100
AcDbLine
 10
135.513444
 20
204.127283
 30
0.0
 11
135.524016
 21
204.129221
 31
0.0
  0
LINE
  5
1207
100
AcDbEntity
  8
10000_FRONT
370
    25
390
0
  6
CONTINUOUS
 62
     7
100
AcDbLine
 10
135.524016
 20
204.129221
 30
0.0
 11
135.53505
 21
204.130951
 31
0.0
  0
LINE
  5
1208
100
AcDbEntity
  8
10000_FRONT
370
    25
390
0
  6
CONTINUOUS
 62
     7
100
AcDbLine
 10
135.53505
 20
204.130951
 30
0.0
 11
135.547107
 21
204.132544
 31
0.0
  0
LINE
  5
1209
100
AcDbEntity
  8
10000_FRONT
370
    25
390
0
  6
CONTINUOUS
 62
     7
100
AcDbLine
 10
135.547107
 20
204.132544
 30
0.0
 11
135.560426
 21
204.13405
 31
0.0
  0
LINE
  5
120A
100
AcDbEntity
  8
10000_FRONT
370
    25
390
0
  6
CONTINUOUS
 62
     7
100
AcDbLine
 10
135.560426
 20
204.13405
 30
0.0
 11
135.574568
 21
204.135431
 31
0.0
  0
LINE
  5
120B
100
AcDbEntity
  8
10000_FRONT
370
    25
390
0
  6
CONTINUOUS
 62
     7
100
AcDbLine
 10
135.574568
 20
204.135431
 30
0.0
 11
135.58909
 21
204.136639
 31
0.0
  0
LINE
  5
120C
100
AcDbEntity
  8
10000_FRONT
370
    25
390
0
  6
CONTINUOUS
 62
     7
100
AcDbLine
 10
135.58909
 20
204.136639
 30
0.0
 11
135.603553
 21
204.137632
 31
0.0
  0
LINE
  5
120D
100
AcDbEntity
  8
10000_FRONT
370
    25
390
0
  6
CONTINUOUS
 62
     7
100
AcDbLine
 10
135.603553
 20
204.137632
 30
0.0
 11
135.618541
 21
204.138437
 31
0.0
  0
LINE
  5
120E
100
AcDbEntity
  8
10000_FRONT
370
    25
390
0
  6
CONTINUOUS
 62
     7
100
AcDbLine
 10
135.618541
 20
204.138437
 30
0.0
 11
135.634529
 21
204.139093
 31
0.0
  0
LINE
  5
120F
100
AcDbEntity
  8
10000_FRONT
370
    25
390
0
  6
CONTINUOUS
 62
     7
100
AcDbLine
 10
135.634529
 20
204.139093
 30
0.0
 11
135.650998
 21
204.139582
 31
0.0
  0
LINE
  5
1210
100
AcDbEntity
  8
10000_FRONT
370
    25
390
0
  6
CONTINUOUS
 62
     7
100
AcDbLine
 10
135.650998
 20
204.139582
 30
0.0
 11
135.667431
 21
204.139891
 31
0.0
  0
LINE
  5
1211
100
AcDbEntity
  8
10000_FRONT
370
    25
390
0
  6
CONTINUOUS
 62
     7
100
AcDbLine
 10
135.667431
 20
204.139891
 30
0.0
 11
135.683308
 21
204.139999
 31
0.0
  0
LINE
  5
1212
100
AcDbEntity
  8
10000_FRONT
370
    25
390
0
  6
CONTINUOUS
 62
     7
100
AcDbLine
 10
135.396715
 20
202.870001
 30
0.0
 11
137.585
 21
202.870001
 31
0.0
  0
LINE
  5
1213
100
AcDbEntity
  8
10000_FRONT
370
    25
390
0
  6
CONTINUOUS
 62
     7
100
AcDbLine
 10
135.731456
 20
202.700001
 30
0.0
 11
135.718221
 21
202.700075
 31
0.0
  0
LINE
  5
1214
100
AcDbEntity
  8
10000_FRONT
370
    25
390
0
  6
CONTINUOUS
 62
     7
100
AcDbLine
 10
135.718221
 20
202.700075
 30
0.0
 11
135.704536
 21
202.700285
 31
0.0
  0
LINE
  5
1215
100
AcDbEntity
  8
10000_FRONT
370
    25
390
0
  6
CONTINUOUS
 62
     7
100
AcDbLine
 10
135.704536
 20
202.700285
 30
0.0
 11
135.690694
 21
202.700623
 31
0.0
  0
LINE
  5
1216
100
AcDbEntity
  8
10000_FRONT
370
    25
390
0
  6
CONTINUOUS
 62
     7
100
AcDbLine
 10
135.690694
 20
202.700623
 30
0.0
 11
135.676979
 21
202.701077
 31
0.0
  0
LINE
  5
1217
100
AcDbEntity
  8
10000_FRONT
370
    25
390
0
  6
CONTINUOUS
 62
     7
100
AcDbLine
 10
135.676979
 20
202.701077
 30
0.0
 11
135.663681
 21
202.701639
 31
0.0
  0
LINE
  5
1218
100
AcDbEntity
  8
10000_FRONT
370
    25
390
0
  6
CONTINUOUS
 62
     7
100
AcDbLine
 10
135.663681
 20
202.701639
 30
0.0
 11
135.651089
 21
202.702303
 31
0.0
  0
LINE
  5
1219
100
AcDbEntity
  8
10000_FRONT
370
    25
390
0
  6
CONTINUOUS
 62
     7
100
AcDbLine
 10
135.651089
 20
202.702303
 30
0.0
 11
135.638982
 21
202.703085
 31
0.0
  0
LINE
  5
121A
100
AcDbEntity
  8
10000_FRONT
370
    25
390
0
  6
CONTINUOUS
 62
     7
100
AcDbLine
 10
135.638982
 20
202.703085
 30
0.0
 11
135.626748
 21
202.704021
 31
0.0
  0
LINE
  5
121B
100
AcDbEntity
  8
10000_FRONT
370
    25
390
0
  6
CONTINUOUS
 62
     7
100
AcDbLine
 10
135.626748
 20
202.704021
 30
0.0
 11
135.614622
 21
202.705086
 31
0.0
  0
LINE
  5
121C
100
AcDbEntity
  8
10000_FRONT
370
    25
390
0
  6
CONTINUOUS
 62
     7
100
AcDbLine
 10
135.614622
 20
202.705086
 30
0.0
 11
135.602855
 21
202.706259
 31
0.0
  0
LINE
  5
121D
100
AcDbEntity
  8
10000_FRONT
370
    25
390
0
  6
CONTINUOUS
 62
     7
100
AcDbLine
 10
135.602855
 20
202.706259
 30
0.0
 11
135.591697
 21
202.707514
 31
0.0
  0
LINE
  5
121E
100
AcDbEntity
  8
10000_FRONT
370
    25
390
0
  6
CONTINUOUS
 62
     7
100
AcDbLine
 10
135.591697
 20
202.707514
 30
0.0
 11
135.5814
 21
202.708828
 31
0.0
  0
LINE
  5
121F
100
AcDbEntity
  8
10000_FRONT
370
    25
390
0
  6
CONTINUOUS
 62
     7
100
AcDbLine
 10
135.5814
 20
202.708828
 30
0.0
 11
135.571957
 21
202.710213
 31
0.0
  0
LINE
  5
1220
100
AcDbEntity
  8
10000_FRONT
370
    25
390
0
  6
CONTINUOUS
 62
     7
100
AcDbLine
 10
135.571957
 20
202.710213
 30
0.0
 11
135.562791
 21
202.71175
 31
0.0
  0
LINE
  5
1221
100
AcDbEntity
  8
10000_FRONT
370
    25
390
0
  6
CONTINUOUS
 62
     7
100
AcDbLine
 10
135.562791
 20
202.71175
 30
0.0
 11
135.554032
 21
202.713411
 31
0.0
  0
LINE
  5
1222
100
AcDbEntity
  8
10000_FRONT
370
    25
390
0
  6
CONTINUOUS
 62
     7
100
AcDbLine
 10
135.554032
 20
202.713411
 30
0.0
 11
135.54587
 21
202.715157
 31
0.0
  0
LINE
  5
1223
100
AcDbEntity
  8
10000_FRONT
370
    25
390
0
  6
CONTINUOUS
 62
     7
100
AcDbLine
 10
135.54587
 20
202.715157
 30
0.0
 11
135.538492
 21
202.716951
 31
0.0
  0
LINE
  5
1224
100
AcDbEntity
  8
10000_FRONT
370
    25
390
0
  6
CONTINUOUS
 62
     7
100
AcDbLine
 10
135.538492
 20
202.716951
 30
0.0
 11
135.532088
 21
202.718756
 31
0.0
  0
LINE
  5
1225
100
AcDbEntity
  8
10000_FRONT
370
    25
390
0
  6
CONTINUOUS
 62
     7
100
AcDbLine
 10
135.532088
 20
202.718756
 30
0.0
 11
135.526703
 21
202.720579
 31
0.0
  0
LINE
  5
1226
100
AcDbEntity
  8
10000_FRONT
370
    25
390
0
  6
CONTINUOUS
 62
     7
100
AcDbLine
 10
135.526703
 20
202.720579
 30
0.0
 11
135.521995
 21
202.72253
 31
0.0
  0
LINE
  5
1227
100
AcDbEntity
  8
10000_FRONT
370
    25
390
0
  6
CONTINUOUS
 62
     7
100
AcDbLine
 10
135.521995
 20
202.72253
 30
0.0
 11
135.518013
 21
202.724575
 31
0.0
  0
LINE
  5
1228
100
AcDbEntity
  8
10000_FRONT
370
    25
390
0
  6
CONTINUOUS
 62
     7
100
AcDbLine
 10
135.518013
 20
202.724575
 30
0.0
 11
135.514849
 21
202.726665
 31
0.0
  0
LINE
  5
1229
100
AcDbEntity
  8
10000_FRONT
370
    25
390
0
  6
CONTINUOUS
 62
     7
100
AcDbLine
 10
135.514849
 20
202.726665
 30
0.0
 11
135.512498
 21
202.728745
 31
0.0
  0
LINE
  5
122A
100
AcDbEntity
  8
10000_FRONT
370
    25
390
0
  6
CONTINUOUS
 62
     7
100
AcDbLine
 10
138.585
 20
202.870001
 30
0.0
 11
140.803285
 21
202.870001
 31
0.0
  0
LINE
  5
122B
100
AcDbEntity
  8
10000_FRONT
370
    25
390
0
  6
CONTINUOUS
 62
     7
100
AcDbLine
 10
140.687502
 20
202.728745
 30
0.0
 11
140.684557
 21
202.726223
 31
0.0
  0
LINE
  5
122C
100
AcDbEntity
  8
10000_FRONT
370
    25
390
0
  6
CONTINUOUS
 62
     7
100
AcDbLine
 10
140.684557
 20
202.726223
 30
0.0
 11
140.680405
 21
202.723707
 31
0.0
  0
LINE
  5
122D
100
AcDbEntity
  8
10000_FRONT
370
    25
390
0
  6
CONTINUOUS
 62
     7
100
AcDbLine
 10
140.680405
 20
202.723707
 30
0.0
 11
140.675111
 21
202.721283
 31
0.0
  0
LINE
  5
122E
100
AcDbEntity
  8
10000_FRONT
370
    25
390
0
  6
CONTINUOUS
 62
     7
100
AcDbLine
 10
140.675111
 20
202.721283
 30
0.0
 11
140.668821
 21
202.71904
 31
0.0
  0
LINE
  5
122F
100
AcDbEntity
  8
10000_FRONT
370
    25
390
0
  6
CONTINUOUS
 62
     7
100
AcDbLine
 10
140.668821
 20
202.71904
 30
0.0
 11
140.661141
 21
202.716856
 31
0.0
  0
LINE
  5
1230
100
AcDbEntity
  8
10000_FRONT
370
    25
390
0
  6
CONTINUOUS
 62
     7
100
AcDbLine
 10
140.661141
 20
202.716856
 30
0.0
 11
140.65205
 21
202.714691
 31
0.0
  0
LINE
  5
1231
100
AcDbEntity
  8
10000_FRONT
370
    25
390
0
  6
CONTINUOUS
 62
     7
100
AcDbLine
 10
140.65205
 20
202.714691
 30
0.0
 11
140.641882
 21
202.71261
 31
0.0
  0
LINE
  5
1232
100
AcDbEntity
  8
10000_FRONT
370
    25
390
0
  6
CONTINUOUS
 62
     7
100
AcDbLine
 10
140.641882
 20
202.71261
 30
0.0
 11
140.63097
 21
202.710682
 31
0.0
  0
LINE
  5
1233
100
AcDbEntity
  8
10000_FRONT
370
    25
390
0
  6
CONTINUOUS
 62
     7
100
AcDbLine
 10
140.63097
 20
202.710682
 30
0.0
 11
140.619624
 21
202.708967
 31
0.0
  0
LINE
  5
1234
100
AcDbEntity
  8
10000_FRONT
370
    25
390
0
  6
CONTINUOUS
 62
     7
100
AcDbLine
 10
140.619624
 20
202.708967
 30
0.0
 11
140.607164
 21
202.707378
 31
0.0
  0
LINE
  5
1235
100
AcDbEntity
  8
10000_FRONT
370
    25
390
0
  6
CONTINUOUS
 62
     7
100
AcDbLine
 10
140.607164
 20
202.707378
 30
0.0
 11
140.593483
 21
202.705877
 31
0.0
  0
LINE
  5
1236
100
AcDbEntity
  8
10000_FRONT
370
    25
390
0
  6
CONTINUOUS
 62
     7
100
AcDbLine
 10
140.593483
 20
202.705877
 30
0.0
 11
140.579025
 21
202.70451
 31
0.0
  0
LINE
  5
1237
100
AcDbEntity
  8
10000_FRONT
370
    25
390
0
  6
CONTINUOUS
 62
     7
100
AcDbLine
 10
140.579025
 20
202.70451
 30
0.0
 11
140.564234
 21
202.703318
 31
0.0
  0
LINE
  5
1238
100
AcDbEntity
  8
10000_FRONT
370
    25
390
0
  6
CONTINUOUS
 62
     7
100
AcDbLine
 10
140.564234
 20
202.703318
 30
0.0
 11
140.549549
 21
202.702339
 31
0.0
  0
LINE
  5
1239
100
AcDbEntity
  8
10000_FRONT
370
    25
390
0
  6
CONTINUOUS
 62
     7
100
AcDbLine
 10
140.549549
 20
202.702339
 30
0.0
 11
140.534259
 21
202.701544
 31
0.0
  0
LINE
  5
123A
100
AcDbEntity
  8
10000_FRONT
370
    25
390
0
  6
CONTINUOUS
 62
     7
100
AcDbLine
 10
140.534259
 20
202.701544
 30
0.0
 11
140.518002
 21
202.700895
 31
0.0
  0
LINE
  5
123B
100
AcDbEntity
  8
10000_FRONT
370
    25
390
0
  6
CONTINUOUS
 62
     7
100
AcDbLine
 10
140.518002
 20
202.700895
 30
0.0
 11
140.501289
 21
202.700413
 31
0.0
  0
LINE
  5
123C
100
AcDbEntity
  8
10000_FRONT
370
    25
390
0
  6
CONTINUOUS
 62
     7
100
AcDbLine
 10
140.501289
 20
202.700413
 30
0.0
 11
140.484632
 21
202.700108
 31
0.0
  0
LINE
  5
123D
100
AcDbEntity
  8
10000_FRONT
370
    25
390
0
  6
CONTINUOUS
 62
     7
100
AcDbLine
 10
140.484632
 20
202.700108
 30
0.0
 11
140.468544
 21
202.700001
 31
0.0
  0
LINE
  5
123E
100
AcDbEntity
  8
10000_FRONT
370
    25
390
0
  6
CONTINUOUS
 62
     7
100
AcDbLine
 10
140.687502
 20
202.728745
 30
0.0
 11
140.803285
 21
202.87
 31
0.0
  0
LINE
  5
123F
100
AcDbEntity
  8
10000_FRONT
370
    25
390
0
  6
CONTINUOUS
 62
     7
100
AcDbLine
 10
138.585
 20
203.969999
 30
0.0
 11
140.835644
 21
203.969999
 31
0.0
  0
ARC
  5
1240
100
AcDbEntity
  8
10000_FRONT
370
    25
390
0
  6
CONTINUOUS
 62
     7
100
AcDbCircle
 10
138.1
 20
203.5
 30
0.0
 40
2.775725
100
AcDbArc
 50
346.881401
 51
9.748571
  0
LINE
  5
1241
100
AcDbEntity
  8
10000_FRONT
370
    25
390
0
  6
CONTINUOUS
 62
     7
100
AcDbLine
 10
138.585
 20
204.139999
 30
0.0
 11
140.516692
 21
204.139999
 31
0.0
  0
LINE
  5
1242
100
AcDbEntity
  8
10000_FRONT
370
    25
390
0
  6
CONTINUOUS
 62
     7
100
AcDbLine
 10
140.835644
 20
203.97
 30
0.0
 11
140.729899
 21
204.111254
 31
0.0
  0
LINE
  5
1243
100
AcDbEntity
  8
10000_FRONT
370
    25
390
0
  6
CONTINUOUS
 62
     7
100
AcDbLine
 10
140.516692
 20
204.139999
 30
0.0
 11
140.532569
 21
204.139891
 31
0.0
  0
LINE
  5
1244
100
AcDbEntity
  8
10000_FRONT
370
    25
390
0
  6
CONTINUOUS
 62
     7
100
AcDbLine
 10
140.532569
 20
204.139891
 30
0.0
 11
140.549002
 21
204.139582
 31
0.0
  0
LINE
  5
1245
100
AcDbEntity
  8
10000_FRONT
370
    25
390
0
  6
CONTINUOUS
 62
     7
100
AcDbLine
 10
140.549002
 20
204.139582
 30
0.0
 11
140.565472
 21
204.139093
 31
0.0
  0
LINE
  5
1246
100
AcDbEntity
  8
10000_FRONT
370
    25
390
0
  6
CONTINUOUS
 62
     7
100
AcDbLine
 10
140.565472
 20
204.139093
 30
0.0
 11
140.581459
 21
204.138437
 31
0.0
  0
LINE
  5
1247
100
AcDbEntity
  8
10000_FRONT
370
    25
390
0
  6
CONTINUOUS
 62
     7
100
AcDbLine
 10
140.581459
 20
204.138437
 30
0.0
 11
140.596447
 21
204.137632
 31
0.0
  0
LINE
  5
1248
100
AcDbEntity
  8
10000_FRONT
370
    25
390
0
  6
CONTINUOUS
 62
     7
100
AcDbLine
 10
140.596447
 20
204.137632
 30
0.0
 11
140.610909
 21
204.136639
 31
0.0
  0
LINE
  5
1249
100
AcDbEntity
  8
10000_FRONT
370
    25
390
0
  6
CONTINUOUS
 62
     7
100
AcDbLine
 10
140.610909
 20
204.136639
 30
0.0
 11
140.625432
 21
204.135431
 31
0.0
  0
LINE
  5
124A
100
AcDbEntity
  8
10000_FRONT
370
    25
390
0
  6
CONTINUOUS
 62
     7
100
AcDbLine
 10
140.625432
 20
204.135431
 30
0.0
 11
140.639574
 21
204.13405
 31
0.0
  0
LINE
  5
124B
100
AcDbEntity
  8
10000_FRONT
370
    25
390
0
  6
CONTINUOUS
 62
     7
100
AcDbLine
 10
140.639574
 20
204.13405
 30
0.0
 11
140.652893
 21
204.132544
 31
0.0
  0
LINE
  5
124C
100
AcDbEntity
  8
10000_FRONT
370
    25
390
0
  6
CONTINUOUS
 62
     7
100
AcDbLine
 10
140.652893
 20
204.132544
 30
0.0
 11
140.664949
 21
204.130951
 31
0.0
  0
LINE
  5
124D
100
AcDbEntity
  8
10000_FRONT
370
    25
390
0
  6
CONTINUOUS
 62
     7
100
AcDbLine
 10
140.664949
 20
204.130951
 30
0.0
 11
140.675983
 21
204.129221
 31
0.0
  0
LINE
  5
124E
100
AcDbEntity
  8
10000_FRONT
370
    25
390
0
  6
CONTINUOUS
 62
     7
100
AcDbLine
 10
140.675983
 20
204.129221
 30
0.0
 11
140.686556
 21
204.127283
 31
0.0
  0
LINE
  5
124F
100
AcDbEntity
  8
10000_FRONT
370
    25
390
0
  6
CONTINUOUS
 62
     7
100
AcDbLine
 10
140.686556
 20
204.127283
 30
0.0
 11
140.696353
 21
204.125204
 31
0.0
  0
LINE
  5
1250
100
AcDbEntity
  8
10000_FRONT
370
    25
390
0
  6
CONTINUOUS
 62
     7
100
AcDbLine
 10
140.696353
 20
204.125204
 30
0.0
 11
140.705059
 21
204.123049
 31
0.0
  0
LINE
  5
1251
100
AcDbEntity
  8
10000_FRONT
370
    25
390
0
  6
CONTINUOUS
 62
     7
100
AcDbLine
 10
140.705059
 20
204.123049
 30
0.0
 11
140.712354
 21
204.120882
 31
0.0
  0
LINE
  5
1252
100
AcDbEntity
  8
10000_FRONT
370
    25
390
0
  6
CONTINUOUS
 62
     7
100
AcDbLine
 10
140.712354
 20
204.120882
 30
0.0
 11
140.718326
 21
204.118647
 31
0.0
  0
LINE
  5
1253
100
AcDbEntity
  8
10000_FRONT
370
    25
390
0
  6
CONTINUOUS
 62
     7
100
AcDbLine
 10
140.718326
 20
204.118647
 30
0.0
 11
140.723317
 21
204.11624
 31
0.0
  0
LINE
  5
1254
100
AcDbEntity
  8
10000_FRONT
370
    25
390
0
  6
CONTINUOUS
 62
     7
100
AcDbLine
 10
140.723317
 20
204.11624
 30
0.0
 11
140.727191
 21
204.113747
 31
0.0
  0
LINE
  5
1255
100
AcDbEntity
  8
10000_FRONT
370
    25
390
0
  6
CONTINUOUS
 62
     7
100
AcDbLine
 10
140.727191
 20
204.113747
 30
0.0
 11
140.729898
 21
204.111254
 31
0.0
  0
ARC
  5
1256
100
AcDbEntity
  8
10000_FRONT
370
    25
390
0
  6
CONTINUOUS
 62
     7
100
AcDbCircle
 10
138.1
 20
203.5
 30
0.0
 40
2.5
100
AcDbArc
 50
14.832833
 51
165.167168
  0
ARC
  5
1257
100
AcDbEntity
  8
10000_FRONT
370
    25
390
0
  6
CONTINUOUS
 62
     7
100
AcDbCircle
 10
138.1
 20
203.5
 30
0.0
 40
2.7
100
AcDbArc
 50
13.084647
 51
89.999992
  0
ARC
  5
1258
100
AcDbEntity
  8
10000_FRONT
370
    25
390
0
  6
CONTINUOUS
 62
     7
100
AcDbCircle
 10
138.1
 20
203.5
 30
0.0
 40
2.7
100
AcDbArc
 50
270.000008
 51
343.402284
  0
LINE
  5
1259
100
AcDbEntity
  8
10000_FRONT
370
    25
390
0
  6
CONTINUOUS
 62
     7
100
AcDbLine
 10
147.185
 20
219.97
 30
0.0
 11
147.185
 21
218.87
 31
0.0
  0
LINE
  5
125A
100
AcDbEntity
  8
10000_FRONT
370
    25
390
0
  6
CONTINUOUS
 62
     7
100
AcDbLine
 10
147.185
 20
220.14
 30
0.0
 11
147.185
 21
219.97
 31
0.0
  0
LINE
  5
125B
100
AcDbEntity
  8
10000_FRONT
370
    25
390
0
  6
CONTINUOUS
 62
     7
100
AcDbLine
 10
147.185
 20
221.2
 30
0.0
 11
147.185
 21
220.14
 31
0.0
  0
LINE
  5
125C
100
AcDbEntity
  8
10000_FRONT
370
    25
390
0
  6
CONTINUOUS
 62
     7
100
AcDbLine
 10
147.185
 20
218.7
 30
0.0
 11
147.185
 21
217.65
 31
0.0
  0
LINE
  5
125D
100
AcDbEntity
  8
10000_FRONT
370
    25
390
0
  6
CONTINUOUS
 62
     7
100
AcDbLine
 10
147.185
 20
218.87
 30
0.0
 11
147.185
 21
218.7
 31
0.0
  0
LINE
  5
125E
100
AcDbEntity
  8
10000_FRONT
370
    25
390
0
  6
CONTINUOUS
 62
     7
100
AcDbLine
 10
147.185
 20
217.65
 30
0.0
 11
146.185
 21
217.65
 31
0.0
  0
LINE
  5
125F
100
AcDbEntity
  8
10000_FRONT
370
    25
390
0
  6
CONTINUOUS
 62
     7
100
AcDbLine
 10
146.185
 20
221.2
 30
0.0
 11
147.185
 21
221.2
 31
0.0
  0
LINE
  5
1260
100
AcDbEntity
  8
10000_FRONT
370
    25
390
0
  6
CONTINUOUS
 62
     7
100
AcDbLine
 10
146.185
 20
220.14
 30
0.0
 11
146.185
 21
221.2
 31
0.0
  0
LINE
  5
1261
100
AcDbEntity
  8
10000_FRONT
370
    25
390
0
  6
CONTINUOUS
 62
     7
100
AcDbLine
 10
146.185
 20
219.97
 30
0.0
 11
146.185
 21
220.14
 31
0.0
  0
LINE
  5
1262
100
AcDbEntity
  8
10000_FRONT
370
    25
390
0
  6
CONTINUOUS
 62
     7
100
AcDbLine
 10
146.185
 20
218.87
 30
0.0
 11
146.185
 21
219.97
 31
0.0
  0
LINE
  5
1263
100
AcDbEntity
  8
10000_FRONT
370
    25
390
0
  6
CONTINUOUS
 62
     7
100
AcDbLine
 10
146.185
 20
218.7
 30
0.0
 11
146.185
 21
218.87
 31
0.0
  0
LINE
  5
1264
100
AcDbEntity
  8
10000_FRONT
370
    25
390
0
  6
CONTINUOUS
 62
     7
100
AcDbLine
 10
146.185
 20
217.65
 30
0.0
 11
146.185
 21
218.7
 31
0.0
  0
LINE
  5
1265
100
AcDbEntity
  8
10000_FRONT
370
    25
390
0
  6
CONTINUOUS
 62
     7
100
AcDbLine
 10
149.068544
 20
218.7
 30
0.0
 11
147.185
 21
218.7
 31
0.0
  0
LINE
  5
1266
100
AcDbEntity
  8
10000_FRONT
370
    25
390
0
  6
CONTINUOUS
 62
     7
100
AcDbLine
 10
146.185
 20
218.7
 30
0.0
 11
144.331456
 21
218.7
 31
0.0
  0
ARC
  5
1267
100
AcDbEntity
  8
10000_FRONT
370
    25
390
0
  6
CONTINUOUS
 62
     7
100
AcDbCircle
 10
146.7
 20
219.5
 30
0.0
 40
2.5
100
AcDbArc
 50
198.662929
 51
341.337071
  0
LINE
  5
1268
100
AcDbEntity
  8
10000_FRONT
370
    25
390
0
  6
CONTINUOUS
 62
     7
100
AcDbLine
 10
143.964356
 20
219.97
 30
0.0
 11
146.185
 21
219.97
 31
0.0
  0
LINE
  5
1269
100
AcDbEntity
  8
10000_FRONT
370
    25
390
0
  6
CONTINUOUS
 62
     7
100
AcDbLine
 10
144.283308
 20
220.14
 30
0.0
 11
146.185
 21
220.14
 31
0.0
  0
LINE
  5
126A
100
AcDbEntity
  8
10000_FRONT
370
    25
390
0
  6
CONTINUOUS
 62
     7
100
AcDbLine
 10
144.070101
 20
220.111255
 30
0.0
 11
144.072809
 21
220.113748
 31
0.0
  0
LINE
  5
126B
100
AcDbEntity
  8
10000_FRONT
370
    25
390
0
  6
CONTINUOUS
 62
     7
100
AcDbLine
 10
144.072809
 20
220.113748
 30
0.0
 11
144.076683
 21
220.11624
 31
0.0
  0
LINE
  5
126C
100
AcDbEntity
  8
10000_FRONT
370
    25
390
0
  6
CONTINUOUS
 62
     7
100
AcDbLine
 10
144.076683
 20
220.11624
 30
0.0
 11
144.081675
 21
220.118646
 31
0.0
  0
LINE
  5
126D
100
AcDbEntity
  8
10000_FRONT
370
    25
390
0
  6
CONTINUOUS
 62
     7
100
AcDbLine
 10
144.081675
 20
220.118646
 30
0.0
 11
144.087646
 21
220.120883
 31
0.0
  0
LINE
  5
126E
100
AcDbEntity
  8
10000_FRONT
370
    25
390
0
  6
CONTINUOUS
 62
     7
100
AcDbLine
 10
144.087646
 20
220.120883
 30
0.0
 11
144.094941
 21
220.123049
 31
0.0
  0
LINE
  5
126F
100
AcDbEntity
  8
10000_FRONT
370
    25
390
0
  6
CONTINUOUS
 62
     7
100
AcDbLine
 10
144.094941
 20
220.123049
 30
0.0
 11
144.103647
 21
220.125204
 31
0.0
  0
LINE
  5
1270
100
AcDbEntity
  8
10000_FRONT
370
    25
390
0
  6
CONTINUOUS
 62
     7
100
AcDbLine
 10
144.103647
 20
220.125204
 30
0.0
 11
144.113444
 21
220.127284
 31
0.0
  0
LINE
  5
1271
100
AcDbEntity
  8
10000_FRONT
370
    25
390
0
  6
CONTINUOUS
 62
     7
100
AcDbLine
 10
144.113444
 20
220.127284
 30
0.0
 11
144.124016
 21
220.129221
 31
0.0
  0
LINE
  5
1272
100
AcDbEntity
  8
10000_FRONT
370
    25
390
0
  6
CONTINUOUS
 62
     7
100
AcDbLine
 10
144.124016
 20
220.129221
 30
0.0
 11
144.13505
 21
220.130951
 31
0.0
  0
LINE
  5
1273
100
AcDbEntity
  8
10000_FRONT
370
    25
390
0
  6
CONTINUOUS
 62
     7
100
AcDbLine
 10
144.13505
 20
220.130951
 30
0.0
 11
144.147107
 21
220.132544
 31
0.0
  0
LINE
  5
1274
100
AcDbEntity
  8
10000_FRONT
370
    25
390
0
  6
CONTINUOUS
 62
     7
100
AcDbLine
 10
144.147107
 20
220.132544
 30
0.0
 11
144.160426
 21
220.134051
 31
0.0
  0
LINE
  5
1275
100
AcDbEntity
  8
10000_FRONT
370
    25
390
0
  6
CONTINUOUS
 62
     7
100
AcDbLine
 10
144.160426
 20
220.134051
 30
0.0
 11
144.174568
 21
220.13543
 31
0.0
  0
LINE
  5
1276
100
AcDbEntity
  8
10000_FRONT
370
    25
390
0
  6
CONTINUOUS
 62
     7
100
AcDbLine
 10
144.174568
 20
220.13543
 30
0.0
 11
144.189091
 21
220.136639
 31
0.0
  0
LINE
  5
1277
100
AcDbEntity
  8
10000_FRONT
370
    25
390
0
  6
CONTINUOUS
 62
     7
100
AcDbLine
 10
144.189091
 20
220.136639
 30
0.0
 11
144.203553
 21
220.137632
 31
0.0
  0
LINE
  5
1278
100
AcDbEntity
  8
10000_FRONT
370
    25
390
0
  6
CONTINUOUS
 62
     7
100
AcDbLine
 10
144.203553
 20
220.137632
 30
0.0
 11
144.218541
 21
220.138437
 31
0.0
  0
LINE
  5
1279
100
AcDbEntity
  8
10000_FRONT
370
    25
390
0
  6
CONTINUOUS
 62
     7
100
AcDbLine
 10
144.218541
 20
220.138437
 30
0.0
 11
144.234529
 21
220.139092
 31
0.0
  0
LINE
  5
127A
100
AcDbEntity
  8
10000_FRONT
370
    25
390
0
  6
CONTINUOUS
 62
     7
100
AcDbLine
 10
144.234529
 20
220.139092
 30
0.0
 11
144.250998
 21
220.139583
 31
0.0
  0
LINE
  5
127B
100
AcDbEntity
  8
10000_FRONT
370
    25
390
0
  6
CONTINUOUS
 62
     7
100
AcDbLine
 10
144.250998
 20
220.139583
 30
0.0
 11
144.267431
 21
220.139891
 31
0.0
  0
LINE
  5
127C
100
AcDbEntity
  8
10000_FRONT
370
    25
390
0
  6
CONTINUOUS
 62
     7
100
AcDbLine
 10
144.267431
 20
220.139891
 30
0.0
 11
144.283308
 21
220.14
 31
0.0
  0
LINE
  5
127D
100
AcDbEntity
  8
10000_FRONT
370
    25
390
0
  6
CONTINUOUS
 62
     7
100
AcDbLine
 10
143.996715
 20
218.87
 30
0.0
 11
146.185
 21
218.87
 31
0.0
  0
LINE
  5
127E
100
AcDbEntity
  8
10000_FRONT
370
    25
390
0
  6
CONTINUOUS
 62
     7
100
AcDbLine
 10
144.331456
 20
218.7
 30
0.0
 11
144.318221
 21
218.700075
 31
0.0
  0
LINE
  5
127F
100
AcDbEntity
  8
10000_FRONT
370
    25
390
0
  6
CONTINUOUS
 62
     7
100
AcDbLine
 10
144.318221
 20
218.700075
 30
0.0
 11
144.304537
 21
218.700285
 31
0.0
  0
LINE
  5
1280
100
AcDbEntity
  8
10000_FRONT
370
    25
390
0
  6
CONTINUOUS
 62
     7
100
AcDbLine
 10
144.304537
 20
218.700285
 30
0.0
 11
144.290694
 21
218.700622
 31
0.0
  0
LINE
  5
1281
100
AcDbEntity
  8
10000_FRONT
370
    25
390
0
  6
CONTINUOUS
 62
     7
100
AcDbLine
 10
144.290694
 20
218.700622
 30
0.0
 11
144.276979
 21
218.701077
 31
0.0
  0
LINE
  5
1282
100
AcDbEntity
  8
10000_FRONT
370
    25
390
0
  6
CONTINUOUS
 62
     7
100
AcDbLine
 10
144.276979
 20
218.701077
 30
0.0
 11
144.263681
 21
218.701639
 31
0.0
  0
LINE
  5
1283
100
AcDbEntity
  8
10000_FRONT
370
    25
390
0
  6
CONTINUOUS
 62
     7
100
AcDbLine
 10
144.263681
 20
218.701639
 30
0.0
 11
144.251089
 21
218.702302
 31
0.0
  0
LINE
  5
1284
100
AcDbEntity
  8
10000_FRONT
370
    25
390
0
  6
CONTINUOUS
 62
     7
100
AcDbLine
 10
144.251089
 20
218.702302
 30
0.0
 11
144.238982
 21
218.703085
 31
0.0
  0
LINE
  5
1285
100
AcDbEntity
  8
10000_FRONT
370
    25
390
0
  6
CONTINUOUS
 62
     7
100
AcDbLine
 10
144.238982
 20
218.703085
 30
0.0
 11
144.226748
 21
218.704021
 31
0.0
  0
LINE
  5
1286
100
AcDbEntity
  8
10000_FRONT
370
    25
390
0
  6
CONTINUOUS
 62
     7
100
AcDbLine
 10
144.226748
 20
218.704021
 30
0.0
 11
144.214622
 21
218.705087
 31
0.0
  0
LINE
  5
1287
100
AcDbEntity
  8
10000_FRONT
370
    25
390
0
  6
CONTINUOUS
 62
     7
100
AcDbLine
 10
144.214622
 20
218.705087
 30
0.0
 11
144.202855
 21
218.706259
 31
0.0
  0
LINE
  5
1288
100
AcDbEntity
  8
10000_FRONT
370
    25
390
0
  6
CONTINUOUS
 62
     7
100
AcDbLine
 10
144.202855
 20
218.706259
 30
0.0
 11
144.191697
 21
218.707513
 31
0.0
  0
LINE
  5
1289
100
AcDbEntity
  8
10000_FRONT
370
    25
390
0
  6
CONTINUOUS
 62
     7
100
AcDbLine
 10
144.191697
 20
218.707513
 30
0.0
 11
144.1814
 21
218.708827
 31
0.0
  0
LINE
  5
128A
100
AcDbEntity
  8
10000_FRONT
370
    25
390
0
  6
CONTINUOUS
 62
     7
100
AcDbLine
 10
144.1814
 20
218.708827
 30
0.0
 11
144.171957
 21
218.710212
 31
0.0
  0
LINE
  5
128B
100
AcDbEntity
  8
10000_FRONT
370
    25
390
0
  6
CONTINUOUS
 62
     7
100
AcDbLine
 10
144.171957
 20
218.710212
 30
0.0
 11
144.162791
 21
218.71175
 31
0.0
  0
LINE
  5
128C
100
AcDbEntity
  8
10000_FRONT
370
    25
390
0
  6
CONTINUOUS
 62
     7
100
AcDbLine
 10
144.162791
 20
218.71175
 30
0.0
 11
144.154032
 21
218.71341
 31
0.0
  0
LINE
  5
128D
100
AcDbEntity
  8
10000_FRONT
370
    25
390
0
  6
CONTINUOUS
 62
     7
100
AcDbLine
 10
144.154032
 20
218.71341
 30
0.0
 11
144.14587
 21
218.715158
 31
0.0
  0
LINE
  5
128E
100
AcDbEntity
  8
10000_FRONT
370
    25
390
0
  6
CONTINUOUS
 62
     7
100
AcDbLine
 10
144.14587
 20
218.715158
 30
0.0
 11
144.138493
 21
218.716951
 31
0.0
  0
LINE
  5
128F
100
AcDbEntity
  8
10000_FRONT
370
    25
390
0
  6
CONTINUOUS
 62
     7
100
AcDbLine
 10
144.138493
 20
218.716951
 30
0.0
 11
144.132088
 21
218.718756
 31
0.0
  0
LINE
  5
1290
100
AcDbEntity
  8
10000_FRONT
370
    25
390
0
  6
CONTINUOUS
 62
     7
100
AcDbLine
 10
144.132088
 20
218.718756
 30
0.0
 11
144.126703
 21
218.720578
 31
0.0
  0
LINE
  5
1291
100
AcDbEntity
  8
10000_FRONT
370
    25
390
0
  6
CONTINUOUS
 62
     7
100
AcDbLine
 10
144.126703
 20
218.720578
 30
0.0
 11
144.121994
 21
218.72253
 31
0.0
  0
LINE
  5
1292
100
AcDbEntity
  8
10000_FRONT
370
    25
390
0
  6
CONTINUOUS
 62
     7
100
AcDbLine
 10
144.121994
 20
218.72253
 30
0.0
 11
144.118013
 21
218.724576
 31
0.0
  0
LINE
  5
1293
100
AcDbEntity
  8
10000_FRONT
370
    25
390
0
  6
CONTINUOUS
 62
     7
100
AcDbLine
 10
144.118013
 20
218.724576
 30
0.0
 11
144.114849
 21
218.726665
 31
0.0
  0
LINE
  5
1294
100
AcDbEntity
  8
10000_FRONT
370
    25
390
0
  6
CONTINUOUS
 62
     7
100
AcDbLine
 10
144.114849
 20
218.726665
 30
0.0
 11
144.112498
 21
218.728745
 31
0.0
  0
LINE
  5
1295
100
AcDbEntity
  8
10000_FRONT
370
    25
390
0
  6
CONTINUOUS
 62
     7
100
AcDbLine
 10
147.185
 20
218.87
 30
0.0
 11
149.403285
 21
218.87
 31
0.0
  0
LINE
  5
1296
100
AcDbEntity
  8
10000_FRONT
370
    25
390
0
  6
CONTINUOUS
 62
     7
100
AcDbLine
 10
149.287502
 20
218.728745
 30
0.0
 11
149.284557
 21
218.726224
 31
0.0
  0
LINE
  5
1297
100
AcDbEntity
  8
10000_FRONT
370
    25
390
0
  6
CONTINUOUS
 62
     7
100
AcDbLine
 10
149.284557
 20
218.726224
 30
0.0
 11
149.280405
 21
218.723706
 31
0.0
  0
LINE
  5
1298
100
AcDbEntity
  8
10000_FRONT
370
    25
390
0
  6
CONTINUOUS
 62
     7
100
AcDbLine
 10
149.280405
 20
218.723706
 30
0.0
 11
149.275111
 21
218.721284
 31
0.0
  0
LINE
  5
1299
100
AcDbEntity
  8
10000_FRONT
370
    25
390
0
  6
CONTINUOUS
 62
     7
100
AcDbLine
 10
149.275111
 20
218.721284
 30
0.0
 11
149.268822
 21
218.719039
 31
0.0
  0
LINE
  5
129A
100
AcDbEntity
  8
10000_FRONT
370
    25
390
0
  6
CONTINUOUS
 62
     7
100
AcDbLine
 10
149.268822
 20
218.719039
 30
0.0
 11
149.261142
 21
218.716856
 31
0.0
  0
LINE
  5
129B
100
AcDbEntity
  8
10000_FRONT
370
    25
390
0
  6
CONTINUOUS
 62
     7
100
AcDbLine
 10
149.261142
 20
218.716856
 30
0.0
 11
149.25205
 21
218.714691
 31
0.0
  0
LINE
  5
129C
100
AcDbEntity
  8
10000_FRONT
370
    25
390
0
  6
CONTINUOUS
 62
     7
100
AcDbLine
 10
149.25205
 20
218.714691
 30
0.0
 11
149.241882
 21
218.712611
 31
0.0
  0
LINE
  5
129D
100
AcDbEntity
  8
10000_FRONT
370
    25
390
0
  6
CONTINUOUS
 62
     7
100
AcDbLine
 10
149.241882
 20
218.712611
 30
0.0
 11
149.23097
 21
218.710682
 31
0.0
  0
LINE
  5
129E
100
AcDbEntity
  8
10000_FRONT
370
    25
390
0
  6
CONTINUOUS
 62
     7
100
AcDbLine
 10
149.23097
 20
218.710682
 30
0.0
 11
149.219624
 21
218.708968
 31
0.0
  0
LINE
  5
129F
100
AcDbEntity
  8
10000_FRONT
370
    25
390
0
  6
CONTINUOUS
 62
     7
100
AcDbLine
 10
149.219624
 20
218.708968
 30
0.0
 11
149.207165
 21
218.707377
 31
0.0
  0
LINE
  5
12A0
100
AcDbEntity
  8
10000_FRONT
370
    25
390
0
  6
CONTINUOUS
 62
     7
100
AcDbLine
 10
149.207165
 20
218.707377
 30
0.0
 11
149.193483
 21
218.705878
 31
0.0
  0
LINE
  5
12A1
100
AcDbEntity
  8
10000_FRONT
370
    25
390
0
  6
CONTINUOUS
 62
     7
100
AcDbLine
 10
149.193483
 20
218.705878
 30
0.0
 11
149.179025
 21
218.704511
 31
0.0
  0
LINE
  5
12A2
100
AcDbEntity
  8
10000_FRONT
370
    25
390
0
  6
CONTINUOUS
 62
     7
100
AcDbLine
 10
149.179025
 20
218.704511
 30
0.0
 11
149.164234
 21
218.703318
 31
0.0
  0
LINE
  5
12A3
100
AcDbEntity
  8
10000_FRONT
370
    25
390
0
  6
CONTINUOUS
 62
     7
100
AcDbLine
 10
149.164234
 20
218.703318
 30
0.0
 11
149.149549
 21
218.70234
 31
0.0
  0
LINE
  5
12A4
100
AcDbEntity
  8
10000_FRONT
370
    25
390
0
  6
CONTINUOUS
 62
     7
100
AcDbLine
 10
149.149549
 20
218.70234
 30
0.0
 11
149.134259
 21
218.701544
 31
0.0
  0
LINE
  5
12A5
100
AcDbEntity
  8
10000_FRONT
370
    25
390
0
  6
CONTINUOUS
 62
     7
100
AcDbLine
 10
149.134259
 20
218.701544
 30
0.0
 11
149.118001
 21
218.700895
 31
0.0
  0
LINE
  5
12A6
100
AcDbEntity
  8
10000_FRONT
370
    25
390
0
  6
CONTINUOUS
 62
     7
100
AcDbLine
 10
149.118001
 20
218.700895
 30
0.0
 11
149.101289
 21
218.700412
 31
0.0
  0
LINE
  5
12A7
100
AcDbEntity
  8
10000_FRONT
370
    25
390
0
  6
CONTINUOUS
 62
     7
100
AcDbLine
 10
149.101289
 20
218.700412
 30
0.0
 11
149.084633
 21
218.700109
 31
0.0
  0
LINE
  5
12A8
100
AcDbEntity
  8
10000_FRONT
370
    25
390
0
  6
CONTINUOUS
 62
     7
100
AcDbLine
 10
149.084633
 20
218.700109
 30
0.0
 11
149.068544
 21
218.7
 31
0.0
  0
LINE
  5
12A9
100
AcDbEntity
  8
10000_FRONT
370
    25
390
0
  6
CONTINUOUS
 62
     7
100
AcDbLine
 10
149.287502
 20
218.728745
 30
0.0
 11
149.403285
 21
218.87
 31
0.0
  0
LINE
  5
12AA
100
AcDbEntity
  8
10000_FRONT
370
    25
390
0
  6
CONTINUOUS
 62
     7
100
AcDbLine
 10
147.185
 20
219.97
 30
0.0
 11
149.435644
 21
219.97
 31
0.0
  0
ARC
  5
12AB
100
AcDbEntity
  8
10000_FRONT
370
    25
390
0
  6
CONTINUOUS
 62
     7
100
AcDbCircle
 10
146.7
 20
219.5
 30
0.0
 40
2.775725
100
AcDbArc
 50
346.881382
 51
9.748589
  0
LINE
  5
12AC
100
AcDbEntity
  8
10000_FRONT
370
    25
390
0
  6
CONTINUOUS
 62
     7
100
AcDbLine
 10
147.185
 20
220.14
 30
0.0
 11
149.116692
 21
220.14
 31
0.0
  0
LINE
  5
12AD
100
AcDbEntity
  8
10000_FRONT
370
    25
390
0
  6
CONTINUOUS
 62
     7
100
AcDbLine
 10
149.435644
 20
219.97
 30
0.0
 11
149.329899
 21
220.111255
 31
0.0
  0
LINE
  5
12AE
100
AcDbEntity
  8
10000_FRONT
370
    25
390
0
  6
CONTINUOUS
 62
     7
100
AcDbLine
 10
149.116692
 20
220.14
 30
0.0
 11
149.132569
 21
220.139891
 31
0.0
  0
LINE
  5
12AF
100
AcDbEntity
  8
10000_FRONT
370
    25
390
0
  6
CONTINUOUS
 62
     7
100
AcDbLine
 10
149.132569
 20
220.139891
 30
0.0
 11
149.149002
 21
220.139583
 31
0.0
  0
LINE
  5
12B0
100
AcDbEntity
  8
10000_FRONT
370
    25
390
0
  6
CONTINUOUS
 62
     7
100
AcDbLine
 10
149.149002
 20
220.139583
 30
0.0
 11
149.165471
 21
220.139092
 31
0.0
  0
LINE
  5
12B1
100
AcDbEntity
  8
10000_FRONT
370
    25
390
0
  6
CONTINUOUS
 62
     7
100
AcDbLine
 10
149.165471
 20
220.139092
 30
0.0
 11
149.181459
 21
220.138437
 31
0.0
  0
LINE
  5
12B2
100
AcDbEntity
  8
10000_FRONT
370
    25
390
0
  6
CONTINUOUS
 62
     7
100
AcDbLine
 10
149.181459
 20
220.138437
 30
0.0
 11
149.196447
 21
220.137632
 31
0.0
  0
LINE
  5
12B3
100
AcDbEntity
  8
10000_FRONT
370
    25
390
0
  6
CONTINUOUS
 62
     7
100
AcDbLine
 10
149.196447
 20
220.137632
 30
0.0
 11
149.210909
 21
220.136639
 31
0.0
  0
LINE
  5
12B4
100
AcDbEntity
  8
10000_FRONT
370
    25
390
0
  6
CONTINUOUS
 62
     7
100
AcDbLine
 10
149.210909
 20
220.136639
 30
0.0
 11
149.225432
 21
220.13543
 31
0.0
  0
LINE
  5
12B5
100
AcDbEntity
  8
10000_FRONT
370
    25
390
0
  6
CONTINUOUS
 62
     7
100
AcDbLine
 10
149.225432
 20
220.13543
 30
0.0
 11
149.239574
 21
220.134051
 31
0.0
  0
LINE
  5
12B6
100
AcDbEntity
  8
10000_FRONT
370
    25
390
0
  6
CONTINUOUS
 62
     7
100
AcDbLine
 10
149.239574
 20
220.134051
 30
0.0
 11
149.252893
 21
220.132544
 31
0.0
  0
LINE
  5
12B7
100
AcDbEntity
  8
10000_FRONT
370
    25
390
0
  6
CONTINUOUS
 62
     7
100
AcDbLine
 10
149.252893
 20
220.132544
 30
0.0
 11
149.26495
 21
220.130951
 31
0.0
  0
LINE
  5
12B8
100
AcDbEntity
  8
10000_FRONT
370
    25
390
0
  6
CONTINUOUS
 62
     7
100
AcDbLine
 10
149.26495
 20
220.130951
 30
0.0
 11
149.275984
 21
220.129221
 31
0.0
  0
LINE
  5
12B9
100
AcDbEntity
  8
10000_FRONT
370
    25
390
0
  6
CONTINUOUS
 62
     7
100
AcDbLine
 10
149.275984
 20
220.129221
 30
0.0
 11
149.286556
 21
220.127284
 31
0.0
  0
LINE
  5
12BA
100
AcDbEntity
  8
10000_FRONT
370
    25
390
0
  6
CONTINUOUS
 62
     7
100
AcDbLine
 10
149.286556
 20
220.127284
 30
0.0
 11
149.296353
 21
220.125204
 31
0.0
  0
LINE
  5
12BB
100
AcDbEntity
  8
10000_FRONT
370
    25
390
0
  6
CONTINUOUS
 62
     7
100
AcDbLine
 10
149.296353
 20
220.125204
 30
0.0
 11
149.305059
 21
220.123049
 31
0.0
  0
LINE
  5
12BC
100
AcDbEntity
  8
10000_FRONT
370
    25
390
0
  6
CONTINUOUS
 62
     7
100
AcDbLine
 10
149.305059
 20
220.123049
 30
0.0
 11
149.312354
 21
220.120883
 31
0.0
  0
LINE
  5
12BD
100
AcDbEntity
  8
10000_FRONT
370
    25
390
0
  6
CONTINUOUS
 62
     7
100
AcDbLine
 10
149.312354
 20
220.120883
 30
0.0
 11
149.318326
 21
220.118646
 31
0.0
  0
LINE
  5
12BE
100
AcDbEntity
  8
10000_FRONT
370
    25
390
0
  6
CONTINUOUS
 62
     7
100
AcDbLine
 10
149.318326
 20
220.118646
 30
0.0
 11
149.323317
 21
220.11624
 31
0.0
  0
LINE
  5
12BF
100
AcDbEntity
  8
10000_FRONT
370
    25
390
0
  6
CONTINUOUS
 62
     7
100
AcDbLine
 10
149.323317
 20
220.11624
 30
0.0
 11
149.327191
 21
220.113748
 31
0.0
  0
LINE
  5
12C0
100
AcDbEntity
  8
10000_FRONT
370
    25
390
0
  6
CONTINUOUS
 62
     7
100
AcDbLine
 10
149.327191
 20
220.113748
 30
0.0
 11
149.329899
 21
220.111255
 31
0.0
  0
ARC
  5
12C1
100
AcDbEntity
  8
10000_FRONT
370
    25
390
0
  6
CONTINUOUS
 62
     7
100
AcDbCircle
 10
146.7
 20
219.5
 30
0.0
 40
2.5
100
AcDbArc
 50
14.832856
 51
165.167145
  0
ARC
  5
12C2
100
AcDbEntity
  8
10000_FRONT
370
    25
390
0
  6
CONTINUOUS
 62
     7
100
AcDbCircle
 10
146.7
 20
219.5
 30
0.0
 40
2.7
100
AcDbArc
 50
13.084665
 51
90.000004
  0
ARC
  5
12C3
100
AcDbEntity
  8
10000_FRONT
370
    25
390
0
  6
CONTINUOUS
 62
     7
100
AcDbCircle
 10
146.7
 20
219.5
 30
0.0
 40
2.7
100
AcDbArc
 50
269.999996
 51
343.402304
  0
LINE
  5
12C4
100
AcDbEntity
  8
10000_FRONT
370
    25
390
0
  6
CONTINUOUS
 62
     7
100
AcDbLine
 10
147.185
 20
203.969999
 30
0.0
 11
147.185
 21
202.870001
 31
0.0
  0
LINE
  5
12C5
100
AcDbEntity
  8
10000_FRONT
370
    25
390
0
  6
CONTINUOUS
 62
     7
100
AcDbLine
 10
147.185
 20
204.139999
 30
0.0
 11
147.185
 21
203.969999
 31
0.0
  0
LINE
  5
12C6
100
AcDbEntity
  8
10000_FRONT
370
    25
390
0
  6
CONTINUOUS
 62
     7
100
AcDbLine
 10
147.185
 20
205.200001
 30
0.0
 11
147.185
 21
204.139999
 31
0.0
  0
LINE
  5
12C7
100
AcDbEntity
  8
10000_FRONT
370
    25
390
0
  6
CONTINUOUS
 62
     7
100
AcDbLine
 10
147.185
 20
202.700001
 30
0.0
 11
147.185
 21
201.65
 31
0.0
  0
LINE
  5
12C8
100
AcDbEntity
  8
10000_FRONT
370
    25
390
0
  6
CONTINUOUS
 62
     7
100
AcDbLine
 10
147.185
 20
202.870001
 30
0.0
 11
147.185
 21
202.700001
 31
0.0
  0
LINE
  5
12C9
100
AcDbEntity
  8
10000_FRONT
370
    25
390
0
  6
CONTINUOUS
 62
     7
100
AcDbLine
 10
147.185
 20
201.65
 30
0.0
 11
146.185
 21
201.65
 31
0.0
  0
LINE
  5
12CA
100
AcDbEntity
  8
10000_FRONT
370
    25
390
0
  6
CONTINUOUS
 62
     7
100
AcDbLine
 10
146.185
 20
205.200001
 30
0.0
 11
147.185
 21
205.200001
 31
0.0
  0
LINE
  5
12CB
100
AcDbEntity
  8
10000_FRONT
370
    25
390
0
  6
CONTINUOUS
 62
     7
100
AcDbLine
 10
146.185
 20
204.139999
 30
0.0
 11
146.185
 21
205.200001
 31
0.0
  0
LINE
  5
12CC
100
AcDbEntity
  8
10000_FRONT
370
    25
390
0
  6
CONTINUOUS
 62
     7
100
AcDbLine
 10
146.185
 20
203.969999
 30
0.0
 11
146.185
 21
204.139999
 31
0.0
  0
LINE
  5
12CD
100
AcDbEntity
  8
10000_FRONT
370
    25
390
0
  6
CONTINUOUS
 62
     7
100
AcDbLine
 10
146.185
 20
202.870001
 30
0.0
 11
146.185
 21
203.969999
 31
0.0
  0
LINE
  5
12CE
100
AcDbEntity
  8
10000_FRONT
370
    25
390
0
  6
CONTINUOUS
 62
     7
100
AcDbLine
 10
146.185
 20
202.700001
 30
0.0
 11
146.185
 21
202.870001
 31
0.0
  0
LINE
  5
12CF
100
AcDbEntity
  8
10000_FRONT
370
    25
390
0
  6
CONTINUOUS
 62
     7
100
AcDbLine
 10
146.185
 20
201.65
 30
0.0
 11
146.185
 21
202.700001
 31
0.0
  0
LINE
  5
12D0
100
AcDbEntity
  8
10000_FRONT
370
    25
390
0
  6
CONTINUOUS
 62
     7
100
AcDbLine
 10
149.068544
 20
202.700001
 30
0.0
 11
147.185
 21
202.700001
 31
0.0
  0
LINE
  5
12D1
100
AcDbEntity
  8
10000_FRONT
370
    25
390
0
  6
CONTINUOUS
 62
     7
100
AcDbLine
 10
146.185
 20
202.700001
 30
0.0
 11
144.331456
 21
202.700001
 31
0.0
  0
ARC
  5
12D2
100
AcDbEntity
  8
10000_FRONT
370
    25
390
0
  6
CONTINUOUS
 62
     7
100
AcDbCircle
 10
146.7
 20
203.5
 30
0.0
 40
2.5
100
AcDbArc
 50
198.662909
 51
341.337092
  0
LINE
  5
12D3
100
AcDbEntity
  8
10000_FRONT
370
    25
390
0
  6
CONTINUOUS
 62
     7
100
AcDbLine
 10
143.964356
 20
203.969999
 30
0.0
 11
146.185
 21
203.969999
 31
0.0
  0
LINE
  5
12D4
100
AcDbEntity
  8
10000_FRONT
370
    25
390
0
  6
CONTINUOUS
 62
     7
100
AcDbLine
 10
144.283308
 20
204.139999
 30
0.0
 11
146.185
 21
204.139999
 31
0.0
  0
LINE
  5
12D5
100
AcDbEntity
  8
10000_FRONT
370
    25
390
0
  6
CONTINUOUS
 62
     7
100
AcDbLine
 10
144.070101
 20
204.111254
 30
0.0
 11
144.072809
 21
204.113747
 31
0.0
  0
LINE
  5
12D6
100
AcDbEntity
  8
10000_FRONT
370
    25
390
0
  6
CONTINUOUS
 62
     7
100
AcDbLine
 10
144.072809
 20
204.113747
 30
0.0
 11
144.076683
 21
204.11624
 31
0.0
  0
LINE
  5
12D7
100
AcDbEntity
  8
10000_FRONT
370
    25
390
0
  6
CONTINUOUS
 62
     7
100
AcDbLine
 10
144.076683
 20
204.11624
 30
0.0
 11
144.081675
 21
204.118647
 31
0.0
  0
LINE
  5
12D8
100
AcDbEntity
  8
10000_FRONT
370
    25
390
0
  6
CONTINUOUS
 62
     7
100
AcDbLine
 10
144.081675
 20
204.118647
 30
0.0
 11
144.087646
 21
204.120882
 31
0.0
  0
LINE
  5
12D9
100
AcDbEntity
  8
10000_FRONT
370
    25
390
0
  6
CONTINUOUS
 62
     7
100
AcDbLine
 10
144.087646
 20
204.120882
 30
0.0
 11
144.094941
 21
204.123049
 31
0.0
  0
LINE
  5
12DA
100
AcDbEntity
  8
10000_FRONT
370
    25
390
0
  6
CONTINUOUS
 62
     7
100
AcDbLine
 10
144.094941
 20
204.123049
 30
0.0
 11
144.103647
 21
204.125204
 31
0.0
  0
LINE
  5
12DB
100
AcDbEntity
  8
10000_FRONT
370
    25
390
0
  6
CONTINUOUS
 62
     7
100
AcDbLine
 10
144.103647
 20
204.125204
 30
0.0
 11
144.113444
 21
204.127283
 31
0.0
  0
LINE
  5
12DC
100
AcDbEntity
  8
10000_FRONT
370
    25
390
0
  6
CONTINUOUS
 62
     7
100
AcDbLine
 10
144.113444
 20
204.127283
 30
0.0
 11
144.124016
 21
204.129221
 31
0.0
  0
LINE
  5
12DD
100
AcDbEntity
  8
10000_FRONT
370
    25
390
0
  6
CONTINUOUS
 62
     7
100
AcDbLine
 10
144.124016
 20
204.129221
 30
0.0
 11
144.13505
 21
204.130951
 31
0.0
  0
LINE
  5
12DE
100
AcDbEntity
  8
10000_FRONT
370
    25
390
0
  6
CONTINUOUS
 62
     7
100
AcDbLine
 10
144.13505
 20
204.130951
 30
0.0
 11
144.147107
 21
204.132544
 31
0.0
  0
LINE
  5
12DF
100
AcDbEntity
  8
10000_FRONT
370
    25
390
0
  6
CONTINUOUS
 62
     7
100
AcDbLine
 10
144.147107
 20
204.132544
 30
0.0
 11
144.160426
 21
204.13405
 31
0.0
  0
LINE
  5
12E0
100
AcDbEntity
  8
10000_FRONT
370
    25
390
0
  6
CONTINUOUS
 62
     7
100
AcDbLine
 10
144.160426
 20
204.13405
 30
0.0
 11
144.174568
 21
204.135431
 31
0.0
  0
LINE
  5
12E1
100
AcDbEntity
  8
10000_FRONT
370
    25
390
0
  6
CONTINUOUS
 62
     7
100
AcDbLine
 10
144.174568
 20
204.135431
 30
0.0
 11
144.189091
 21
204.136639
 31
0.0
  0
LINE
  5
12E2
100
AcDbEntity
  8
10000_FRONT
370
    25
390
0
  6
CONTINUOUS
 62
     7
100
AcDbLine
 10
144.189091
 20
204.136639
 30
0.0
 11
144.203553
 21
204.137632
 31
0.0
  0
LINE
  5
12E3
100
AcDbEntity
  8
10000_FRONT
370
    25
390
0
  6
CONTINUOUS
 62
     7
100
AcDbLine
 10
144.203553
 20
204.137632
 30
0.0
 11
144.218541
 21
204.138437
 31
0.0
  0
LINE
  5
12E4
100
AcDbEntity
  8
10000_FRONT
370
    25
390
0
  6
CONTINUOUS
 62
     7
100
AcDbLine
 10
144.218541
 20
204.138437
 30
0.0
 11
144.234529
 21
204.139093
 31
0.0
  0
LINE
  5
12E5
100
AcDbEntity
  8
10000_FRONT
370
    25
390
0
  6
CONTINUOUS
 62
     7
100
AcDbLine
 10
144.234529
 20
204.139093
 30
0.0
 11
144.250998
 21
204.139582
 31
0.0
  0
LINE
  5
12E6
100
AcDbEntity
  8
10000_FRONT
370
    25
390
0
  6
CONTINUOUS
 62
     7
100
AcDbLine
 10
144.250998
 20
204.139582
 30
0.0
 11
144.267431
 21
204.139891
 31
0.0
  0
LINE
  5
12E7
100
AcDbEntity
  8
10000_FRONT
370
    25
390
0
  6
CONTINUOUS
 62
     7
100
AcDbLine
 10
144.267431
 20
204.139891
 30
0.0
 11
144.283308
 21
204.139999
 31
0.0
  0
LINE
  5
12E8
100
AcDbEntity
  8
10000_FRONT
370
    25
390
0
  6
CONTINUOUS
 62
     7
100
AcDbLine
 10
143.996715
 20
202.870001
 30
0.0
 11
146.185
 21
202.870001
 31
0.0
  0
LINE
  5
12E9
100
AcDbEntity
  8
10000_FRONT
370
    25
390
0
  6
CONTINUOUS
 62
     7
100
AcDbLine
 10
144.331456
 20
202.700001
 30
0.0
 11
144.318221
 21
202.700075
 31
0.0
  0
LINE
  5
12EA
100
AcDbEntity
  8
10000_FRONT
370
    25
390
0
  6
CONTINUOUS
 62
     7
100
AcDbLine
 10
144.318221
 20
202.700075
 30
0.0
 11
144.304537
 21
202.700285
 31
0.0
  0
LINE
  5
12EB
100
AcDbEntity
  8
10000_FRONT
370
    25
390
0
  6
CONTINUOUS
 62
     7
100
AcDbLine
 10
144.304537
 20
202.700285
 30
0.0
 11
144.290694
 21
202.700623
 31
0.0
  0
LINE
  5
12EC
100
AcDbEntity
  8
10000_FRONT
370
    25
390
0
  6
CONTINUOUS
 62
     7
100
AcDbLine
 10
144.290694
 20
202.700623
 30
0.0
 11
144.276979
 21
202.701077
 31
0.0
  0
LINE
  5
12ED
100
AcDbEntity
  8
10000_FRONT
370
    25
390
0
  6
CONTINUOUS
 62
     7
100
AcDbLine
 10
144.276979
 20
202.701077
 30
0.0
 11
144.263681
 21
202.701639
 31
0.0
  0
LINE
  5
12EE
100
AcDbEntity
  8
10000_FRONT
370
    25
390
0
  6
CONTINUOUS
 62
     7
100
AcDbLine
 10
144.263681
 20
202.701639
 30
0.0
 11
144.251089
 21
202.702303
 31
0.0
  0
LINE
  5
12EF
100
AcDbEntity
  8
10000_FRONT
370
    25
390
0
  6
CONTINUOUS
 62
     7
100
AcDbLine
 10
144.251089
 20
202.702303
 30
0.0
 11
144.238982
 21
202.703085
 31
0.0
  0
LINE
  5
12F0
100
AcDbEntity
  8
10000_FRONT
370
    25
390
0
  6
CONTINUOUS
 62
     7
100
AcDbLine
 10
144.238982
 20
202.703085
 30
0.0
 11
144.226748
 21
202.704021
 31
0.0
  0
LINE
  5
12F1
100
AcDbEntity
  8
10000_FRONT
370
    25
390
0
  6
CONTINUOUS
 62
     7
100
AcDbLine
 10
144.226748
 20
202.704021
 30
0.0
 11
144.214622
 21
202.705086
 31
0.0
  0
LINE
  5
12F2
100
AcDbEntity
  8
10000_FRONT
370
    25
390
0
  6
CONTINUOUS
 62
     7
100
AcDbLine
 10
144.214622
 20
202.705086
 30
0.0
 11
144.202855
 21
202.706259
 31
0.0
  0
LINE
  5
12F3
100
AcDbEntity
  8
10000_FRONT
370
    25
390
0
  6
CONTINUOUS
 62
     7
100
AcDbLine
 10
144.202855
 20
202.706259
 30
0.0
 11
144.191697
 21
202.707514
 31
0.0
  0
LINE
  5
12F4
100
AcDbEntity
  8
10000_FRONT
370
    25
390
0
  6
CONTINUOUS
 62
     7
100
AcDbLine
 10
144.191697
 20
202.707514
 30
0.0
 11
144.1814
 21
202.708828
 31
0.0
  0
LINE
  5
12F5
100
AcDbEntity
  8
10000_FRONT
370
    25
390
0
  6
CONTINUOUS
 62
     7
100
AcDbLine
 10
144.1814
 20
202.708828
 30
0.0
 11
144.171957
 21
202.710213
 31
0.0
  0
LINE
  5
12F6
100
AcDbEntity
  8
10000_FRONT
370
    25
390
0
  6
CONTINUOUS
 62
     7
100
AcDbLine
 10
144.171957
 20
202.710213
 30
0.0
 11
144.162791
 21
202.71175
 31
0.0
  0
LINE
  5
12F7
100
AcDbEntity
  8
10000_FRONT
370
    25
390
0
  6
CONTINUOUS
 62
     7
100
AcDbLine
 10
144.162791
 20
202.71175
 30
0.0
 11
144.154032
 21
202.713411
 31
0.0
  0
LINE
  5
12F8
100
AcDbEntity
  8
10000_FRONT
370
    25
390
0
  6
CONTINUOUS
 62
     7
100
AcDbLine
 10
144.154032
 20
202.713411
 30
0.0
 11
144.14587
 21
202.715157
 31
0.0
  0
LINE
  5
12F9
100
AcDbEntity
  8
10000_FRONT
370
    25
390
0
  6
CONTINUOUS
 62
     7
100
AcDbLine
 10
144.14587
 20
202.715157
 30
0.0
 11
144.138493
 21
202.716951
 31
0.0
  0
LINE
  5
12FA
100
AcDbEntity
  8
10000_FRONT
370
    25
390
0
  6
CONTINUOUS
 62
     7
100
AcDbLine
 10
144.138493
 20
202.716951
 30
0.0
 11
144.132088
 21
202.718756
 31
0.0
  0
LINE
  5
12FB
100
AcDbEntity
  8
10000_FRONT
370
    25
390
0
  6
CONTINUOUS
 62
     7
100
AcDbLine
 10
144.132088
 20
202.718756
 30
0.0
 11
144.126703
 21
202.720579
 31
0.0
  0
LINE
  5
12FC
100
AcDbEntity
  8
10000_FRONT
370
    25
390
0
  6
CONTINUOUS
 62
     7
100
AcDbLine
 10
144.126703
 20
202.720579
 30
0.0
 11
144.121994
 21
202.72253
 31
0.0
  0
LINE
  5
12FD
100
AcDbEntity
  8
10000_FRONT
370
    25
390
0
  6
CONTINUOUS
 62
     7
100
AcDbLine
 10
144.121994
 20
202.72253
 30
0.0
 11
144.118013
 21
202.724575
 31
0.0
  0
LINE
  5
12FE
100
AcDbEntity
  8
10000_FRONT
370
    25
390
0
  6
CONTINUOUS
 62
     7
100
AcDbLine
 10
144.118013
 20
202.724575
 30
0.0
 11
144.114849
 21
202.726665
 31
0.0
  0
LINE
  5
12FF
100
AcDbEntity
  8
10000_FRONT
370
    25
390
0
  6
CONTINUOUS
 62
     7
100
AcDbLine
 10
144.114849
 20
202.726665
 30
0.0
 11
144.112498
 21
202.728745
 31
0.0
  0
LINE
  5
1300
100
AcDbEntity
  8
10000_FRONT
370
    25
390
0
  6
CONTINUOUS
 62
     7
100
AcDbLine
 10
147.185
 20
202.870001
 30
0.0
 11
149.403285
 21
202.870001
 31
0.0
  0
LINE
  5
1301
100
AcDbEntity
  8
10000_FRONT
370
    25
390
0
  6
CONTINUOUS
 62
     7
100
AcDbLine
 10
149.287502
 20
202.728745
 30
0.0
 11
149.284557
 21
202.726223
 31
0.0
  0
LINE
  5
1302
100
AcDbEntity
  8
10000_FRONT
370
    25
390
0
  6
CONTINUOUS
 62
     7
100
AcDbLine
 10
149.284557
 20
202.726223
 30
0.0
 11
149.280405
 21
202.723707
 31
0.0
  0
LINE
  5
1303
100
AcDbEntity
  8
10000_FRONT
370
    25
390
0
  6
CONTINUOUS
 62
     7
100
AcDbLine
 10
149.280405
 20
202.723707
 30
0.0
 11
149.275111
 21
202.721283
 31
0.0
  0
LINE
  5
1304
100
AcDbEntity
  8
10000_FRONT
370
    25
390
0
  6
CONTINUOUS
 62
     7
100
AcDbLine
 10
149.275111
 20
202.721283
 30
0.0
 11
149.268822
 21
202.71904
 31
0.0
  0
LINE
  5
1305
100
AcDbEntity
  8
10000_FRONT
370
    25
390
0
  6
CONTINUOUS
 62
     7
100
AcDbLine
 10
149.268822
 20
202.71904
 30
0.0
 11
149.261142
 21
202.716856
 31
0.0
  0
LINE
  5
1306
100
AcDbEntity
  8
10000_FRONT
370
    25
390
0
  6
CONTINUOUS
 62
     7
100
AcDbLine
 10
149.261142
 20
202.716856
 30
0.0
 11
149.25205
 21
202.714691
 31
0.0
  0
LINE
  5
1307
100
AcDbEntity
  8
10000_FRONT
370
    25
390
0
  6
CONTINUOUS
 62
     7
100
AcDbLine
 10
149.25205
 20
202.714691
 30
0.0
 11
149.241882
 21
202.71261
 31
0.0
  0
LINE
  5
1308
100
AcDbEntity
  8
10000_FRONT
370
    25
390
0
  6
CONTINUOUS
 62
     7
100
AcDbLine
 10
149.241882
 20
202.71261
 30
0.0
 11
149.23097
 21
202.710682
 31
0.0
  0
LINE
  5
1309
100
AcDbEntity
  8
10000_FRONT
370
    25
390
0
  6
CONTINUOUS
 62
     7
100
AcDbLine
 10
149.23097
 20
202.710682
 30
0.0
 11
149.219624
 21
202.708967
 31
0.0
  0
LINE
  5
130A
100
AcDbEntity
  8
10000_FRONT
370
    25
390
0
  6
CONTINUOUS
 62
     7
100
AcDbLine
 10
149.219624
 20
202.708967
 30
0.0
 11
149.207165
 21
202.707378
 31
0.0
  0
LINE
  5
130B
100
AcDbEntity
  8
10000_FRONT
370
    25
390
0
  6
CONTINUOUS
 62
     7
100
AcDbLine
 10
149.207165
 20
202.707378
 30
0.0
 11
149.193483
 21
202.705877
 31
0.0
  0
LINE
  5
130C
100
AcDbEntity
  8
10000_FRONT
370
    25
390
0
  6
CONTINUOUS
 62
     7
100
AcDbLine
 10
149.193483
 20
202.705877
 30
0.0
 11
149.179025
 21
202.70451
 31
0.0
  0
LINE
  5
130D
100
AcDbEntity
  8
10000_FRONT
370
    25
390
0
  6
CONTINUOUS
 62
     7
100
AcDbLine
 10
149.179025
 20
202.70451
 30
0.0
 11
149.164234
 21
202.703318
 31
0.0
  0
LINE
  5
130E
100
AcDbEntity
  8
10000_FRONT
370
    25
390
0
  6
CONTINUOUS
 62
     7
100
AcDbLine
 10
149.164234
 20
202.703318
 30
0.0
 11
149.149549
 21
202.702339
 31
0.0
  0
LINE
  5
130F
100
AcDbEntity
  8
10000_FRONT
370
    25
390
0
  6
CONTINUOUS
 62
     7
100
AcDbLine
 10
149.149549
 20
202.702339
 30
0.0
 11
149.134259
 21
202.701544
 31
0.0
  0
LINE
  5
1310
100
AcDbEntity
  8
10000_FRONT
370
    25
390
0
  6
CONTINUOUS
 62
     7
100
AcDbLine
 10
149.134259
 20
202.701544
 30
0.0
 11
149.118001
 21
202.700895
 31
0.0
  0
LINE
  5
1311
100
AcDbEntity
  8
10000_FRONT
370
    25
390
0
  6
CONTINUOUS
 62
     7
100
AcDbLine
 10
149.118001
 20
202.700895
 30
0.0
 11
149.101289
 21
202.700413
 31
0.0
  0
LINE
  5
1312
100
AcDbEntity
  8
10000_FRONT
370
    25
390
0
  6
CONTINUOUS
 62
     7
100
AcDbLine
 10
149.101289
 20
202.700413
 30
0.0
 11
149.084633
 21
202.700108
 31
0.0
  0
LINE
  5
1313
100
AcDbEntity
  8
10000_FRONT
370
    25
390
0
  6
CONTINUOUS
 62
     7
100
AcDbLine
 10
149.084633
 20
202.700108
 30
0.0
 11
149.068544
 21
202.700001
 31
0.0
  0
LINE
  5
1314
100
AcDbEntity
  8
10000_FRONT
370
    25
390
0
  6
CONTINUOUS
 62
     7
100
AcDbLine
 10
149.287502
 20
202.728745
 30
0.0
 11
149.403285
 21
202.87
 31
0.0
  0
LINE
  5
1315
100
AcDbEntity
  8
10000_FRONT
370
    25
390
0
  6
CONTINUOUS
 62
     7
100
AcDbLine
 10
147.185
 20
203.969999
 30
0.0
 11
149.435644
 21
203.969999
 31
0.0
  0
ARC
  5
1316
100
AcDbEntity
  8
10000_FRONT
370
    25
390
0
  6
CONTINUOUS
 62
     7
100
AcDbCircle
 10
146.7
 20
203.5
 30
0.0
 40
2.775725
100
AcDbArc
 50
346.881402
 51
9.748569
  0
LINE
  5
1317
100
AcDbEntity
  8
10000_FRONT
370
    25
390
0
  6
CONTINUOUS
 62
     7
100
AcDbLine
 10
147.185
 20
204.139999
 30
0.0
 11
149.116692
 21
204.139999
 31
0.0
  0
LINE
  5
1318
100
AcDbEntity
  8
10000_FRONT
370
    25
390
0
  6
CONTINUOUS
 62
     7
100
AcDbLine
 10
149.435644
 20
203.97
 30
0.0
 11
149.329899
 21
204.111254
 31
0.0
  0
LINE
  5
1319
100
AcDbEntity
  8
10000_FRONT
370
    25
390
0
  6
CONTINUOUS
 62
     7
100
AcDbLine
 10
149.116692
 20
204.139999
 30
0.0
 11
149.132569
 21
204.139891
 31
0.0
  0
LINE
  5
131A
100
AcDbEntity
  8
10000_FRONT
370
    25
390
0
  6
CONTINUOUS
 62
     7
100
AcDbLine
 10
149.132569
 20
204.139891
 30
0.0
 11
149.149002
 21
204.139582
 31
0.0
  0
LINE
  5
131B
100
AcDbEntity
  8
10000_FRONT
370
    25
390
0
  6
CONTINUOUS
 62
     7
100
AcDbLine
 10
149.149002
 20
204.139582
 30
0.0
 11
149.165471
 21
204.139093
 31
0.0
  0
LINE
  5
131C
100
AcDbEntity
  8
10000_FRONT
370
    25
390
0
  6
CONTINUOUS
 62
     7
100
AcDbLine
 10
149.165471
 20
204.139093
 30
0.0
 11
149.181459
 21
204.138437
 31
0.0
  0
LINE
  5
131D
100
AcDbEntity
  8
10000_FRONT
370
    25
390
0
  6
CONTINUOUS
 62
     7
100
AcDbLine
 10
149.181459
 20
204.138437
 30
0.0
 11
149.196447
 21
204.137632
 31
0.0
  0
LINE
  5
131E
100
AcDbEntity
  8
10000_FRONT
370
    25
390
0
  6
CONTINUOUS
 62
     7
100
AcDbLine
 10
149.196447
 20
204.137632
 30
0.0
 11
149.210909
 21
204.136639
 31
0.0
  0
LINE
  5
131F
100
AcDbEntity
  8
10000_FRONT
370
    25
390
0
  6
CONTINUOUS
 62
     7
100
AcDbLine
 10
149.210909
 20
204.136639
 30
0.0
 11
149.225432
 21
204.135431
 31
0.0
  0
LINE
  5
1320
100
AcDbEntity
  8
10000_FRONT
370
    25
390
0
  6
CONTINUOUS
 62
     7
100
AcDbLine
 10
149.225432
 20
204.135431
 30
0.0
 11
149.239574
 21
204.13405
 31
0.0
  0
LINE
  5
1321
100
AcDbEntity
  8
10000_FRONT
370
    25
390
0
  6
CONTINUOUS
 62
     7
100
AcDbLine
 10
149.239574
 20
204.13405
 30
0.0
 11
149.252893
 21
204.132544
 31
0.0
  0
LINE
  5
1322
100
AcDbEntity
  8
10000_FRONT
370
    25
390
0
  6
CONTINUOUS
 62
     7
100
AcDbLine
 10
149.252893
 20
204.132544
 30
0.0
 11
149.26495
 21
204.130951
 31
0.0
  0
LINE
  5
1323
100
AcDbEntity
  8
10000_FRONT
370
    25
390
0
  6
CONTINUOUS
 62
     7
100
AcDbLine
 10
149.26495
 20
204.130951
 30
0.0
 11
149.275984
 21
204.129221
 31
0.0
  0
LINE
  5
1324
100
AcDbEntity
  8
10000_FRONT
370
    25
390
0
  6
CONTINUOUS
 62
     7
100
AcDbLine
 10
149.275984
 20
204.129221
 30
0.0
 11
149.286556
 21
204.127283
 31
0.0
  0
LINE
  5
1325
100
AcDbEntity
  8
10000_FRONT
370
    25
390
0
  6
CONTINUOUS
 62
     7
100
AcDbLine
 10
149.286556
 20
204.127283
 30
0.0
 11
149.296353
 21
204.125204
 31
0.0
  0
LINE
  5
1326
100
AcDbEntity
  8
10000_FRONT
370
    25
390
0
  6
CONTINUOUS
 62
     7
100
AcDbLine
 10
149.296353
 20
204.125204
 30
0.0
 11
149.305059
 21
204.123049
 31
0.0
  0
LINE
  5
1327
100
AcDbEntity
  8
10000_FRONT
370
    25
390
0
  6
CONTINUOUS
 62
     7
100
AcDbLine
 10
149.305059
 20
204.123049
 30
0.0
 11
149.312354
 21
204.120882
 31
0.0
  0
LINE
  5
1328
100
AcDbEntity
  8
10000_FRONT
370
    25
390
0
  6
CONTINUOUS
 62
     7
100
AcDbLine
 10
149.312354
 20
204.120882
 30
0.0
 11
149.318326
 21
204.118647
 31
0.0
  0
LINE
  5
1329
100
AcDbEntity
  8
10000_FRONT
370
    25
390
0
  6
CONTINUOUS
 62
     7
100
AcDbLine
 10
149.318326
 20
204.118647
 30
0.0
 11
149.323317
 21
204.11624
 31
0.0
  0
LINE
  5
132A
100
AcDbEntity
  8
10000_FRONT
370
    25
390
0
  6
CONTINUOUS
 62
     7
100
AcDbLine
 10
149.323317
 20
204.11624
 30
0.0
 11
149.327191
 21
204.113747
 31
0.0
  0
LINE
  5
132B
100
AcDbEntity
  8
10000_FRONT
370
    25
390
0
  6
CONTINUOUS
 62
     7
100
AcDbLine
 10
149.327191
 20
204.113747
 30
0.0
 11
149.329899
 21
204.111254
 31
0.0
  0
ARC
  5
132C
100
AcDbEntity
  8
10000_FRONT
370
    25
390
0
  6
CONTINUOUS
 62
     7
100
AcDbCircle
 10
146.7
 20
203.5
 30
0.0
 40
2.5
100
AcDbArc
 50
14.832834
 51
165.167166
  0
ARC
  5
132D
100
AcDbEntity
  8
10000_FRONT
370
    25
390
0
  6
CONTINUOUS
 62
     7
100
AcDbCircle
 10
146.7
 20
203.5
 30
0.0
 40
2.7
100
AcDbArc
 50
13.084646
 51
90.000004
  0
ARC
  5
132E
100
AcDbEntity
  8
10000_FRONT
370
    25
390
0
  6
CONTINUOUS
 62
     7
100
AcDbCircle
 10
146.7
 20
203.5
 30
0.0
 40
2.7
100
AcDbArc
 50
269.999996
 51
343.402284
  0
LINE
  5
132F
100
AcDbEntity
  8
10000_FRONT
370
    25
390
0
  6
CONTINUOUS
 62
     7
100
AcDbLine
 10
151.492
 20
215.0
 30
0.0
 11
151.492
 21
215.06
 31
0.0
  0
LINE
  5
1330
100
AcDbEntity
  8
10000_FRONT
370
    25
390
0
  6
CONTINUOUS
 62
     7
100
AcDbLine
 10
149.908
 20
215.0
 30
0.0
 11
149.908
 21
215.06
 31
0.0
  0
LINE
  5
1331
100
AcDbEntity
  8
10000_FRONT
370
    25
390
0
  6
CONTINUOUS
 62
     7
100
AcDbLine
 10
140.492
 20
215.0
 30
0.0
 11
140.492
 21
215.06
 31
0.0
  0
LINE
  5
1332
100
AcDbEntity
  8
10000_FRONT
370
    25
390
0
  6
CONTINUOUS
 62
     7
100
AcDbLine
 10
138.908
 20
215.0
 30
0.0
 11
138.908
 21
215.06
 31
0.0
  0
LINE
  5
1333
100
AcDbEntity
  8
10000_FRONT
370
    25
390
0
  6
CONTINUOUS
 62
     7
100
AcDbLine
 10
149.908
 20
207.959999
 30
0.0
 11
149.908
 21
208.0
 31
0.0
  0
LINE
  5
1334
100
AcDbEntity
  8
10000_FRONT
370
    25
390
0
  6
CONTINUOUS
 62
     7
100
AcDbLine
 10
151.492
 20
207.959999
 30
0.0
 11
151.492
 21
208.0
 31
0.0
  0
LINE
  5
1335
100
AcDbEntity
  8
10000_FRONT
370
    25
390
0
  6
CONTINUOUS
 62
     7
100
AcDbLine
 10
138.908
 20
207.959999
 30
0.0
 11
138.908
 21
208.0
 31
0.0
  0
LINE
  5
1336
100
AcDbEntity
  8
10000_FRONT
370
    25
390
0
  6
CONTINUOUS
 62
     7
100
AcDbLine
 10
140.492
 20
207.959999
 30
0.0
 11
140.492
 21
208.0
 31
0.0
  0
LINE
  5
1337
100
AcDbEntity
  8
10000_FRONT
370
    25
390
0
  6
CONTINUOUS
 62
     7
100
AcDbLine
 10
135.2
 20
208.0
 30
0.0
 11
135.2
 21
215.0
 31
0.0
  0
LINE
  5
1338
100
AcDbEntity
  8
10000_FRONT
370
    25
390
0
  6
CONTINUOUS
 62
     7
100
AcDbLine
 10
135.2
 20
215.0
 30
0.0
 11
155.2
 21
215.0
 31
0.0
  0
LINE
  5
1339
100
AcDbEntity
  8
10000_FRONT
370
    25
390
0
  6
CONTINUOUS
 62
     7
100
AcDbLine
 10
155.2
 20
215.0
 30
0.0
 11
155.2
 21
208.0
 31
0.0
  0
LINE
  5
133A
100
AcDbEntity
  8
10000_FRONT
370
    25
390
0
  6
CONTINUOUS
 62
     7
100
AcDbLine
 10
155.2
 20
208.0
 30
0.0
 11
135.2
 21
208.0
 31
0.0
  0
LINE
  5
133B
100
AcDbEntity
  8
10000_FRONT
370
    25
390
0
  6
CONTINUOUS
 62
     7
100
AcDbLine
 10
155.36
 20
207.959999
 30
0.0
 11
155.36
 21
213.959999
 31
0.0
  0
LINE
  5
133C
100
AcDbEntity
  8
10000_FRONT
370
    25
390
0
  6
CONTINUOUS
 62
     7
100
AcDbLine
 10
151.4
 20
196.400002
 30
0.0
 11
159.196667
 21
196.400002
 31
0.0
  0
LINE
  5
133D
100
AcDbEntity
  8
10000_FRONT
370
    25
390
0
  6
CONTINUOUS
 62
     7
100
AcDbLine
 10
151.4
 20
196.500008
 30
0.0
 11
151.4
 21
196.400002
 31
0.0
  0
LINE
  5
133E
100
AcDbEntity
  8
10000_FRONT
370
    25
390
0
  6
CONTINUOUS
 62
     7
100
AcDbLine
 10
160.0
 20
196.400002
 30
0.0
 11
167.790001
 21
196.400002
 31
0.0
  0
LINE
  5
133F
100
AcDbEntity
  8
10000_FRONT
370
    25
390
0
  6
CONTINUOUS
 62
     7
100
AcDbLine
 10
160.0
 20
196.500008
 30
0.0
 11
160.0
 21
196.400002
 31
0.0
  0
LINE
  5
1340
100
AcDbEntity
  8
10000_FRONT
370
    25
390
0
  6
CONTINUOUS
 62
     7
100
AcDbLine
 10
151.4
 20
226.6
 30
0.0
 11
159.196667
 21
226.6
 31
0.0
  0
LINE
  5
1341
100
AcDbEntity
  8
10000_FRONT
370
    25
390
0
  6
CONTINUOUS
 62
     7
100
AcDbLine
 10
151.4
 20
226.6
 30
0.0
 11
151.4
 21
226.51001
 31
0.0
  0
LINE
  5
1342
100
AcDbEntity
  8
10000_FRONT
370
    25
390
0
  6
CONTINUOUS
 62
     7
100
AcDbLine
 10
134.209999
 20
226.6
 30
0.0
 11
142.0
 21
226.6
 31
0.0
  0
LINE
  5
1343
100
AcDbEntity
  8
10000_FRONT
370
    25
390
0
  6
CONTINUOUS
 62
     7
100
AcDbLine
 10
142.0
 20
226.6
 30
0.0
 11
142.0
 21
226.51001
 31
0.0
  0
LINE
  5
1344
100
AcDbEntity
  8
10000_FRONT
370
    25
390
0
  6
CONTINUOUS
 62
     7
100
AcDbLine
 10
154.15
 20
228.101985
 30
0.0
 11
151.396693
 21
228.101985
 31
0.0
  0
LINE
  5
1345
100
AcDbEntity
  8
10000_FRONT
370
    25
390
0
  6
CONTINUOUS
 62
     7
100
AcDbLine
 10
154.15
 20
227.901985
 30
0.0
 11
151.396693
 21
227.901985
 31
0.0
  0
LINE
  5
1346
100
AcDbEntity
  8
10000_FRONT
370
    25
390
0
  6
CONTINUOUS
 62
     7
100
AcDbLine
 10
154.15
 20
227.901985
 30
0.0
 11
154.15
 21
228.101985
 31
0.0
  0
LINE
  5
1347
100
AcDbEntity
  8
10000_FRONT
370
    25
390
0
  6
CONTINUOUS
 62
     7
100
AcDbLine
 10
154.15
 20
226.600018
 30
0.0
 11
154.15
 21
227.901985
 31
0.0
  0
LINE
  5
1348
100
AcDbEntity
  8
10000_FRONT
370
    25
390
0
  6
CONTINUOUS
 62
     7
100
AcDbLine
 10
159.990021
 20
196.400002
 30
0.0
 11
160.0
 21
196.400002
 31
0.0
  0
LINE
  5
1349
100
AcDbEntity
  8
10000_FRONT
370
    25
390
0
  6
CONTINUOUS
 62
     7
100
AcDbLine
 10
160.0
 20
226.6
 30
0.0
 11
160.0
 21
226.51001
 31
0.0
  0
LINE
  5
134A
100
AcDbEntity
  8
10000_FRONT
370
    25
390
0
  6
CONTINUOUS
 62
     7
100
AcDbLine
 10
160.0
 20
226.6
 30
0.0
 11
167.790001
 21
226.6
 31
0.0
  0
LINE
  5
134B
100
AcDbEntity
  8
10000_FRONT
370
    25
390
0
  6
CONTINUOUS
 62
     7
100
AcDbLine
 10
159.990021
 20
226.6
 30
0.0
 11
160.0
 21
226.6
 31
0.0
  0
LINE
  5
134C
100
AcDbEntity
  8
10000_FRONT
370
    25
390
0
  6
CONTINUOUS
 62
     7
100
AcDbLine
 10
142.0
 20
226.6
 30
0.0
 11
142.01002
 21
226.6
 31
0.0
  0
LINE
  5
134D
100
AcDbEntity
  8
10000_FRONT
370
    25
390
0
  6
CONTINUOUS
 62
     7
100
AcDbLine
 10
150.6
 20
226.6
 30
0.0
 11
150.603354
 21
226.6
 31
0.0
  0
LINE
  5
134E
100
AcDbEntity
  8
10000_FRONT
370
    25
390
0
  6
CONTINUOUS
 62
     7
100
AcDbLine
 10
151.396687
 20
226.6
 30
0.0
 11
151.4
 21
226.6
 31
0.0
  0
LINE
  5
134F
100
AcDbEntity
  8
10000_FRONT
370
    25
390
0
  6
CONTINUOUS
 62
     7
100
AcDbLine
 10
150.6
 20
196.500008
 30
0.0
 11
150.6
 21
196.400002
 31
0.0
  0
LINE
  5
1350
100
AcDbEntity
  8
10000_FRONT
370
    25
390
0
  6
CONTINUOUS
 62
     7
100
AcDbLine
 10
142.803333
 20
196.400002
 30
0.0
 11
150.6
 21
196.400002
 31
0.0
  0
LINE
  5
1351
100
AcDbEntity
  8
10000_FRONT
370
    25
390
0
  6
CONTINUOUS
 62
     7
100
AcDbLine
 10
150.6
 20
196.400002
 30
0.0
 11
150.603354
 21
196.400002
 31
0.0
  0
LINE
  5
1352
100
AcDbEntity
  8
10000_FRONT
370
    25
390
0
  6
CONTINUOUS
 62
     7
100
AcDbLine
 10
151.396687
 20
196.400002
 30
0.0
 11
151.4
 21
196.400002
 31
0.0
  0
LINE
  5
1353
100
AcDbEntity
  8
10000_FRONT
370
    25
390
0
  6
CONTINUOUS
 62
     7
100
AcDbLine
 10
142.0
 20
196.400002
 30
0.0
 11
142.01002
 21
196.400002
 31
0.0
  0
LINE
  5
1354
100
AcDbEntity
  8
10000_FRONT
370
    25
390
0
  6
CONTINUOUS
 62
     7
100
AcDbLine
 10
150.6
 20
226.6
 30
0.0
 11
150.6
 21
226.51001
 31
0.0
  0
LINE
  5
1355
100
AcDbEntity
  8
10000_FRONT
370
    25
390
0
  6
CONTINUOUS
 62
     7
100
AcDbLine
 10
142.803333
 20
226.6
 30
0.0
 11
150.6
 21
226.6
 31
0.0
  0
LINE
  5
1356
100
AcDbEntity
  8
10000_FRONT
370
    25
390
0
  6
CONTINUOUS
 62
     7
100
AcDbLine
 10
134.209999
 20
196.400002
 30
0.0
 11
142.0
 21
196.400002
 31
0.0
  0
LINE
  5
1357
100
AcDbEntity
  8
10000_FRONT
370
    25
390
0
  6
CONTINUOUS
 62
     7
100
AcDbLine
 10
142.0
 20
196.500008
 30
0.0
 11
142.0
 21
196.400002
 31
0.0
  0
LINE
  5
1358
100
AcDbEntity
  8
10000_FRONT
370
    25
390
0
  6
CONTINUOUS
 62
     7
100
AcDbLine
 10
142.803333
 20
194.25
 30
0.0
 11
142.803333
 21
196.5
 31
0.0
  0
LINE
  5
1359
100
AcDbEntity
  8
10000_FRONT
370
    25
390
0
  6
CONTINUOUS
 62
     7
100
AcDbLine
 10
142.803333
 20
192.75
 30
0.0
 11
142.803333
 21
194.25
 31
0.0
  0
LINE
  5
135A
100
AcDbEntity
  8
10000_FRONT
370
    25
390
0
  6
CONTINUOUS
 62
     7
100
AcDbLine
 10
159.99
 20
226.51
 30
0.0
 11
159.99
 21
228.75
 31
0.0
  0
LINE
  5
135B
100
AcDbEntity
  8
10000_FRONT
370
    25
390
0
  6
CONTINUOUS
 62
     7
100
AcDbLine
 10
159.196667
 20
228.75
 30
0.0
 11
159.99
 21
228.75
 31
0.0
  0
LINE
  5
135C
100
AcDbEntity
  8
10000_FRONT
370
    25
390
0
  6
CONTINUOUS
 62
     7
100
AcDbLine
 10
168.99
 20
225.651067
 30
0.0
 11
168.99
 21
228.75
 31
0.0
  0
LINE
  5
135D
100
AcDbEntity
  8
10000_FRONT
370
    25
390
0
  6
CONTINUOUS
 62
     7
100
AcDbLine
 10
167.790001
 20
228.75
 30
0.0
 11
168.99
 21
228.75
 31
0.0
  0
LINE
  5
135E
100
AcDbEntity
  8
10000_FRONT
370
    25
390
0
  6
CONTINUOUS
 62
     7
100
AcDbLine
 10
168.99
 20
194.25
 30
0.0
 11
168.99
 21
197.368931
 31
0.0
  0
LINE
  5
135F
100
AcDbEntity
  8
10000_FRONT
370
    25
390
0
  6
CONTINUOUS
 62
     7
100
AcDbLine
 10
133.01
 20
197.368931
 30
0.0
 11
133.01
 21
194.25
 31
0.0
  0
LINE
  5
1360
100
AcDbEntity
  8
10000_FRONT
370
    25
390
0
  6
CONTINUOUS
 62
     7
100
AcDbLine
 10
133.01
 20
194.25
 30
0.0
 11
134.209999
 21
194.25
 31
0.0
  0
LINE
  5
1361
100
AcDbEntity
  8
10000_FRONT
370
    25
390
0
  6
CONTINUOUS
 62
     7
100
AcDbLine
 10
134.209999
 20
196.5
 30
0.0
 11
142.01
 21
196.5
 31
0.0
  0
LINE
  5
1362
100
AcDbEntity
  8
10000_FRONT
370
    25
390
0
  6
CONTINUOUS
 62
     7
100
AcDbLine
 10
142.01
 20
196.5
 30
0.0
 11
142.01
 21
194.25
 31
0.0
  0
LINE
  5
1363
100
AcDbEntity
  8
10000_FRONT
370
    25
390
0
  6
CONTINUOUS
 62
     7
100
AcDbLine
 10
142.01
 20
194.25
 30
0.0
 11
142.803333
 21
194.25
 31
0.0
  0
LINE
  5
1364
100
AcDbEntity
  8
10000_FRONT
370
    25
390
0
  6
CONTINUOUS
 62
     7
100
AcDbLine
 10
142.803333
 20
196.5
 30
0.0
 11
150.603333
 21
196.5
 31
0.0
  0
LINE
  5
1365
100
AcDbEntity
  8
10000_FRONT
370
    25
390
0
  6
CONTINUOUS
 62
     7
100
AcDbLine
 10
150.603333
 20
196.5
 30
0.0
 11
150.603333
 21
194.25
 31
0.0
  0
LINE
  5
1366
100
AcDbEntity
  8
10000_FRONT
370
    25
390
0
  6
CONTINUOUS
 62
     7
100
AcDbLine
 10
150.603333
 20
194.25
 30
0.0
 11
151.396667
 21
194.25
 31
0.0
  0
LINE
  5
1367
100
AcDbEntity
  8
10000_FRONT
370
    25
390
0
  6
CONTINUOUS
 62
     7
100
AcDbLine
 10
151.396667
 20
194.25
 30
0.0
 11
151.396667
 21
196.5
 31
0.0
  0
LINE
  5
1368
100
AcDbEntity
  8
10000_FRONT
370
    25
390
0
  6
CONTINUOUS
 62
     7
100
AcDbLine
 10
151.396667
 20
196.5
 30
0.0
 11
159.196667
 21
196.5
 31
0.0
  0
LINE
  5
1369
100
AcDbEntity
  8
10000_FRONT
370
    25
390
0
  6
CONTINUOUS
 62
     7
100
AcDbLine
 10
159.196667
 20
194.25
 30
0.0
 11
159.99
 21
194.25
 31
0.0
  0
LINE
  5
136A
100
AcDbEntity
  8
10000_FRONT
370
    25
390
0
  6
CONTINUOUS
 62
     7
100
AcDbLine
 10
159.99
 20
194.25
 30
0.0
 11
159.99
 21
196.5
 31
0.0
  0
LINE
  5
136B
100
AcDbEntity
  8
10000_FRONT
370
    25
390
0
  6
CONTINUOUS
 62
     7
100
AcDbLine
 10
159.99
 20
196.5
 30
0.0
 11
167.790001
 21
196.5
 31
0.0
  0
LINE
  5
136C
100
AcDbEntity
  8
10000_FRONT
370
    25
390
0
  6
CONTINUOUS
 62
     7
100
AcDbLine
 10
167.790001
 20
194.25
 30
0.0
 11
168.99
 21
194.25
 31
0.0
  0
LINE
  5
136D
100
AcDbEntity
  8
10000_FRONT
370
    25
390
0
  6
CONTINUOUS
 62
     7
100
AcDbLine
 10
133.01
 20
228.75
 30
0.0
 11
134.209999
 21
228.75
 31
0.0
  0
LINE
  5
136E
100
AcDbEntity
  8
10000_FRONT
370
    25
390
0
  6
CONTINUOUS
 62
     7
100
AcDbLine
 10
133.01
 20
228.75
 30
0.0
 11
133.01
 21
225.651067
 31
0.0
  0
LINE
  5
136F
100
AcDbEntity
  8
10000_FRONT
370
    25
390
0
  6
CONTINUOUS
 62
     7
100
AcDbLine
 10
142.01
 20
228.75
 30
0.0
 11
142.01
 21
226.51
 31
0.0
  0
LINE
  5
1370
100
AcDbEntity
  8
10000_FRONT
370
    25
390
0
  6
CONTINUOUS
 62
     7
100
AcDbLine
 10
142.01
 20
228.75
 30
0.0
 11
142.803333
 21
228.75
 31
0.0
  0
LINE
  5
1371
100
AcDbEntity
  8
10000_FRONT
370
    25
390
0
  6
CONTINUOUS
 62
     7
100
AcDbLine
 10
150.603333
 20
228.75
 30
0.0
 11
150.603333
 21
226.51
 31
0.0
  0
LINE
  5
1372
100
AcDbEntity
  8
10000_FRONT
370
    25
390
0
  6
CONTINUOUS
 62
     7
100
AcDbLine
 10
151.396667
 20
226.51
 30
0.0
 11
151.396667
 21
228.75
 31
0.0
  0
LINE
  5
1373
100
AcDbEntity
  8
10000_FRONT
370
    25
390
0
  6
CONTINUOUS
 62
     7
100
AcDbLine
 10
150.603333
 20
228.75
 30
0.0
 11
151.396667
 21
228.75
 31
0.0
  0
LINE
  5
1374
100
AcDbEntity
  8
10000_FRONT
370
    25
390
0
  6
CONTINUOUS
 62
     7
100
AcDbLine
 10
134.209999
 20
192.75
 30
0.0
 11
133.809999
 21
192.75
 31
0.0
  0
LINE
  5
1375
100
AcDbEntity
  8
10000_FRONT
370
    25
390
0
  6
CONTINUOUS
 62
     7
100
AcDbLine
 10
168.99
 20
228.75
 30
0.0
 11
168.99
 21
229.45
 31
0.0
  0
LINE
  5
1376
100
AcDbEntity
  8
10000_FRONT
370
    25
390
0
  6
CONTINUOUS
 62
     7
100
AcDbLine
 10
168.99
 20
193.549999
 30
0.0
 11
168.99
 21
194.25
 31
0.0
  0
LINE
  5
1377
100
AcDbEntity
  8
10000_FRONT
370
    25
390
0
  6
CONTINUOUS
 62
     7
100
AcDbLine
 10
168.190001
 20
230.25
 30
0.0
 11
168.235519
 21
230.248661
 31
0.0
  0
LINE
  5
1378
100
AcDbEntity
  8
10000_FRONT
370
    25
390
0
  6
CONTINUOUS
 62
     7
100
AcDbLine
 10
168.235519
 20
230.248661
 30
0.0
 11
168.281815
 21
230.24459
 31
0.0
  0
LINE
  5
1379
100
AcDbEntity
  8
10000_FRONT
370
    25
390
0
  6
CONTINUOUS
 62
     7
100
AcDbLine
 10
168.281815
 20
230.24459
 30
0.0
 11
168.328712
 21
230.237705
 31
0.0
  0
LINE
  5
137A
100
AcDbEntity
  8
10000_FRONT
370
    25
390
0
  6
CONTINUOUS
 62
     7
100
AcDbLine
 10
168.328712
 20
230.237705
 30
0.0
 11
168.375919
 21
230.227923
 31
0.0
  0
LINE
  5
137B
100
AcDbEntity
  8
10000_FRONT
370
    25
390
0
  6
CONTINUOUS
 62
     7
100
AcDbLine
 10
168.375919
 20
230.227923
 30
0.0
 11
168.423141
 21
230.21516
 31
0.0
  0
LINE
  5
137C
100
AcDbEntity
  8
10000_FRONT
370
    25
390
0
  6
CONTINUOUS
 62
     7
100
AcDbLine
 10
168.423141
 20
230.21516
 30
0.0
 11
168.470085
 21
230.199332
 31
0.0
  0
LINE
  5
137D
100
AcDbEntity
  8
10000_FRONT
370
    25
390
0
  6
CONTINUOUS
 62
     7
100
AcDbLine
 10
168.470085
 20
230.199332
 30
0.0
 11
168.51646
 21
230.180357
 31
0.0
  0
LINE
  5
137E
100
AcDbEntity
  8
10000_FRONT
370
    25
390
0
  6
CONTINUOUS
 62
     7
100
AcDbLine
 10
168.51646
 20
230.180357
 30
0.0
 11
168.561968
 21
230.158198
 31
0.0
  0
LINE
  5
137F
100
AcDbEntity
  8
10000_FRONT
370
    25
390
0
  6
CONTINUOUS
 62
     7
100
AcDbLine
 10
168.561968
 20
230.158198
 30
0.0
 11
168.606339
 21
230.13296
 31
0.0
  0
LINE
  5
1380
100
AcDbEntity
  8
10000_FRONT
370
    25
390
0
  6
CONTINUOUS
 62
     7
100
AcDbLine
 10
168.606339
 20
230.13296
 30
0.0
 11
168.649307
 21
230.104778
 31
0.0
  0
LINE
  5
1381
100
AcDbEntity
  8
10000_FRONT
370
    25
390
0
  6
CONTINUOUS
 62
     7
100
AcDbLine
 10
168.649307
 20
230.104778
 30
0.0
 11
168.690615
 21
230.073784
 31
0.0
  0
LINE
  5
1382
100
AcDbEntity
  8
10000_FRONT
370
    25
390
0
  6
CONTINUOUS
 62
     7
100
AcDbLine
 10
168.690615
 20
230.073784
 30
0.0
 11
168.73
 21
230.040113
 31
0.0
  0
LINE
  5
1383
100
AcDbEntity
  8
10000_FRONT
370
    25
390
0
  6
CONTINUOUS
 62
     7
100
AcDbLine
 10
168.73
 20
230.040113
 30
0.0
 11
168.767199
 21
230.003898
 31
0.0
  0
LINE
  5
1384
100
AcDbEntity
  8
10000_FRONT
370
    25
390
0
  6
CONTINUOUS
 62
     7
100
AcDbLine
 10
168.767199
 20
230.003898
 30
0.0
 11
168.802048
 21
229.965155
 31
0.0
  0
LINE
  5
1385
100
AcDbEntity
  8
10000_FRONT
370
    25
390
0
  6
CONTINUOUS
 62
     7
100
AcDbLine
 10
168.802048
 20
229.965155
 30
0.0
 11
168.835583
 21
229.92234
 31
0.0
  0
LINE
  5
1386
100
AcDbEntity
  8
10000_FRONT
370
    25
390
0
  6
CONTINUOUS
 62
     7
100
AcDbLine
 10
168.835583
 20
229.92234
 30
0.0
 11
168.867561
 21
229.875126
 31
0.0
  0
LINE
  5
1387
100
AcDbEntity
  8
10000_FRONT
370
    25
390
0
  6
CONTINUOUS
 62
     7
100
AcDbLine
 10
168.867561
 20
229.875126
 30
0.0
 11
168.897234
 21
229.823768
 31
0.0
  0
LINE
  5
1388
100
AcDbEntity
  8
10000_FRONT
370
    25
390
0
  6
CONTINUOUS
 62
     7
100
AcDbLine
 10
168.897234
 20
229.823768
 30
0.0
 11
168.923849
 21
229.768517
 31
0.0
  0
LINE
  5
1389
100
AcDbEntity
  8
10000_FRONT
370
    25
390
0
  6
CONTINUOUS
 62
     7
100
AcDbLine
 10
168.923849
 20
229.768517
 30
0.0
 11
168.946651
 21
229.709638
 31
0.0
  0
LINE
  5
138A
100
AcDbEntity
  8
10000_FRONT
370
    25
390
0
  6
CONTINUOUS
 62
     7
100
AcDbLine
 10
168.946651
 20
229.709638
 30
0.0
 11
168.96505
 21
229.64763
 31
0.0
  0
LINE
  5
138B
100
AcDbEntity
  8
10000_FRONT
370
    25
390
0
  6
CONTINUOUS
 62
     7
100
AcDbLine
 10
168.96505
 20
229.64763
 30
0.0
 11
168.978659
 21
229.583207
 31
0.0
  0
LINE
  5
138C
100
AcDbEntity
  8
10000_FRONT
370
    25
390
0
  6
CONTINUOUS
 62
     7
100
AcDbLine
 10
168.978659
 20
229.583207
 30
0.0
 11
168.987103
 21
229.517091
 31
0.0
  0
LINE
  5
138D
100
AcDbEntity
  8
10000_FRONT
370
    25
390
0
  6
CONTINUOUS
 62
     7
100
AcDbLine
 10
168.987103
 20
229.517091
 30
0.0
 11
168.99
 21
229.45
 31
0.0
  0
LINE
  5
138E
100
AcDbEntity
  8
10000_FRONT
370
    25
390
0
  6
CONTINUOUS
 62
     7
100
AcDbLine
 10
167.790001
 20
230.25
 30
0.0
 11
168.190001
 21
230.25
 31
0.0
  0
LINE
  5
138F
100
AcDbEntity
  8
10000_FRONT
370
    25
390
0
  6
CONTINUOUS
 62
     7
100
AcDbLine
 10
159.196667
 20
230.25
 30
0.0
 11
159.99
 21
230.25
 31
0.0
  0
LINE
  5
1390
100
AcDbEntity
  8
10000_FRONT
370
    25
390
0
  6
CONTINUOUS
 62
     7
100
AcDbLine
 10
159.99
 20
228.75
 30
0.0
 11
159.99
 21
230.25
 31
0.0
  0
LINE
  5
1391
100
AcDbEntity
  8
10000_FRONT
370
    25
390
0
  6
CONTINUOUS
 62
     7
100
AcDbLine
 10
150.603333
 20
230.25
 30
0.0
 11
151.396667
 21
230.25
 31
0.0
  0
LINE
  5
1392
100
AcDbEntity
  8
10000_FRONT
370
    25
390
0
  6
CONTINUOUS
 62
     7
100
AcDbLine
 10
150.603333
 20
228.75
 30
0.0
 11
150.603333
 21
230.25
 31
0.0
  0
LINE
  5
1393
100
AcDbEntity
  8
10000_FRONT
370
    25
390
0
  6
CONTINUOUS
 62
     7
100
AcDbLine
 10
151.396667
 20
228.75
 30
0.0
 11
151.396667
 21
230.25
 31
0.0
  0
LINE
  5
1394
100
AcDbEntity
  8
10000_FRONT
370
    25
390
0
  6
CONTINUOUS
 62
     7
100
AcDbLine
 10
142.01
 20
230.25
 30
0.0
 11
142.803333
 21
230.25
 31
0.0
  0
LINE
  5
1395
100
AcDbEntity
  8
10000_FRONT
370
    25
390
0
  6
CONTINUOUS
 62
     7
100
AcDbLine
 10
142.01
 20
228.75
 30
0.0
 11
142.01
 21
230.25
 31
0.0
  0
LINE
  5
1396
100
AcDbEntity
  8
10000_FRONT
370
    25
390
0
  6
CONTINUOUS
 62
     7
100
AcDbLine
 10
168.190001
 20
192.75
 30
0.0
 11
167.790001
 21
192.75
 31
0.0
  0
LINE
  5
1397
100
AcDbEntity
  8
10000_FRONT
370
    25
390
0
  6
CONTINUOUS
 62
     7
100
AcDbLine
 10
168.99
 20
193.549999
 30
0.0
 11
168.987103
 21
193.48291
 31
0.0
  0
LINE
  5
1398
100
AcDbEntity
  8
10000_FRONT
370
    25
390
0
  6
CONTINUOUS
 62
     7
100
AcDbLine
 10
168.987103
 20
193.48291
 30
0.0
 11
168.978659
 21
193.416794
 31
0.0
  0
LINE
  5
1399
100
AcDbEntity
  8
10000_FRONT
370
    25
390
0
  6
CONTINUOUS
 62
     7
100
AcDbLine
 10
168.978659
 20
193.416794
 30
0.0
 11
168.96505
 21
193.352371
 31
0.0
  0
LINE
  5
139A
100
AcDbEntity
  8
10000_FRONT
370
    25
390
0
  6
CONTINUOUS
 62
     7
100
AcDbLine
 10
168.96505
 20
193.352371
 30
0.0
 11
168.946651
 21
193.290363
 31
0.0
  0
LINE
  5
139B
100
AcDbEntity
  8
10000_FRONT
370
    25
390
0
  6
CONTINUOUS
 62
     7
100
AcDbLine
 10
168.946651
 20
193.290363
 30
0.0
 11
168.923849
 21
193.231483
 31
0.0
  0
LINE
  5
139C
100
AcDbEntity
  8
10000_FRONT
370
    25
390
0
  6
CONTINUOUS
 62
     7
100
AcDbLine
 10
168.923849
 20
193.231483
 30
0.0
 11
168.897234
 21
193.176231
 31
0.0
  0
LINE
  5
139D
100
AcDbEntity
  8
10000_FRONT
370
    25
390
0
  6
CONTINUOUS
 62
     7
100
AcDbLine
 10
168.897234
 20
193.176231
 30
0.0
 11
168.867561
 21
193.124874
 31
0.0
  0
LINE
  5
139E
100
AcDbEntity
  8
10000_FRONT
370
    25
390
0
  6
CONTINUOUS
 62
     7
100
AcDbLine
 10
168.867561
 20
193.124874
 30
0.0
 11
168.835583
 21
193.07766
 31
0.0
  0
LINE
  5
139F
100
AcDbEntity
  8
10000_FRONT
370
    25
390
0
  6
CONTINUOUS
 62
     7
100
AcDbLine
 10
168.835583
 20
193.07766
 30
0.0
 11
168.802048
 21
193.034843
 31
0.0
  0
LINE
  5
13A0
100
AcDbEntity
  8
10000_FRONT
370
    25
390
0
  6
CONTINUOUS
 62
     7
100
AcDbLine
 10
168.802048
 20
193.034843
 30
0.0
 11
168.767199
 21
192.996101
 31
0.0
  0
LINE
  5
13A1
100
AcDbEntity
  8
10000_FRONT
370
    25
390
0
  6
CONTINUOUS
 62
     7
100
AcDbLine
 10
168.767199
 20
192.996101
 30
0.0
 11
168.73
 21
192.959888
 31
0.0
  0
LINE
  5
13A2
100
AcDbEntity
  8
10000_FRONT
370
    25
390
0
  6
CONTINUOUS
 62
     7
100
AcDbLine
 10
168.73
 20
192.959888
 30
0.0
 11
168.690615
 21
192.926216
 31
0.0
  0
LINE
  5
13A3
100
AcDbEntity
  8
10000_FRONT
370
    25
390
0
  6
CONTINUOUS
 62
     7
100
AcDbLine
 10
168.690615
 20
192.926216
 30
0.0
 11
168.649307
 21
192.895222
 31
0.0
  0
LINE
  5
13A4
100
AcDbEntity
  8
10000_FRONT
370
    25
390
0
  6
CONTINUOUS
 62
     7
100
AcDbLine
 10
168.649307
 20
192.895222
 30
0.0
 11
168.606339
 21
192.867039
 31
0.0
  0
LINE
  5
13A5
100
AcDbEntity
  8
10000_FRONT
370
    25
390
0
  6
CONTINUOUS
 62
     7
100
AcDbLine
 10
168.606339
 20
192.867039
 30
0.0
 11
168.561968
 21
192.841801
 31
0.0
  0
LINE
  5
13A6
100
AcDbEntity
  8
10000_FRONT
370
    25
390
0
  6
CONTINUOUS
 62
     7
100
AcDbLine
 10
168.561968
 20
192.841801
 30
0.0
 11
168.51646
 21
192.819641
 31
0.0
  0
LINE
  5
13A7
100
AcDbEntity
  8
10000_FRONT
370
    25
390
0
  6
CONTINUOUS
 62
     7
100
AcDbLine
 10
168.51646
 20
192.819641
 30
0.0
 11
168.470085
 21
192.800667
 31
0.0
  0
LINE
  5
13A8
100
AcDbEntity
  8
10000_FRONT
370
    25
390
0
  6
CONTINUOUS
 62
     7
100
AcDbLine
 10
168.470085
 20
192.800667
 30
0.0
 11
168.423141
 21
192.78484
 31
0.0
  0
LINE
  5
13A9
100
AcDbEntity
  8
10000_FRONT
370
    25
390
0
  6
CONTINUOUS
 62
     7
100
AcDbLine
 10
168.423141
 20
192.78484
 30
0.0
 11
168.375919
 21
192.772076
 31
0.0
  0
LINE
  5
13AA
100
AcDbEntity
  8
10000_FRONT
370
    25
390
0
  6
CONTINUOUS
 62
     7
100
AcDbLine
 10
168.375919
 20
192.772076
 30
0.0
 11
168.328712
 21
192.762295
 31
0.0
  0
LINE
  5
13AB
100
AcDbEntity
  8
10000_FRONT
370
    25
390
0
  6
CONTINUOUS
 62
     7
100
AcDbLine
 10
168.328712
 20
192.762295
 30
0.0
 11
168.281815
 21
192.755409
 31
0.0
  0
LINE
  5
13AC
100
AcDbEntity
  8
10000_FRONT
370
    25
390
0
  6
CONTINUOUS
 62
     7
100
AcDbLine
 10
168.281815
 20
192.755409
 30
0.0
 11
168.235519
 21
192.751339
 31
0.0
  0
LINE
  5
13AD
100
AcDbEntity
  8
10000_FRONT
370
    25
390
0
  6
CONTINUOUS
 62
     7
100
AcDbLine
 10
168.235519
 20
192.751339
 30
0.0
 11
168.190001
 21
192.75
 31
0.0
  0
LINE
  5
13AE
100
AcDbEntity
  8
10000_FRONT
370
    25
390
0
  6
CONTINUOUS
 62
     7
100
AcDbLine
 10
159.99
 20
192.75
 30
0.0
 11
159.196667
 21
192.75
 31
0.0
  0
LINE
  5
13AF
100
AcDbEntity
  8
10000_FRONT
370
    25
390
0
  6
CONTINUOUS
 62
     7
100
AcDbLine
 10
159.99
 20
192.75
 30
0.0
 11
159.99
 21
194.25
 31
0.0
  0
LINE
  5
13B0
100
AcDbEntity
  8
10000_FRONT
370
    25
390
0
  6
CONTINUOUS
 62
     7
100
AcDbLine
 10
150.603333
 20
192.75
 30
0.0
 11
150.603333
 21
194.25
 31
0.0
  0
LINE
  5
13B1
100
AcDbEntity
  8
10000_FRONT
370
    25
390
0
  6
CONTINUOUS
 62
     7
100
AcDbLine
 10
151.396667
 20
192.75
 30
0.0
 11
150.603333
 21
192.75
 31
0.0
  0
LINE
  5
13B2
100
AcDbEntity
  8
10000_FRONT
370
    25
390
0
  6
CONTINUOUS
 62
     7
100
AcDbLine
 10
151.396667
 20
192.75
 30
0.0
 11
151.396667
 21
194.25
 31
0.0
  0
LINE
  5
13B3
100
AcDbEntity
  8
10000_FRONT
370
    25
390
0
  6
CONTINUOUS
 62
     7
100
AcDbLine
 10
142.01
 20
192.75
 30
0.0
 11
142.01
 21
194.25
 31
0.0
  0
LINE
  5
13B4
100
AcDbEntity
  8
10000_FRONT
370
    25
390
0
  6
CONTINUOUS
 62
     7
100
AcDbLine
 10
142.803333
 20
192.75
 30
0.0
 11
142.01
 21
192.75
 31
0.0
  0
LINE
  5
13B5
100
AcDbEntity
  8
10000_FRONT
370
    25
390
0
  6
CONTINUOUS
 62
     7
100
AcDbLine
 10
133.01
 20
193.549999
 30
0.0
 11
133.01
 21
194.25
 31
0.0
  0
LINE
  5
13B6
100
AcDbEntity
  8
10000_FRONT
370
    25
390
0
  6
CONTINUOUS
 62
     7
100
AcDbLine
 10
133.809999
 20
192.75
 30
0.0
 11
133.764481
 21
192.751339
 31
0.0
  0
LINE
  5
13B7
100
AcDbEntity
  8
10000_FRONT
370
    25
390
0
  6
CONTINUOUS
 62
     7
100
AcDbLine
 10
133.764481
 20
192.751339
 30
0.0
 11
133.718185
 21
192.755409
 31
0.0
  0
LINE
  5
13B8
100
AcDbEntity
  8
10000_FRONT
370
    25
390
0
  6
CONTINUOUS
 62
     7
100
AcDbLine
 10
133.718185
 20
192.755409
 30
0.0
 11
133.671288
 21
192.762295
 31
0.0
  0
LINE
  5
13B9
100
AcDbEntity
  8
10000_FRONT
370
    25
390
0
  6
CONTINUOUS
 62
     7
100
AcDbLine
 10
133.671288
 20
192.762295
 30
0.0
 11
133.624081
 21
192.772076
 31
0.0
  0
LINE
  5
13BA
100
AcDbEntity
  8
10000_FRONT
370
    25
390
0
  6
CONTINUOUS
 62
     7
100
AcDbLine
 10
133.624081
 20
192.772076
 30
0.0
 11
133.576859
 21
192.78484
 31
0.0
  0
LINE
  5
13BB
100
AcDbEntity
  8
10000_FRONT
370
    25
390
0
  6
CONTINUOUS
 62
     7
100
AcDbLine
 10
133.576859
 20
192.78484
 30
0.0
 11
133.529915
 21
192.800667
 31
0.0
  0
LINE
  5
13BC
100
AcDbEntity
  8
10000_FRONT
370
    25
390
0
  6
CONTINUOUS
 62
     7
100
AcDbLine
 10
133.529915
 20
192.800667
 30
0.0
 11
133.48354
 21
192.819641
 31
0.0
  0
LINE
  5
13BD
100
AcDbEntity
  8
10000_FRONT
370
    25
390
0
  6
CONTINUOUS
 62
     7
100
AcDbLine
 10
133.48354
 20
192.819641
 30
0.0
 11
133.438032
 21
192.841801
 31
0.0
  0
LINE
  5
13BE
100
AcDbEntity
  8
10000_FRONT
370
    25
390
0
  6
CONTINUOUS
 62
     7
100
AcDbLine
 10
133.438032
 20
192.841801
 30
0.0
 11
133.393661
 21
192.867039
 31
0.0
  0
LINE
  5
13BF
100
AcDbEntity
  8
10000_FRONT
370
    25
390
0
  6
CONTINUOUS
 62
     7
100
AcDbLine
 10
133.393661
 20
192.867039
 30
0.0
 11
133.350693
 21
192.895222
 31
0.0
  0
LINE
  5
13C0
100
AcDbEntity
  8
10000_FRONT
370
    25
390
0
  6
CONTINUOUS
 62
     7
100
AcDbLine
 10
133.350693
 20
192.895222
 30
0.0
 11
133.309385
 21
192.926216
 31
0.0
  0
LINE
  5
13C1
100
AcDbEntity
  8
10000_FRONT
370
    25
390
0
  6
CONTINUOUS
 62
     7
100
AcDbLine
 10
133.309385
 20
192.926216
 30
0.0
 11
133.27
 21
192.959888
 31
0.0
  0
LINE
  5
13C2
100
AcDbEntity
  8
10000_FRONT
370
    25
390
0
  6
CONTINUOUS
 62
     7
100
AcDbLine
 10
133.27
 20
192.959888
 30
0.0
 11
133.232801
 21
192.996101
 31
0.0
  0
LINE
  5
13C3
100
AcDbEntity
  8
10000_FRONT
370
    25
390
0
  6
CONTINUOUS
 62
     7
100
AcDbLine
 10
133.232801
 20
192.996101
 30
0.0
 11
133.197952
 21
193.034843
 31
0.0
  0
LINE
  5
13C4
100
AcDbEntity
  8
10000_FRONT
370
    25
390
0
  6
CONTINUOUS
 62
     7
100
AcDbLine
 10
133.197952
 20
193.034843
 30
0.0
 11
133.164417
 21
193.07766
 31
0.0
  0
LINE
  5
13C5
100
AcDbEntity
  8
10000_FRONT
370
    25
390
0
  6
CONTINUOUS
 62
     7
100
AcDbLine
 10
133.164417
 20
193.07766
 30
0.0
 11
133.132439
 21
193.124874
 31
0.0
  0
LINE
  5
13C6
100
AcDbEntity
  8
10000_FRONT
370
    25
390
0
  6
CONTINUOUS
 62
     7
100
AcDbLine
 10
133.132439
 20
193.124874
 30
0.0
 11
133.102766
 21
193.176231
 31
0.0
  0
LINE
  5
13C7
100
AcDbEntity
  8
10000_FRONT
370
    25
390
0
  6
CONTINUOUS
 62
     7
100
AcDbLine
 10
133.102766
 20
193.176231
 30
0.0
 11
133.076151
 21
193.231483
 31
0.0
  0
LINE
  5
13C8
100
AcDbEntity
  8
10000_FRONT
370
    25
390
0
  6
CONTINUOUS
 62
     7
100
AcDbLine
 10
133.076151
 20
193.231483
 30
0.0
 11
133.053349
 21
193.290363
 31
0.0
  0
LINE
  5
13C9
100
AcDbEntity
  8
10000_FRONT
370
    25
390
0
  6
CONTINUOUS
 62
     7
100
AcDbLine
 10
133.053349
 20
193.290363
 30
0.0
 11
133.03495
 21
193.352371
 31
0.0
  0
LINE
  5
13CA
100
AcDbEntity
  8
10000_FRONT
370
    25
390
0
  6
CONTINUOUS
 62
     7
100
AcDbLine
 10
133.03495
 20
193.352371
 30
0.0
 11
133.021341
 21
193.416794
 31
0.0
  0
LINE
  5
13CB
100
AcDbEntity
  8
10000_FRONT
370
    25
390
0
  6
CONTINUOUS
 62
     7
100
AcDbLine
 10
133.021341
 20
193.416794
 30
0.0
 11
133.012897
 21
193.48291
 31
0.0
  0
LINE
  5
13CC
100
AcDbEntity
  8
10000_FRONT
370
    25
390
0
  6
CONTINUOUS
 62
     7
100
AcDbLine
 10
133.012897
 20
193.48291
 30
0.0
 11
133.01
 21
193.549999
 31
0.0
  0
LINE
  5
13CD
100
AcDbEntity
  8
10000_FRONT
370
    25
390
0
  6
CONTINUOUS
 62
     7
100
AcDbLine
 10
133.809999
 20
230.25
 30
0.0
 11
134.209999
 21
230.25
 31
0.0
  0
LINE
  5
13CE
100
AcDbEntity
  8
10000_FRONT
370
    25
390
0
  6
CONTINUOUS
 62
     7
100
AcDbLine
 10
133.01
 20
229.45
 30
0.0
 11
133.012875
 21
229.516942
 31
0.0
  0
LINE
  5
13CF
100
AcDbEntity
  8
10000_FRONT
370
    25
390
0
  6
CONTINUOUS
 62
     7
100
AcDbLine
 10
133.012875
 20
229.516942
 30
0.0
 11
133.021242
 21
229.582664
 31
0.0
  0
LINE
  5
13D0
100
AcDbEntity
  8
10000_FRONT
370
    25
390
0
  6
CONTINUOUS
 62
     7
100
AcDbLine
 10
133.021242
 20
229.582664
 30
0.0
 11
133.034712
 21
229.646597
 31
0.0
  0
LINE
  5
13D1
100
AcDbEntity
  8
10000_FRONT
370
    25
390
0
  6
CONTINUOUS
 62
     7
100
AcDbLine
 10
133.034712
 20
229.646597
 30
0.0
 11
133.052898
 21
229.708173
 31
0.0
  0
LINE
  5
13D2
100
AcDbEntity
  8
10000_FRONT
370
    25
390
0
  6
CONTINUOUS
 62
     7
100
AcDbLine
 10
133.052898
 20
229.708173
 30
0.0
 11
133.075413
 21
229.766825
 31
0.0
  0
LINE
  5
13D3
100
AcDbEntity
  8
10000_FRONT
370
    25
390
0
  6
CONTINUOUS
 62
     7
100
AcDbLine
 10
133.075413
 20
229.766825
 30
0.0
 11
133.101814
 21
229.822041
 31
0.0
  0
LINE
  5
13D4
100
AcDbEntity
  8
10000_FRONT
370
    25
390
0
  6
CONTINUOUS
 62
     7
100
AcDbLine
 10
133.101814
 20
229.822041
 30
0.0
 11
133.131464
 21
229.873581
 31
0.0
  0
LINE
  5
13D5
100
AcDbEntity
  8
10000_FRONT
370
    25
390
0
  6
CONTINUOUS
 62
     7
100
AcDbLine
 10
133.131464
 20
229.873581
 30
0.0
 11
133.163706
 21
229.921278
 31
0.0
  0
LINE
  5
13D6
100
AcDbEntity
  8
10000_FRONT
370
    25
390
0
  6
CONTINUOUS
 62
     7
100
AcDbLine
 10
133.163706
 20
229.921278
 30
0.0
 11
133.197876
 21
229.964961
 31
0.0
  0
LINE
  5
13D7
100
AcDbEntity
  8
10000_FRONT
370
    25
390
0
  6
CONTINUOUS
 62
     7
100
AcDbLine
 10
133.197876
 20
229.964961
 30
0.0
 11
133.23332
 21
230.004464
 31
0.0
  0
LINE
  5
13D8
100
AcDbEntity
  8
10000_FRONT
370
    25
390
0
  6
CONTINUOUS
 62
     7
100
AcDbLine
 10
133.23332
 20
230.004464
 30
0.0
 11
133.269918
 21
230.040142
 31
0.0
  0
LINE
  5
13D9
100
AcDbEntity
  8
10000_FRONT
370
    25
390
0
  6
CONTINUOUS
 62
     7
100
AcDbLine
 10
133.269918
 20
230.040142
 30
0.0
 11
133.308794
 21
230.073387
 31
0.0
  0
LINE
  5
13DA
100
AcDbEntity
  8
10000_FRONT
370
    25
390
0
  6
CONTINUOUS
 62
     7
100
AcDbLine
 10
133.308794
 20
230.073387
 30
0.0
 11
133.34976
 21
230.104139
 31
0.0
  0
LINE
  5
13DB
100
AcDbEntity
  8
10000_FRONT
370
    25
390
0
  6
CONTINUOUS
 62
     7
100
AcDbLine
 10
133.34976
 20
230.104139
 30
0.0
 11
133.392534
 21
230.132234
 31
0.0
  0
LINE
  5
13DC
100
AcDbEntity
  8
10000_FRONT
370
    25
390
0
  6
CONTINUOUS
 62
     7
100
AcDbLine
 10
133.392534
 20
230.132234
 30
0.0
 11
133.436832
 21
230.157511
 31
0.0
  0
LINE
  5
13DD
100
AcDbEntity
  8
10000_FRONT
370
    25
390
0
  6
CONTINUOUS
 62
     7
100
AcDbLine
 10
133.436832
 20
230.157511
 30
0.0
 11
133.48237
 21
230.179808
 31
0.0
  0
LINE
  5
13DE
100
AcDbEntity
  8
10000_FRONT
370
    25
390
0
  6
CONTINUOUS
 62
     7
100
AcDbLine
 10
133.48237
 20
230.179808
 30
0.0
 11
133.528862
 21
230.198966
 31
0.0
  0
LINE
  5
13DF
100
AcDbEntity
  8
10000_FRONT
370
    25
390
0
  6
CONTINUOUS
 62
     7
100
AcDbLine
 10
133.528862
 20
230.198966
 30
0.0
 11
133.575993
 21
230.214934
 31
0.0
  0
LINE
  5
13E0
100
AcDbEntity
  8
10000_FRONT
370
    25
390
0
  6
CONTINUOUS
 62
     7
100
AcDbLine
 10
133.575993
 20
230.214934
 30
0.0
 11
133.623436
 21
230.227798
 31
0.0
  0
LINE
  5
13E1
100
AcDbEntity
  8
10000_FRONT
370
    25
390
0
  6
CONTINUOUS
 62
     7
100
AcDbLine
 10
133.623436
 20
230.227798
 30
0.0
 11
133.67087
 21
230.237646
 31
0.0
  0
LINE
  5
13E2
100
AcDbEntity
  8
10000_FRONT
370
    25
390
0
  6
CONTINUOUS
 62
     7
100
AcDbLine
 10
133.67087
 20
230.237646
 30
0.0
 11
133.717972
 21
230.244568
 31
0.0
  0
LINE
  5
13E3
100
AcDbEntity
  8
10000_FRONT
370
    25
390
0
  6
CONTINUOUS
 62
     7
100
AcDbLine
 10
133.717972
 20
230.244568
 30
0.0
 11
133.764416
 21
230.248656
 31
0.0
  0
LINE
  5
13E4
100
AcDbEntity
  8
10000_FRONT
370
    25
390
0
  6
CONTINUOUS
 62
     7
100
AcDbLine
 10
133.764416
 20
230.248656
 30
0.0
 11
133.809999
 21
230.25
 31
0.0
  0
LINE
  5
13E5
100
AcDbEntity
  8
10000_FRONT
370
    25
390
0
  6
CONTINUOUS
 62
     7
100
AcDbLine
 10
133.01
 20
228.75
 30
0.0
 11
133.01
 21
229.45
 31
0.0
  0
LINE
  5
13E6
100
AcDbEntity
  8
10000_FRONT
370
    25
390
0
  6
CONTINUOUS
 62
     7
100
AcDbLine
 10
156.56
 20
213.959999
 30
0.0
 11
156.56
 21
207.959999
 31
0.0
  0
ARC
  5
13E7
100
AcDbEntity
  8
10000_FRONT
370
    25
390
0
  6
CONTINUOUS
 62
     7
100
AcDbCircle
 10
149.908
 20
214.891993
 30
0.0
 40
0.408
100
AcDbArc
 50
155.683112
 51
164.649488
  0
ARC
  5
13E8
100
AcDbEntity
  8
10000_FRONT
370
    25
390
0
  6
CONTINUOUS
 62
     7
100
AcDbCircle
 10
138.908
 20
214.891993
 30
0.0
 40
0.408
100
AcDbArc
 50
155.683119
 51
164.649479
  0
ARC
  5
13E9
100
AcDbEntity
  8
10000_FRONT
370
    25
390
0
  6
CONTINUOUS
 62
     7
100
AcDbCircle
 10
151.492
 20
208.108007
 30
0.0
 40
0.408
100
AcDbArc
 50
338.729933
 51
344.649489
  0
ARC
  5
13EA
100
AcDbEntity
  8
10000_FRONT
370
    25
390
0
  6
CONTINUOUS
 62
     7
100
AcDbCircle
 10
140.492
 20
208.108007
 30
0.0
 40
0.408
100
AcDbArc
 50
338.72993
 51
344.6495
  0
ARC
  5
13EB
100
AcDbEntity
  8
10000_FRONT
370
    25
390
0
  6
CONTINUOUS
 62
     7
100
AcDbCircle
 10
151.492
 20
214.891993
 30
0.0
 40
0.408
100
AcDbArc
 50
15.350511
 51
24.316886
  0
ARC
  5
13EC
100
AcDbEntity
  8
10000_FRONT
370
    25
390
0
  6
CONTINUOUS
 62
     7
100
AcDbCircle
 10
140.492
 20
214.891993
 30
0.0
 40
0.408
100
AcDbArc
 50
15.3505
 51
24.316903
  0
ARC
  5
13ED
100
AcDbEntity
  8
10000_FRONT
370
    25
390
0
  6
CONTINUOUS
 62
     7
100
AcDbCircle
 10
149.908
 20
208.108007
 30
0.0
 40
0.408
100
AcDbArc
 50
195.350512
 51
201.270069
  0
ARC
  5
13EE
100
AcDbEntity
  8
10000_FRONT
370
    25
390
0
  6
CONTINUOUS
 62
     7
100
AcDbCircle
 10
138.908
 20
208.108007
 30
0.0
 40
0.408
100
AcDbArc
 50
195.350521
 51
201.270051
  0
LINE
  5
13EF
100
AcDbEntity
  8
90000_FRAME
370
    13
  6
CONTINUOUS
 62
     7
100
AcDbLine
 10
50.704072
 20
59.496858
 30
0.0
 11
50.704072
 21
329.496858
 31
0.0
  0
LINE
  5
13F0
100
AcDbEntity
  8
90000_FRAME
370
    13
  6
CONTINUOUS
 62
     7
100
AcDbLine
 10
250.704072
 20
329.496858
 30
0.0
 11
50.704072
 21
329.496858
 31
0.0
  0
LINE
  5
13F1
100
AcDbEntity
  8
91000_TIP
370
    13
  6
CONTINUOUS
 62
     7
100
AcDbLine
 10
82.083533
 20
75.706949
 30
0.0
 11
92.083533
 21
78.206949
 31
0.0
  0
LINE
  5
13F2
100
AcDbEntity
  8
91000_TIP
370
    13
  6
CONTINUOUS
 62
     7
100
AcDbLine
 10
80.804022
 20
73.206949
 30
0.0
 11
104.406012
 21
73.206949
 31
0.0
  0
LINE
  5
13F3
100
AcDbEntity
  8
91000_TIP
370
    13
  6
CONTINUOUS
 62
     7
100
AcDbLine
 10
82.083533
 20
70.706949
 30
0.0
 11
92.083533
 21
68.206949
 31
0.0
  0
LINE
  5
13F4
100
AcDbEntity
  8
91000_TIP
370
    13
  6
CONTINUOUS
 62
     7
100
AcDbLine
 10
82.083533
 20
75.706949
 30
0.0
 11
82.083533
 21
70.706949
 31
0.0
  0
LINE
  5
13F5
100
AcDbEntity
  8
91000_TIP
370
    13
  6
CONTINUOUS
 62
     7
100
AcDbLine
 10
92.083533
 20
78.206949
 30
0.0
 11
92.083533
 21
68.206949
 31
0.0
  0
LINE
  5
13F6
100
AcDbEntity
  8
91000_TIP
370
    13
  6
CONTINUOUS
 62
     7
100
AcDbLine
 10
98.583532
 20
67.485468
 30
0.0
 11
98.583532
 21
78.768854
 31
0.0
  0
CIRCLE
  5
13F7
100
AcDbEntity
  8
91000_TIP
370
    13
  6
CONTINUOUS
 62
     7
100
AcDbCircle
 10
98.583532
 20
73.206949
 30
0.0
 40
5.0
  0
CIRCLE
  5
13F8
100
AcDbEntity
  8
91000_TIP
370
    13
  6
CONTINUOUS
 62
     7
100
AcDbCircle
 10
98.583532
 20
73.206949
 30
0.0
 40
2.5
  0
TEXT
  5
13F9
100
AcDbEntity
  8
90000_FRAME
370
    13
  6
CONTINUOUS
 62
     7
100
AcDbText
 10
111.263613
 20
84.274562
 30
0.0
 40
2.2
  1
All dimensions are in millimeters (mm)
 41
0.961374
100
AcDbText
  0
TEXT
  5
13FA
100
AcDbEntity
  8
90000_FRAME
370
    13
  6
CONTINUOUS
 62
     7
100
AcDbText
 10
111.263613
 20
87.403585
 30
0.0
 40
2.2
  1
Alle Bemassungswerte sind in Millimeter (mm) angegeben.
 41
0.825144
100
AcDbText
  0
LINE
  5
13FB
100
AcDbEntity
  8
90000_FRAME
370
    13
  6
CONTINUOUS
 62
     7
100
AcDbLine
 10
250.704072
 20
59.496858
 30
0.0
 11
250.704072
 21
329.496858
 31
0.0
  0
LINE
  5
13FC
100
AcDbEntity
  8
90000_FRAME
370
    13
  6
CONTINUOUS
 62
     7
100
AcDbLine
 10
250.704072
 20
59.496858
 30
0.0
 11
50.704072
 21
59.496858
 31
0.0
  0
TEXT
  5
13FD
100
AcDbEntity
  8
90000_FRAME
370
    13
  6
CONTINUOUS
 62
     7
100
AcDbText
 10
162.152155
 20
77.2
 30
0.0
 40
3.0
  1
3RH2911-1HA20
 41
0.784213
100
AcDbText
  0
TEXT
  5
13FE
100
AcDbEntity
  8
90000_FRAME
370
    13
  6
CONTINUOUS
 62
     7
100
AcDbText
 10
203.864072
 20
66.396858
 30
0.0
 40
2.2
  1
Massstab/Scale:
 41
0.9
100
AcDbText
  0
TEXT
  5
13FF
100
AcDbEntity
  8
90000_FRAME
370
    13
  6
CONTINUOUS
 62
     7
100
AcDbText
 10
162.0
 20
66.396858
 30
0.0
 40
2.2
  1
Format/Size: DIN A4
 41
0.803258
100
AcDbText
  0
LINE
  5
1400
100
AcDbEntity
  8
90000_FRAME
370
    13
  6
CONTINUOUS
 62
     7
100
AcDbLine
 10
245.704072
 20
64.496858
 30
0.0
 11
245.704072
 21
82.496858
 31
0.0
  0
LINE
  5
1401
100
AcDbEntity
  8
90000_FRAME
370
    13
  6
CONTINUOUS
 62
     7
100
AcDbLine
 10
203.204072
 20
64.496858
 30
0.0
 11
203.204072
 21
70.496858
 31
0.0
  0
LINE
  5
1402
100
AcDbEntity
  8
90000_FRAME
370
    13
  6
CONTINUOUS
 62
     7
100
AcDbLine
 10
160.704072
 20
64.496858
 30
0.0
 11
160.704072
 21
82.496858
 31
0.0
  0
LINE
  5
1403
100
AcDbEntity
  8
90000_FRAME
370
    13
  6
CONTINUOUS
 62
     7
100
AcDbLine
 10
110.704072
 20
82.496858
 30
0.0
 11
245.704072
 21
82.496858
 31
0.0
  0
LINE
  5
1404
100
AcDbEntity
  8
90000_FRAME
370
    13
  6
CONTINUOUS
 62
     7
100
AcDbLine
 10
160.704072
 20
70.496858
 30
0.0
 11
245.704072
 21
70.496858
 31
0.0
  0
LINE
  5
1405
100
AcDbEntity
  8
90000_FRAME
370
    13
  6
CONTINUOUS
 62
     7
100
AcDbLine
 10
110.704072
 20
64.496858
 30
0.0
 11
110.704072
 21
82.496858
 31
0.0
  0
LINE
  5
1406
100
AcDbEntity
  8
90000_FRAME
370
    13
  6
CONTINUOUS
 62
     7
100
AcDbLine
 10
110.704072
 20
64.496858
 30
0.0
 11
245.704072
 21
64.496858
 31
0.0
  0
LINE
  5
1407
100
AcDbEntity
  8
90000_FRAME
370
    13
  6
CONTINUOUS
 62
     7
100
AcDbLine
 10
124.890272
 20
75.911406
 30
0.0
 11
124.890272
 21
71.158137
 31
0.0
  0
LINE
  5
1408
100
AcDbEntity
  8
90000_FRAME
370
    13
  6
CONTINUOUS
 62
     7
100
AcDbLine
 10
126.316253
 20
75.911406
 30
0.0
 11
126.316253
 21
71.158137
 31
0.0
  0
LINE
  5
1409
100
AcDbEntity
  8
90000_FRAME
370
    13
  6
CONTINUOUS
 62
     7
100
AcDbLine
 10
124.890272
 20
71.158137
 30
0.0
 11
126.316253
 21
71.158137
 31
0.0
  0
LINE
  5
140A
100
AcDbEntity
  8
90000_FRAME
370
    13
  6
CONTINUOUS
 62
     7
100
AcDbLine
 10
124.890272
 20
75.911406
 30
0.0
 11
126.316253
 21
75.911406
 31
0.0
  0
LINE
  5
140B
100
AcDbEntity
  8
90000_FRAME
370
    13
  6
CONTINUOUS
 62
     7
100
AcDbLine
 10
127.409505
 20
75.911406
 30
0.0
 11
127.409505
 21
71.158137
 31
0.0
  0
LINE
  5
140C
100
AcDbEntity
  8
90000_FRAME
370
    13
  6
CONTINUOUS
 62
     7
100
AcDbLine
 10
127.409505
 20
71.158137
 30
0.0
 11
130.974457
 21
71.158137
 31
0.0
  0
LINE
  5
140D
100
AcDbEntity
  8
90000_FRAME
370
    13
  6
CONTINUOUS
 62
     7
100
AcDbLine
 10
130.974457
 20
72.061258
 30
0.0
 11
128.787953
 21
72.061258
 31
0.0
  0
LINE
  5
140E
100
AcDbEntity
  8
90000_FRAME
370
    13
  6
CONTINUOUS
 62
     7
100
AcDbLine
 10
130.974457
 20
72.061258
 30
0.0
 11
130.974457
 21
71.158137
 31
0.0
  0
LINE
  5
140F
100
AcDbEntity
  8
90000_FRAME
370
    13
  6
CONTINUOUS
 62
     7
100
AcDbLine
 10
130.926924
 20
75.911406
 30
0.0
 11
127.409505
 21
75.911406
 31
0.0
  0
LINE
  5
1410
100
AcDbEntity
  8
90000_FRAME
370
    13
  6
CONTINUOUS
 62
     7
100
AcDbLine
 10
130.926924
 20
75.032051
 30
0.0
 11
128.787953
 21
75.032051
 31
0.0
  0
LINE
  5
1411
100
AcDbEntity
  8
90000_FRAME
370
    13
  6
CONTINUOUS
 62
     7
100
AcDbLine
 10
130.926924
 20
75.911406
 30
0.0
 11
130.926924
 21
75.032051
 31
0.0
  0
LINE
  5
1412
100
AcDbEntity
  8
90000_FRAME
370
    13
  6
CONTINUOUS
 62
     7
100
AcDbLine
 10
130.641728
 20
73.178276
 30
0.0
 11
128.787953
 21
73.178276
 31
0.0
  0
LINE
  5
1413
100
AcDbEntity
  8
90000_FRAME
370
    13
  6
CONTINUOUS
 62
     7
100
AcDbLine
 10
130.641728
 20
73.962566
 30
0.0
 11
130.641728
 21
73.178276
 31
0.0
  0
LINE
  5
1414
100
AcDbEntity
  8
90000_FRAME
370
    13
  6
CONTINUOUS
 62
     7
100
AcDbLine
 10
130.641728
 20
73.962566
 30
0.0
 11
128.787953
 21
73.962566
 31
0.0
  0
LINE
  5
1415
100
AcDbEntity
  8
90000_FRAME
370
    13
  6
CONTINUOUS
 62
     7
100
AcDbLine
 10
128.787953
 20
75.032051
 30
0.0
 11
128.787953
 21
73.962566
 31
0.0
  0
LINE
  5
1416
100
AcDbEntity
  8
90000_FRAME
370
    13
  6
CONTINUOUS
 62
     7
100
AcDbLine
 10
128.787953
 20
73.178276
 30
0.0
 11
128.787953
 21
72.061258
 31
0.0
  0
LINE
  5
1417
100
AcDbEntity
  8
90000_FRAME
370
    13
  6
CONTINUOUS
 62
     7
100
AcDbLine
 10
131.782513
 20
71.158137
 30
0.0
 11
131.782513
 21
75.911406
 31
0.0
  0
LINE
  5
1418
100
AcDbEntity
  8
90000_FRAME
370
    13
  6
CONTINUOUS
 62
     7
100
AcDbLine
 10
131.782513
 20
71.158137
 30
0.0
 11
132.733166
 21
71.158137
 31
0.0
  0
LINE
  5
1419
100
AcDbEntity
  8
90000_FRAME
370
    13
  6
CONTINUOUS
 62
     7
100
AcDbLine
 10
137.629034
 20
75.911406
 30
0.0
 11
137.629034
 21
71.158137
 31
0.0
  0
LINE
  5
141A
100
AcDbEntity
  8
90000_FRAME
370
    13
  6
CONTINUOUS
 62
     7
100
AcDbLine
 10
137.629034
 20
71.158137
 30
0.0
 11
136.250586
 21
71.158137
 31
0.0
  0
LINE
  5
141B
100
AcDbEntity
  8
90000_FRAME
370
    13
  6
CONTINUOUS
 62
     7
100
AcDbLine
 10
134.064082
 20
71.110604
 30
0.0
 11
134.91967
 21
71.110604
 31
0.0
  0
LINE
  5
141C
100
AcDbEntity
  8
90000_FRAME
370
    13
  6
CONTINUOUS
 62
     7
100
AcDbLine
 10
134.064082
 20
71.110604
 30
0.0
 11
132.733166
 21
74.200229
 31
0.0
  0
LINE
  5
141D
100
AcDbEntity
  8
90000_FRAME
370
    13
  6
CONTINUOUS
 62
     7
100
AcDbLine
 10
132.733166
 20
71.158137
 30
0.0
 11
132.733166
 21
74.200229
 31
0.0
  0
LINE
  5
141E
100
AcDbEntity
  8
90000_FRAME
370
    13
  6
CONTINUOUS
 62
     7
100
AcDbLine
 10
136.250586
 20
74.247762
 30
0.0
 11
134.91967
 21
71.110604
 31
0.0
  0
LINE
  5
141F
100
AcDbEntity
  8
90000_FRAME
370
    13
  6
CONTINUOUS
 62
     7
100
AcDbLine
 10
133.493689
 20
75.911406
 30
0.0
 11
131.782513
 21
75.911406
 31
0.0
  0
LINE
  5
1420
100
AcDbEntity
  8
90000_FRAME
370
    13
  6
CONTINUOUS
 62
     7
100
AcDbLine
 10
137.629034
 20
75.911406
 30
0.0
 11
135.917857
 21
75.911406
 31
0.0
  0
LINE
  5
1421
100
AcDbEntity
  8
90000_FRAME
370
    13
  6
CONTINUOUS
 62
     7
100
AcDbLine
 10
133.493689
 20
75.911406
 30
0.0
 11
134.729539
 21
73.011912
 31
0.0
  0
LINE
  5
1422
100
AcDbEntity
  8
90000_FRAME
370
    13
  6
CONTINUOUS
 62
     7
100
AcDbLine
 10
135.917857
 20
75.911406
 30
0.0
 11
134.729539
 21
73.011912
 31
0.0
  0
LINE
  5
1423
100
AcDbEntity
  8
90000_FRAME
370
    13
  6
CONTINUOUS
 62
     7
100
AcDbLine
 10
136.250586
 20
74.247762
 30
0.0
 11
136.250586
 21
71.158137
 31
0.0
  0
LINE
  5
1424
100
AcDbEntity
  8
90000_FRAME
370
    13
  6
CONTINUOUS
 62
     7
100
AcDbLine
 10
138.722285
 20
75.911406
 30
0.0
 11
138.722285
 21
71.158137
 31
0.0
  0
LINE
  5
1425
100
AcDbEntity
  8
90000_FRAME
370
    13
  6
CONTINUOUS
 62
     7
100
AcDbLine
 10
138.722285
 20
71.158137
 30
0.0
 11
142.287237
 21
71.158137
 31
0.0
  0
LINE
  5
1426
100
AcDbEntity
  8
90000_FRAME
370
    13
  6
CONTINUOUS
 62
     7
100
AcDbLine
 10
142.287237
 20
72.061258
 30
0.0
 11
140.100733
 21
72.061258
 31
0.0
  0
LINE
  5
1427
100
AcDbEntity
  8
90000_FRAME
370
    13
  6
CONTINUOUS
 62
     7
100
AcDbLine
 10
142.287237
 20
72.061258
 30
0.0
 11
142.287237
 21
71.158137
 31
0.0
  0
LINE
  5
1428
100
AcDbEntity
  8
90000_FRAME
370
    13
  6
CONTINUOUS
 62
     7
100
AcDbLine
 10
142.239705
 20
75.911406
 30
0.0
 11
138.722285
 21
75.911406
 31
0.0
  0
LINE
  5
1429
100
AcDbEntity
  8
90000_FRAME
370
    13
  6
CONTINUOUS
 62
     7
100
AcDbLine
 10
142.239705
 20
75.032051
 30
0.0
 11
140.100733
 21
75.032051
 31
0.0
  0
LINE
  5
142A
100
AcDbEntity
  8
90000_FRAME
370
    13
  6
CONTINUOUS
 62
     7
100
AcDbLine
 10
142.239705
 20
75.911406
 30
0.0
 11
142.239705
 21
75.032051
 31
0.0
  0
LINE
  5
142B
100
AcDbEntity
  8
90000_FRAME
370
    13
  6
CONTINUOUS
 62
     7
100
AcDbLine
 10
141.954508
 20
73.178276
 30
0.0
 11
140.100733
 21
73.178276
 31
0.0
  0
LINE
  5
142C
100
AcDbEntity
  8
90000_FRAME
370
    13
  6
CONTINUOUS
 62
     7
100
AcDbLine
 10
141.954508
 20
73.962566
 30
0.0
 11
141.954508
 21
73.178276
 31
0.0
  0
LINE
  5
142D
100
AcDbEntity
  8
90000_FRAME
370
    13
  6
CONTINUOUS
 62
     7
100
AcDbLine
 10
141.954508
 20
73.962566
 30
0.0
 11
140.100733
 21
73.962566
 31
0.0
  0
LINE
  5
142E
100
AcDbEntity
  8
90000_FRAME
370
    13
  6
CONTINUOUS
 62
     7
100
AcDbLine
 10
140.100733
 20
75.032051
 30
0.0
 11
140.100733
 21
73.962566
 31
0.0
  0
LINE
  5
142F
100
AcDbEntity
  8
90000_FRAME
370
    13
  6
CONTINUOUS
 62
     7
100
AcDbLine
 10
140.100733
 20
73.178276
 30
0.0
 11
140.100733
 21
72.061258
 31
0.0
  0
LINE
  5
1430
100
AcDbEntity
  8
90000_FRAME
370
    13
  6
CONTINUOUS
 62
     7
100
AcDbLine
 10
143.071527
 20
71.158137
 30
0.0
 11
143.071527
 21
75.911406
 31
0.0
  0
LINE
  5
1431
100
AcDbEntity
  8
90000_FRAME
370
    13
  6
CONTINUOUS
 62
     7
100
AcDbLine
 10
147.254403
 20
75.911406
 30
0.0
 11
147.254403
 21
71.158137
 31
0.0
  0
LINE
  5
1432
100
AcDbEntity
  8
90000_FRAME
370
    13
  6
CONTINUOUS
 62
     7
100
AcDbLine
 10
143.071527
 20
71.158137
 30
0.0
 11
144.02218
 21
71.158137
 31
0.0
  0
LINE
  5
1433
100
AcDbEntity
  8
90000_FRAME
370
    13
  6
CONTINUOUS
 62
     7
100
AcDbLine
 10
147.254403
 20
75.911406
 30
0.0
 11
146.30375
 21
75.911406
 31
0.0
  0
LINE
  5
1434
100
AcDbEntity
  8
90000_FRAME
370
    13
  6
CONTINUOUS
 62
     7
100
AcDbLine
 10
144.616339
 20
75.911406
 30
0.0
 11
143.071527
 21
75.911406
 31
0.0
  0
LINE
  5
1435
100
AcDbEntity
  8
90000_FRAME
370
    13
  6
CONTINUOUS
 62
     7
100
AcDbLine
 10
147.254403
 20
71.158137
 30
0.0
 11
145.733357
 21
71.158137
 31
0.0
  0
LINE
  5
1436
100
AcDbEntity
  8
90000_FRAME
370
    13
  6
CONTINUOUS
 62
     7
100
AcDbLine
 10
145.733357
 20
71.158137
 30
0.0
 11
144.02218
 21
74.200229
 31
0.0
  0
LINE
  5
1437
100
AcDbEntity
  8
90000_FRAME
370
    13
  6
CONTINUOUS
 62
     7
100
AcDbLine
 10
144.616339
 20
75.911406
 30
0.0
 11
146.30375
 21
72.964379
 31
0.0
  0
LINE
  5
1438
100
AcDbEntity
  8
90000_FRAME
370
    13
  6
CONTINUOUS
 62
     7
100
AcDbLine
 10
146.30375
 20
75.911406
 30
0.0
 11
146.30375
 21
72.964379
 31
0.0
  0
LINE
  5
1439
100
AcDbEntity
  8
90000_FRAME
370
    13
  6
CONTINUOUS
 62
     7
100
AcDbLine
 10
144.02218
 20
71.158137
 30
0.0
 11
144.02218
 21
74.200229
 31
0.0
  0
LINE
  5
143A
100
AcDbEntity
  8
90000_FRAME
370
    13
  6
CONTINUOUS
 62
     7
100
AcDbLine
 10
148.062459
 20
71.253202
 30
0.0
 11
148.062459
 21
72.203856
 31
0.0
  0
LINE
  5
143B
100
AcDbEntity
  8
90000_FRAME
370
    13
  6
CONTINUOUS
 62
     7
100
AcDbLine
 10
151.389748
 20
74.91322
 30
0.0
 11
151.389748
 21
75.863874
 31
0.0
  0
ARC
  5
143C
100
AcDbEntity
  8
90000_FRAME
370
    13
  6
CONTINUOUS
 62
     7
100
AcDbCircle
 10
149.7671
 20
73.115296
 30
0.0
 40
1.111619
100
AcDbArc
 50
277.709996
 51
295.688493
  0
ARC
  5
143D
100
AcDbEntity
  8
90000_FRAME
370
    13
  6
CONTINUOUS
 62
     7
100
AcDbCircle
 10
150.05141
 20
72.39047
 30
0.0
 40
0.340169
100
AcDbArc
 50
305.503221
 51
72.46529
  0
ARC
  5
143E
100
AcDbEntity
  8
90000_FRAME
370
    13
  6
CONTINUOUS
 62
     7
100
AcDbCircle
 10
149.485416
 20
75.792177
 30
0.0
 40
4.756795
100
AcDbArc
 50
252.59392
 51
280.98166
  0
ARC
  5
143F
100
AcDbEntity
  8
90000_FRAME
370
    13
  6
CONTINUOUS
 62
     7
100
AcDbCircle
 10
149.940252
 20
73.174163
 30
0.0
 40
2.100727
100
AcDbArc
 50
282.405836
 51
311.864443
  0
ARC
  5
1440
100
AcDbEntity
  8
90000_FRAME
370
    13
  6
CONTINUOUS
 62
     7
100
AcDbCircle
 10
149.666688
 20
74.782505
 30
0.0
 40
0.302963
100
AcDbArc
 50
154.440035
 51
221.82017
  0
ARC
  5
1441
100
AcDbEntity
  8
90000_FRAME
370
    13
  6
CONTINUOUS
 62
     7
100
AcDbCircle
 10
149.745909
 20
74.703284
 30
0.0
 40
0.410309
100
AcDbArc
 50
102.828783
 51
149.225964
  0
ARC
  5
1442
100
AcDbEntity
  8
90000_FRAME
370
    13
  6
CONTINUOUS
 62
     7
100
AcDbCircle
 10
150.162935
 20
72.960948
 30
0.0
 40
2.201837
100
AcDbArc
 50
84.040006
 51
103.342766
  0
ARC
  5
1443
100
AcDbEntity
  8
90000_FRAME
370
    13
  6
CONTINUOUS
 62
     7
100
AcDbCircle
 10
149.821972
 20
70.543584
 30
0.0
 40
4.642374
100
AcDbArc
 50
70.262586
 51
82.952419
  0
ARC
  5
1444
100
AcDbEntity
  8
90000_FRAME
370
    13
  6
CONTINUOUS
 62
     7
100
AcDbCircle
 10
149.307953
 20
75.215207
 30
0.0
 40
3.258756
100
AcDbArc
 50
247.530021
 51
280.757952
  0
ARC
  5
1445
100
AcDbEntity
  8
90000_FRAME
370
    13
  6
CONTINUOUS
 62
     7
100
AcDbCircle
 10
142.922987
 20
56.963687
 30
0.0
 40
17.331608
100
AcDbArc
 50
65.341467
 51
67.399777
  0
ARC
  5
1446
100
AcDbEntity
  8
90000_FRAME
370
    13
  6
CONTINUOUS
 62
     7
100
AcDbCircle
 10
153.718849
 20
82.756114
 30
0.0
 40
10.629164
100
AcDbArc
 50
242.86201
 51
247.104203
  0
ARC
  5
1447
100
AcDbEntity
  8
90000_FRAME
370
    13
  6
CONTINUOUS
 62
     7
100
AcDbCircle
 10
149.863948
 20
75.222182
 30
0.0
 40
2.166292
100
AcDbArc
 50
227.311928
 51
242.704032
  0
ARC
  5
1448
100
AcDbEntity
  8
90000_FRAME
370
    13
  6
CONTINUOUS
 62
     7
100
AcDbCircle
 10
149.259917
 20
74.516505
 30
0.0
 40
1.238522
100
AcDbArc
 50
194.795219
 51
225.717655
  0
ARC
  5
1449
100
AcDbEntity
  8
90000_FRAME
370
    13
  6
CONTINUOUS
 62
     7
100
AcDbCircle
 10
149.322075
 20
74.556725
 30
0.0
 40
1.309092
100
AcDbArc
 50
164.197486
 51
195.802514
  0
ARC
  5
144A
100
AcDbEntity
  8
90000_FRAME
370
    13
  6
CONTINUOUS
 62
     7
100
AcDbCircle
 10
149.879099
 20
73.668457
 30
0.0
 40
2.366925
100
AcDbArc
 50
86.221802
 51
120.42726
  0
ARC
  5
144B
100
AcDbEntity
  8
90000_FRAME
370
    13
  6
CONTINUOUS
 62
     7
100
AcDbCircle
 10
149.610242
 20
66.97229
 30
0.0
 40
9.067905
100
AcDbArc
 50
78.682705
 51
87.31476
  0
ARC
  5
144C
100
AcDbEntity
  8
90000_FRAME
370
    13
  6
CONTINUOUS
 62
     7
100
AcDbCircle
 10
149.154173
 20
74.664232
 30
0.0
 40
1.119747
100
AcDbArc
 50
142.813918
 51
167.152295
  0
ARC
  5
144D
100
AcDbEntity
  8
90000_FRAME
370
    13
  6
CONTINUOUS
 62
     7
100
AcDbCircle
 10
149.499483
 20
74.357651
 30
0.0
 40
1.580547
100
AcDbArc
 50
121.214095
 51
141.525477
  0
ARC
  5
144E
100
AcDbEntity
  8
90000_FRAME
370
    13
  6
CONTINUOUS
 62
     7
100
AcDbCircle
 10
150.076657
 20
75.168708
 30
0.0
 40
0.866128
100
AcDbArc
 50
222.776039
 51
239.036243
  0
ARC
  5
144F
100
AcDbEntity
  8
90000_FRAME
370
    13
  6
CONTINUOUS
 62
     7
100
AcDbCircle
 10
147.569947
 20
67.838436
 30
0.0
 40
6.858774
100
AcDbArc
 50
59.902027
 51
68.203648
  0
ARC
  5
1450
100
AcDbEntity
  8
90000_FRAME
370
    13
  6
CONTINUOUS
 62
     7
100
AcDbCircle
 10
150.978442
 20
76.764322
 30
0.0
 40
2.698741
100
AcDbArc
 50
240.0482
 51
251.377967
  0
ARC
  5
1451
100
AcDbEntity
  8
90000_FRAME
370
    13
  6
CONTINUOUS
 62
     7
100
AcDbCircle
 10
150.312985
 20
72.607424
 30
0.0
 40
1.433447
100
AcDbArc
 50
315.890455
 51
333.522926
  0
ARC
  5
1452
100
AcDbEntity
  8
90000_FRAME
370
    13
  6
CONTINUOUS
 62
     7
100
AcDbCircle
 10
150.317623
 20
72.554016
 30
0.0
 40
1.406229
100
AcDbArc
 50
335.386797
 51
24.391512
  0
ARC
  5
1453
100
AcDbEntity
  8
90000_FRAME
370
    13
  6
CONTINUOUS
 62
     7
100
AcDbCircle
 10
150.245418
 20
72.47616
 30
0.0
 40
1.504703
100
AcDbArc
 50
25.956292
 51
59.483483
  0
LINE
  5
1454
100
AcDbEntity
  8
90000_FRAME
370
    13
  6
CONTINUOUS
 62
     7
100
AcDbLine
 10
120.469732
 20
71.253202
 30
0.0
 11
120.469732
 21
72.203856
 31
0.0
  0
LINE
  5
1455
100
AcDbEntity
  8
90000_FRAME
370
    13
  6
CONTINUOUS
 62
     7
100
AcDbLine
 10
123.797021
 20
74.91322
 30
0.0
 11
123.797021
 21
75.863874
 31
0.0
  0
ARC
  5
1456
100
AcDbEntity
  8
90000_FRAME
370
    13
  6
CONTINUOUS
 62
     7
100
AcDbCircle
 10
122.174373
 20
73.115296
 30
0.0
 40
1.111619
100
AcDbArc
 50
277.709996
 51
295.688493
  0
ARC
  5
1457
100
AcDbEntity
  8
90000_FRAME
370
    13
  6
CONTINUOUS
 62
     7
100
AcDbCircle
 10
122.458683
 20
72.39047
 30
0.0
 40
0.340169
100
AcDbArc
 50
305.503221
 51
72.46529
  0
ARC
  5
1458
100
AcDbEntity
  8
90000_FRAME
370
    13
  6
CONTINUOUS
 62
     7
100
AcDbCircle
 10
121.892689
 20
75.792177
 30
0.0
 40
4.756795
100
AcDbArc
 50
252.59392
 51
280.98166
  0
ARC
  5
1459
100
AcDbEntity
  8
90000_FRAME
370
    13
  6
CONTINUOUS
 62
     7
100
AcDbCircle
 10
122.347525
 20
73.174163
 30
0.0
 40
2.100727
100
AcDbArc
 50
282.405836
 51
311.864443
  0
ARC
  5
145A
100
AcDbEntity
  8
90000_FRAME
370
    13
  6
CONTINUOUS
 62
     7
100
AcDbCircle
 10
122.07396
 20
74.782505
 30
0.0
 40
0.302963
100
AcDbArc
 50
154.440035
 51
221.82017
  0
ARC
  5
145B
100
AcDbEntity
  8
90000_FRAME
370
    13
  6
CONTINUOUS
 62
     7
100
AcDbCircle
 10
122.153182
 20
74.703284
 30
0.0
 40
0.410309
100
AcDbArc
 50
102.828783
 51
149.225964
  0
ARC
  5
145C
100
AcDbEntity
  8
90000_FRAME
370
    13
  6
CONTINUOUS
 62
     7
100
AcDbCircle
 10
122.570208
 20
72.960948
 30
0.0
 40
2.201837
100
AcDbArc
 50
84.040006
 51
103.342766
  0
ARC
  5
145D
100
AcDbEntity
  8
90000_FRAME
370
    13
  6
CONTINUOUS
 62
     7
100
AcDbCircle
 10
122.229245
 20
70.543584
 30
0.0
 40
4.642374
100
AcDbArc
 50
70.262586
 51
82.952419
  0
ARC
  5
145E
100
AcDbEntity
  8
90000_FRAME
370
    13
  6
CONTINUOUS
 62
     7
100
AcDbCircle
 10
121.715226
 20
75.215207
 30
0.0
 40
3.258756
100
AcDbArc
 50
247.530021
 51
280.757952
  0
ARC
  5
145F
100
AcDbEntity
  8
90000_FRAME
370
    13
  6
CONTINUOUS
 62
     7
100
AcDbCircle
 10
115.33026
 20
56.963687
 30
0.0
 40
17.331608
100
AcDbArc
 50
65.341467
 51
67.399777
  0
ARC
  5
1460
100
AcDbEntity
  8
90000_FRAME
370
    13
  6
CONTINUOUS
 62
     7
100
AcDbCircle
 10
126.126122
 20
82.756114
 30
0.0
 40
10.629164
100
AcDbArc
 50
242.86201
 51
247.104203
  0
ARC
  5
1461
100
AcDbEntity
  8
90000_FRAME
370
    13
  6
CONTINUOUS
 62
     7
100
AcDbCircle
 10
122.271221
 20
75.222182
 30
0.0
 40
2.166292
100
AcDbArc
 50
227.311928
 51
242.704032
  0
ARC
  5
1462
100
AcDbEntity
  8
90000_FRAME
370
    13
  6
CONTINUOUS
 62
     7
100
AcDbCircle
 10
121.66719
 20
74.516505
 30
0.0
 40
1.238522
100
AcDbArc
 50
194.795219
 51
225.717655
  0
ARC
  5
1463
100
AcDbEntity
  8
90000_FRAME
370
    13
  6
CONTINUOUS
 62
     7
100
AcDbCircle
 10
122.286372
 20
73.668457
 30
0.0
 40
2.366925
100
AcDbArc
 50
86.221802
 51
120.42726
  0
ARC
  5
1464
100
AcDbEntity
  8
90000_FRAME
370
    13
  6
CONTINUOUS
 62
     7
100
AcDbCircle
 10
122.017515
 20
66.97229
 30
0.0
 40
9.067905
100
AcDbArc
 50
78.682705
 51
87.31476
  0
ARC
  5
1465
100
AcDbEntity
  8
90000_FRAME
370
    13
  6
CONTINUOUS
 62
     7
100
AcDbCircle
 10
121.906756
 20
74.357651
 30
0.0
 40
1.580547
100
AcDbArc
 50
121.214095
 51
141.525477
  0
ARC
  5
1466
100
AcDbEntity
  8
90000_FRAME
370
    13
  6
CONTINUOUS
 62
     7
100
AcDbCircle
 10
122.48393
 20
75.168708
 30
0.0
 40
0.866128
100
AcDbArc
 50
222.776039
 51
239.036243
  0
ARC
  5
1467
100
AcDbEntity
  8
90000_FRAME
370
    13
  6
CONTINUOUS
 62
     7
100
AcDbCircle
 10
119.97722
 20
67.838436
 30
0.0
 40
6.858774
100
AcDbArc
 50
59.902027
 51
68.203648
  0
ARC
  5
1468
100
AcDbEntity
  8
90000_FRAME
370
    13
  6
CONTINUOUS
 62
     7
100
AcDbCircle
 10
123.385715
 20
76.764322
 30
0.0
 40
2.698741
100
AcDbArc
 50
240.0482
 51
251.377967
  0
ARC
  5
1469
100
AcDbEntity
  8
90000_FRAME
370
    13
  6
CONTINUOUS
 62
     7
100
AcDbCircle
 10
122.720258
 20
72.607424
 30
0.0
 40
1.433447
100
AcDbArc
 50
315.890455
 51
333.522926
  0
ARC
  5
146A
100
AcDbEntity
  8
90000_FRAME
370
    13
  6
CONTINUOUS
 62
     7
100
AcDbCircle
 10
122.724896
 20
72.554016
 30
0.0
 40
1.406229
100
AcDbArc
 50
335.386797
 51
24.391512
  0
ARC
  5
146B
100
AcDbEntity
  8
90000_FRAME
370
    13
  6
CONTINUOUS
 62
     7
100
AcDbCircle
 10
122.652691
 20
72.47616
 30
0.0
 40
1.504703
100
AcDbArc
 50
25.956292
 51
59.483483
  0
LINE
  5
146C
100
AcDbEntity
  8
90000_FRAME
370
    13
  6
CONTINUOUS
 62
     7
100
AcDbLine
 10
120.661561
 20
75.330601
 30
0.0
 11
120.935627
 21
75.604674
 31
0.0
  0
ARC
  5
146D
100
AcDbEntity
  8
90000_FRAME
370
    13
  6
CONTINUOUS
 62
     7
100
AcDbCircle
 10
121.729348
 20
74.556725
 30
0.0
 40
1.309092
100
AcDbArc
 50
164.197486
 51
195.802514
  0
ARC
  5
146E
100
AcDbEntity
  8
90000_FRAME
370
    13
  6
CONTINUOUS
 62
     7
100
AcDbCircle
 10
121.561446
 20
74.664232
 30
0.0
 40
1.119747
100
AcDbArc
 50
142.813918
 51
167.152295
  0
TEXT
  5
146F
100
AcDbEntity
  8
90000_FRAME
370
    13
  6
CONTINUOUS
 62
     7
100
AcDbText
 10
232.0
 20
66.3969
 30
0.0
 40
2.2
  1
1:1
 41
0.9
100
AcDbText
  0
TEXT
  5
1470
100
AcDbEntity
  8
90000_FRAME
370
    13
  6
CONTINUOUS
 62
     7
100
AcDbText
 10
162.0
 20
72.2
 30
0.0
 40
2.2
  1

 41
0.784213
100
AcDbText
  0
ENDSEC
  0
SECTION
  2
OBJECTS
  0
DICTIONARY
  5
FE4
100
AcDbDictionary
280
     0
281
     1
  3
ACAD_GROUP
350
FE5
  3
ACAD_MLINESTYLE
350
FE6
  0
DICTIONARY
  5
FE5
102
{ACAD_REACTORS
330
FE4
102
}
100
AcDbDictionary
280
     0
281
     1
  0
DICTIONARY
  5
FE6
102
{ACAD_REACTORS
330
FE4
102
}
100
AcDbDictionary
280
     0
281
     1
  3
Standard
350
FE7
  0
MLINESTYLE
  5
FE7
102
{ACAD_REACTORS
330
FE6
102
}
100
AcDbMlineStyle
  2
Standard
 70
     0
  3

 62
     0
 51
90.0
 52
90.0
 71
     2
 49
0.5
 62
   256
  6
ByLayer
 49
-0.5
 62
   256
  6
ByLayer
  0
ENDSEC
  0
EOF
