  0
SECTION
  2
HEADER
  9
$ACADVER
  1
AC1015
  9
$ACADMAINTVER
 70
     6
  9
$DWGCODEPAGE
  3
ANSI_1252
  9
$INSBASE
 10
0.0
 20
0.0
 30
0.0
  9
$EXTMIN
 10
69.395417
 20
287.976483
 30
-1.0
  9
$EXTMAX
 10
1026.514554
 20
492.804657
 30
0.7
  9
$LIMMIN
 10
0.0
 20
0.0
  9
$LIMMAX
 10
12.0
 20
9.0
  9
$ORTHOMODE
 70
     0
  9
$REGENMODE
 70
     1
  9
$FILLMODE
 70
     1
  9
$QTEXTMODE
 70
     0
  9
$MIRRTEXT
 70
     0
  9
$LTSCALE
 40
5.0
  9
$ATTMODE
 70
     1
  9
$TEXTSIZE
 40
0.2
  9
$TRACEWID
 40
0.05
  9
$TEXTSTYLE
  7
STANDARD
  9
$CLAYER
  8
0
  9
$CELTYPE
  6
ByLayer
  9
$CECOLOR
 62
   256
  9
$CELTSCALE
 40
1.0
  9
$DISPSILH
 70
     0
  9
$DIMSCALE
 40
1.0
  9
$DIMASZ
 40
0.18
  9
$DIMEXO
 40
0.0625
  9
$DIMDLI
 40
0.38
  9
$DIMRND
 40
0.0
  9
$DIMDLE
 40
0.0
  9
$DIMEXE
 40
0.18
  9
$DIMTP
 40
0.0
  9
$DIMTM
 40
0.0
  9
$DIMTXT
 40
0.18
  9
$DIMCEN
 40
0.09
  9
$DIMTSZ
 40
0.0
  9
$DIMTOL
 70
     0
  9
$DIMLIM
 70
     0
  9
$DIMTIH
 70
     1
  9
$DIMTOH
 70
     1
  9
$DIMSE1
 70
     0
  9
$DIMSE2
 70
     0
  9
$DIMTAD
 70
     0
  9
$DIMZIN
 70
     0
  9
$DIMBLK
  1

  9
$DIMASO
 70
     1
  9
$DIMSHO
 70
     1
  9
$DIMPOST
  1

  9
$DIMAPOST
  1

  9
$DIMALT
 70
     0
  9
$DIMALTD
 70
     2
  9
$DIMALTF
 40
25.4
  9
$DIMLFAC
 40
1.0
  9
$DIMTOFL
 70
     0
  9
$DIMTVP
 40
0.0
  9
$DIMTIX
 70
     0
  9
$DIMSOXD
 70
     0
  9
$DIMSAH
 70
     0
  9
$DIMBLK1
  1

  9
$DIMBLK2
  1

  9
$DIMSTYLE
  2
STANDARD
  9
$DIMCLRD
 70
     0
  9
$DIMCLRE
 70
     0
  9
$DIMCLRT
 70
     0
  9
$DIMTFAC
 40
1.0
  9
$DIMGAP
 40
0.09
  9
$DIMJUST
 70
     0
  9
$DIMSD1
 70
     0
  9
$DIMSD2
 70
     0
  9
$DIMTOLJ
 70
     1
  9
$DIMTZIN
 70
     0
  9
$DIMALTZ
 70
     0
  9
$DIMALTTZ
 70
     0
  9
$DIMUPT
 70
     0
  9
$DIMDEC
 70
     4
  9
$DIMTDEC
 70
     4
  9
$DIMALTU
 70
     2
  9
$DIMALTTD
 70
     2
  9
$DIMTXSTY
  7
STANDARD
  9
$DIMAUNIT
 70
     0
  9
$DIMADEC
 70
     0
  9
$DIMALTRND
 40
0.0
  9
$DIMAZIN
 70
     0
  9
$DIMDSEP
 70
     0
  9
$DIMATFIT
 70
     3
  9
$DIMFRAC
 70
     0
  9
$DIMLDRBLK
  1

  9
$DIMLUNIT
 70
     2
  9
$DIMLWD
 70
     0
  9
$DIMLWE
 70
     0
  9
$DIMTMOVE
 70
     0
  9
$LUNITS
 70
     2
  9
$LUPREC
 70
     4
  9
$SKETCHINC
 40
0.1
  9
$FILLETRAD
 40
0.0
  9
$AUNITS
 70
     0
  9
$AUPREC
 70
     0
  9
$MENU
  1
.
  9
$ELEVATION
 40
0.0
  9
$PELEVATION
 40
0.0
  9
$THICKNESS
 40
0.0
  9
$LIMCHECK
 70
     0
  9
$CHAMFERA
 40
0.0
  9
$CHAMFERB
 40
0.0
  9
$CHAMFERC
 40
0.0
  9
$CHAMFERD
 40
0.0
  9
$SKPOLY
 70
     0
  9
$TDCREATE
 40
2453353.758792454
  9
$TDUCREATE
 40
0.000000000
  9
$TDUPDATE
 40
0.000000000
  9
$TDUUPDATE
 40
2447892.958333334
  9
$TDINDWG
 40
19583144.0627810880
  9
$TDUSRTIMER
 40
0.0000000000
  9
$USRTIMER
 70
     1
  9
$ANGBASE
 50
0.0
  9
$ANGDIR
 70
     0
  9
$PDMODE
 70
     0
  9
$PDSIZE
 40
0.0
  9
$PLINEWID
 40
0.0
  9
$SPLFRAME
 70
     0
  9
$SPLINETYPE
 70
     6
  9
$SPLINESEGS
 70
     8
  9
$HANDSEED
  5
1250
  9
$SURFTAB1
 70
     6
  9
$SURFTAB2
 70
     6
  9
$SURFTYPE
 70
     6
  9
$SURFU
 70
     6
  9
$SURFV
 70
     6
  9
$UCSBASE
  2

  9
$UCSNAME
  2

  9
$UCSORG
 10
0.0
 20
0.0
 30
0.0
  9
$UCSXDIR
 10
1.0
 20
0.0
 30
0.0
  9
$UCSYDIR
 10
0.0
 20
1.0
 30
0.0
  9
$UCSORTHOREF
  2

  9
$UCSORTHOVIEW
 70
     0
  9
$UCSORGTOP
 10
0.0
 20
0.0
 30
0.0
  9
$UCSORGBOTTOM
 10
0.0
 20
0.0
 30
0.0
  9
$UCSORGLEFT
 10
0.0
 20
0.0
 30
0.0
  9
$UCSORGRIGHT
 10
0.0
 20
0.0
 30
0.0
  9
$UCSORGFRONT
 10
0.0
 20
0.0
 30
0.0
  9
$UCSORGBACK
 10
0.0
 20
0.0
 30
0.0
  9
$PUCSBASE
  2

  9
$PUCSNAME
  2

  9
$PUCSORG
 10
0.0
 20
0.0
 30
0.0
  9
$PUCSXDIR
 10
1.0
 20
0.0
 30
0.0
  9
$PUCSYDIR
 10
0.0
 20
1.0
 30
0.0
  9
$PUCSORTHOREF
  2

  9
$PUCSORTHOVIEW
 70
     0
  9
$PUCSORGTOP
 10
0.0
 20
0.0
 30
0.0
  9
$PUCSORGBOTTOM
 10
0.0
 20
0.0
 30
0.0
  9
$PUCSORGLEFT
 10
0.0
 20
0.0
 30
0.0
  9
$PUCSORGRIGHT
 10
0.0
 20
0.0
 30
0.0
  9
$PUCSORGFRONT
 10
0.0
 20
0.0
 30
0.0
  9
$PUCSORGBACK
 10
0.0
 20
0.0
 30
0.0
  9
$USERI1
 70
     0
  9
$USERI2
 70
     0
  9
$USERI3
 70
     0
  9
$USERI4
 70
     0
  9
$USERI5
 70
     0
  9
$USERR1
 40
0.0
  9
$USERR2
 40
0.0
  9
$USERR3
 40
0.0
  9
$USERR4
 40
0.0
  9
$USERR5
 40
0.0
  9
$WORLDVIEW
 70
     1
  9
$SHADEDGE
 70
     3
  9
$SHADEDIF
 70
    70
  9
$TILEMODE
 70
     1
  9
$MAXACTVP
 70
    64
  9
$PINSBASE
 10
0.0
 20
0.0
 30
0.0
  9
$PLIMCHECK
 70
     0
  9
$PEXTMIN
 10
0.0
 20
0.0
 30
0.0
  9
$PEXTMAX
 10
0.0
 20
0.0
 30
0.0
  9
$PLIMMIN
 10
0.0
 20
0.0
  9
$PLIMMAX
 10
0.0
 20
0.0
  9
$UNITMODE
 70
     0
  9
$VISRETAIN
 70
     1
  9
$PLINEGEN
 70
     0
  9
$PSLTSCALE
 70
     1
  9
$TREEDEPTH
 70
  3020
  9
$CMLSTYLE
  2
Standard
  9
$CMLJUST
 70
     0
  9
$CMLSCALE
 40
1.0
  9
$PROXYGRAPHICS
 70
     0
  9
$MEASUREMENT
 70
     0
  9
$CELWEIGHT
370
     0
  9
$ENDCAPS
280
     0
  9
$JOINSTYLE
280
     0
  9
$LWDISPLAY
290
     0
  9
$INSUNITS
 70
     0
  9
$HYPERLINKBASE
  1

  9
$STYLESHEET
  1

  9
$XEDIT
290
     1
  9
$CEPSNTYPE
380
     0
  9
$PSTYLEMODE
290
     1
  9
$FINGERPRINTGUID
  2

  9
$VERSIONGUID
  2

  9
$EXTNAMES
290
     1
  9
$PSVPSCALE
 40
0.0
  0
ENDSEC
  0
SECTION
  2
CLASSES
  0
CLASS
  1
LWPOLYLINE
  2
AcDbPolyline
  3
AutoCAD 2000
 90
        0
280
     0
281
     1
  0
CLASS
  1
IMAGE
  2
AcDbRasterImage
  3
ISM
 90
      127
280
     0
281
     1
  0
CLASS
  1
OLE2FRAME
  2
AcDbOle2Frame
  3
AutoCAD 2000
 90
        0
280
     0
281
     1
  0
CLASS
  1
HATCH
  2
AcDbHatch
  3
AutoCAD 2000
 90
        0
280
     0
281
     1
  0
CLASS
  1
DICTIONARYVAR
  2
AcDbDictionaryVar
  3
AutoCAD 2000
 90
        0
280
     0
281
     0
  0
CLASS
  1
RASTERVARIABLES
  2
AcDbRasterVariables
  3
ISM
 90
        0
280
     0
281
     0
  0
CLASS
  1
IMAGEDEF
  2
AcDbRasterImageDef
  3
ISM
 90
        0
280
     0
281
     0
  0
CLASS
  1
IMAGEDEF_REACTOR
  2
AcDbRasterImageDefReactor
  3
ISM
 90
        1
280
     0
281
     0
  0
CLASS
  1
IDBUFFER
  2
AcDbIdBuffer
  3
AutoCAD 2000
 90
        0
280
     0
281
     0
  0
CLASS
  1
SPATIAL_FILTER
  2
AcDbSpatialFilter
  3
AutoCAD 2000
 90
        0
280
     0
281
     0
  0
CLASS
  1
XRECORD
  2
AcDbXrecord
  3
AutoCAD 2000
 90
        0
280
     0
281
     0
  0
CLASS
  1
SORTENTSTABLE
  2
AcDbSortentsTable
  3
AutoCAD 2000
 90
        0
280
     0
281
     0
  0
CLASS
  1
LAYER_INDEX
  2
AcDbLayerIndex
  3
AutoCAD 2000
 90
        0
280
     0
281
     0
  0
CLASS
  1
SPATIAL_INDEX
  2
AcDbSpatialIndex
  3
AutoCAD 2000
 90
        0
280
     0
281
     0
  0
CLASS
  1
OBJECT_PTR
  2
CAseDLPNTableRecord
  3
"ASE-LPNTableRecord"
 90
        1
280
     0
281
     0
  0
CLASS
  1
LAYOUT
  2
AcDbLayout
  3
AutoCAD 2000
 90
        0
280
     0
281
     0
  0
CLASS
  1
PLOTSETTINGS
  2
AcDbPlotSettings
  3
AutoCAD 2000
 90
        0
280
     0
281
     0
  0
CLASS
  1
ACDBDICTIONARYWDFLT
  2
AcDbDictionaryWithDefault
  3
AutoCAD 2000
 90
        0
280
     0
281
     0
  0
CLASS
  1
ACDBPLACEHOLDER
  2
AcDbPlaceHolder
  3
AutoCAD 2000
 90
        0
280
     0
281
     0
  0
CLASS
  1
VBA_PROJECT
  2
AcDbVbaProject
  3
acadvba
 90
        0
280
     0
281
     0
  0
CLASS
  1
WIPEOUT
  2
AcDbWipeout
  3
WipeOut|AutoCAD Express Tool|expresstools@autodesk.com
 90
      127
280
     0
281
     1
  0
CLASS
  1
WIPEOUTVARIABLES
  2
AcDbWipeoutVariables
  3
WipeOut|AutoCAD Express Tool|expresstools@autodesk.com
 90
        0
280
     0
281
     0
  0
CLASS
  1
RTEXT
  2
RText
  3
RText|AutoCAD Express Tool|expresstools@autodesk.com
 90
        0
280
     0
281
     1
  0
CLASS
  1
ARCALIGNEDTEXT
  2
AcDbArcAlignedText
  3
ATEXT|AutoCAD Express Tool|expresstools@autodesk.com
 90
        0
280
     0
281
     1
  0
ENDSEC
  0
SECTION
  2
TABLES
  0
TABLE
  2
VPORT
  5
FB2
100
AcDbSymbolTable
 70
     1
  0
VPORT
  5
FD1
100
AcDbSymbolTableRecord
100
AcDbViewportTableRecord
  2
*ACTIVE
 70
     0
 10
0.0
 20
0.0
 11
1.0
 21
1.0
 12
450.328833
 22
266.374849
 13
0.0
 23
0.0
 14
0.5
 24
0.5
 15
0.5
 25
0.5
 16
0.0
 26
0.0
 36
1.0
 17
0.0
 27
0.0
 37
0.0
 40
620.078606
 41
1.701534
 42
50.0
 43
0.0
 44
0.0
 50
0.0
 51
0.0
 71
    16
 72
  1000
 73
     1
 74
     3
 75
     0
 76
     0
 77
     0
 78
     0
281
     0
 65
     0
110
0.0
120
0.0
130
0.0
111
1.0
121
0.0
131
0.0
112
0.0
122
1.0
132
0.0
345
0
346
0
 79
     0
146
0.0
  0
ENDTAB
  0
TABLE
  2
LTYPE
  5
FAF
100
AcDbSymbolTable
 70
     6
  0
LTYPE
  5
FB8
100
AcDbSymbolTableRecord
100
AcDbLinetypeTableRecord
  2
ByBlock
 70
    64
  3

 72
    65
 73
     0
 40
0.0
  0
LTYPE
  5
FB9
100
AcDbSymbolTableRecord
100
AcDbLinetypeTableRecord
  2
ByLayer
 70
    64
  3

 72
    65
 73
     0
 40
0.0
  0
LTYPE
  5
FBA
100
AcDbSymbolTableRecord
100
AcDbLinetypeTableRecord
  2
CONTINUOUS
 70
     0
  3
Solid line
 72
    65
 73
     0
 40
0.0
  0
LTYPE
  5
FBB
100
AcDbSymbolTableRecord
100
AcDbLinetypeTableRecord
  2
CENTER
 70
     0
  3
____ _ ____ _ ____ _ ____ _ ____ _ ____ _ ____
 72
    65
 73
     4
 40
0.6
 49
0.375
 74
     0
 49
-0.075
 74
     0
 49
0.075
 74
     0
 49
-0.075
 74
     0
  0
LTYPE
  5
FBC
100
AcDbSymbolTableRecord
100
AcDbLinetypeTableRecord
  2
ACAD_ISO02W100
 70
     0
  3
ISO Strichlinie __ __ __ __ __ __ __ __ __ __ _
 72
    65
 73
     2
 40
15.0
 49
12.0
 74
     0
 49
-3.0
 74
     0
  0
LTYPE
  5
FBD
100
AcDbSymbolTableRecord
100
AcDbLinetypeTableRecord
  2
DASHED
 70
     0
  3
_ _ _ _ _ _ _ _ _ _ _ _ _ _ _ _ _ _ _ _ _ _ _ _
 72
    65
 73
     2
 40
0.375
 49
0.25
 74
     0
 49
-0.125
 74
     0
  0
ENDTAB
  0
TABLE
  2
LAYER
  5
FAD
100
AcDbSymbolTable
 70
     8
  0
LAYER
  5
FBE
100
AcDbSymbolTableRecord
100
AcDbLayerTableRecord
  2
0
 70
     0
 62
     7
  6
CONTINUOUS
290
     1
370
    -3
390
0
  0
LAYER
  5
FBF
100
AcDbSymbolTableRecord
100
AcDbLayerTableRecord
  2
90000_FRAME
 70
     0
 62
     7
  6
CONTINUOUS
290
     1
370
    -3
390
0
  0
LAYER
  5
FC0
100
AcDbSymbolTableRecord
100
AcDbLayerTableRecord
  2
91000_TIP
 70
     0
 62
     7
  6
CONTINUOUS
290
     1
370
    -3
390
0
  0
LAYER
  5
FC1
100
AcDbSymbolTableRecord
100
AcDbLayerTableRecord
  2
10000_FRONT
 70
     0
 62
     7
  6
CONTINUOUS
290
     1
370
    -3
390
0
  0
LAYER
  5
FC2
100
AcDbSymbolTableRecord
100
AcDbLayerTableRecord
  2
11000_LEFT
 70
     0
 62
     7
  6
CONTINUOUS
290
     1
370
    -3
390
0
  0
LAYER
  5
FC5
100
AcDbSymbolTableRecord
100
AcDbLayerTableRecord
  2
DEFPOINTS
 70
     0
 62
     7
  6
CONTINUOUS
290
     0
370
    -3
390
0
  0
LAYER
  5
FC6
100
AcDbSymbolTableRecord
100
AcDbLayerTableRecord
  2
10100_FRONT_DIM
 70
     0
 62
     7
  6
CONTINUOUS
290
     1
370
    -3
390
0
  0
LAYER
  5
FC7
100
AcDbSymbolTableRecord
100
AcDbLayerTableRecord
  2
11100_LEFT_DIM
 70
     0
 62
     7
  6
CONTINUOUS
290
     1
370
    -3
390
0
  0
ENDTAB
  0
TABLE
  2
STYLE
  5
FAE
100
AcDbSymbolTable
 70
     1
  0
STYLE
  5
FD5
100
AcDbSymbolTableRecord
100
AcDbTextStyleTableRecord
  2
STANDARD
 70
     0
 40
0.0
 41
1.0
 50
0.0
 71
     0
 42
0.2
  3
txt.shx
  4

  0
ENDTAB
  0
TABLE
  2
VIEW
  5
FB0
100
AcDbSymbolTable
 70
     0
  0
ENDTAB
  0
TABLE
  2
UCS
  5
FB1
100
AcDbSymbolTable
 70
     0
  0
ENDTAB
  0
TABLE
  2
APPID
  5
FB3
100
AcDbSymbolTable
 70
     3
  0
APPID
  5
FD2
100
AcDbSymbolTableRecord
100
AcDbRegAppTableRecord
  2
ACAD
 70
     0
  0
APPID
  5
FD3
100
AcDbSymbolTableRecord
100
AcDbRegAppTableRecord
  2
AUSTER_ANSICHT
 70
     0
  0
APPID
  5
FD4
100
AcDbSymbolTableRecord
100
AcDbRegAppTableRecord
  2
AUSTER_FOLIE
 70
     0
  0
ENDTAB
  0
TABLE
  2
DIMSTYLE
  5
FB4
100
AcDbSymbolTable
 70
     3
100
AcDbDimStyleTable
 71
     0
  0
DIMSTYLE
105
FDF
100
AcDbSymbolTableRecord
100
AcDbDimStyleTableRecord
  2
STANDARD
 70
     0
  3

  4

 40
1.0
 41
0.18
 42
0.0625
 43
0.38
 44
0.18
 45
0.0
 46
0.0
 47
0.0
 48
0.0
 71
     0
 72
     0
 73
     1
 74
     1
 75
     0
 76
     0
 77
     0
 78
     0
 79
     0
140
0.18
141
0.09
142
0.0
143
25.4
144
1.0
145
0.0
146
1.0
147
0.09
148
0.0
170
     0
171
     2
172
     0
173
     0
174
     0
175
     0
176
     0
177
     0
178
     0
179
     0
271
     4
272
     4
273
     2
274
     2
275
     0
276
     0
277
     2
278
    46
279
     0
280
     0
281
     0
282
     0
283
     1
284
     0
285
     0
286
     0
288
     0
289
     3
340
FD5
341
0
342
0
343
0
344
0
371
    -2
372
    -2
  0
DIMSTYLE
105
FE0
100
AcDbSymbolTableRecord
100
AcDbDimStyleTableRecord
  2
DSTYLE1
 70
     0
  3

  4

 40
1.0
 41
3.0
 42
0.0
 43
0.38
 44
1.0
 45
0.0
 46
0.0
 47
0.0
 48
0.0
 71
     0
 72
     0
 73
     0
 74
     0
 75
     0
 76
     0
 77
     1
 78
     3
 79
     0
140
2.5
141
0.09
142
0.0
143
0.03937
144
1.0
145
0.0
146
1.0
147
1.0
148
0.0
170
     0
171
     2
172
     0
173
     0
174
     0
175
     0
176
     0
177
     0
178
     0
179
     0
271
     4
272
     4
273
     2
274
     2
275
     0
276
     0
277
     2
278
    46
279
     0
280
     0
281
     0
282
     0
283
     1
284
     0
285
     0
286
     0
288
     0
289
     3
340
FD5
341
0
342
0
343
0
344
0
371
    -2
372
    -2
  0
DIMSTYLE
105
FE1
100
AcDbSymbolTableRecord
100
AcDbDimStyleTableRecord
  2
H035
 70
     0
  3

  4

 40
0.0
 41
3.5
 42
0.0
 43
3.75
 44
2.0
 45
0.0
 46
0.0
 47
0.0
 48
0.0
 71
     0
 72
     0
 73
     0
 74
     0
 75
     0
 76
     0
 77
     1
 78
     8
 79
     0
140
3.5
141
2.5
142
0.0
143
0.039
144
1.0
145
0.0
146
1.0
147
0.5
148
0.0
170
     0
171
     4
172
     1
173
     0
174
     0
175
     0
176
   256
177
     7
178
     7
179
     0
271
     4
272
     4
273
     2
274
     2
275
     0
276
     0
277
     2
278
    46
279
     0
280
     0
281
     0
282
     0
283
     1
284
     0
285
     0
286
     0
288
     0
289
     3
340
FD5
341
0
342
0
343
0
344
0
371
    -2
372
    -2
  0
ENDTAB
  0
TABLE
  2
BLOCK_RECORD
  5
FDA
100
AcDbSymbolTable
 70
     2
  0
BLOCK_RECORD
  5
FD8
100
AcDbSymbolTableRecord
100
AcDbBlockTableRecord
  2
*Model_Space
340
0
  0
BLOCK_RECORD
  5
FD9
100
AcDbSymbolTableRecord
100
AcDbBlockTableRecord
  2
*Paper_Space
340
0
  0
BLOCK_RECORD
  5
FD6
100
AcDbSymbolTableRecord
100
AcDbBlockTableRecord
  2
$MODEL_SPACE
340
0
  0
BLOCK_RECORD
  5
FD7
100
AcDbSymbolTableRecord
100
AcDbBlockTableRecord
  2
$PAPER_SPACE
340
0
  0
ENDTAB
  0
ENDSEC
  0
SECTION
  2
BLOCKS
  0
BLOCK
  5
FDB
100
AcDbEntity
  8
0
390
0
100
AcDbBlockBegin
  2
*Model_Space
 70
     0
 10
0.0
 20
0.0
 30
0.0
  3
*Model_Space
  1

  0
ENDBLK
  5
FDC
100
AcDbEntity
  8
0
390
0
100
AcDbBlockEnd
  0
BLOCK
  5
FDD
100
AcDbEntity
 67
     1
  8
0
390
0
100
AcDbBlockBegin
  2
*Paper_Space
 70
     0
 10
0.0
 20
0.0
 30
0.0
  3
*Paper_Space
  1

  0
ENDBLK
  5
FDE
100
AcDbEntity
 67
     1
  8
0
390
0
100
AcDbBlockEnd
  0
BLOCK
  5
FE2
100
AcDbEntity
  8
0
100
AcDbBlockBegin
  2
$MODEL_SPACE
 70
     0
 10
0.0
 20
0.0
 30
0.0
  3
$MODEL_SPACE
  1

  0
ENDBLK
  5
21
100
AcDbEntity
  8
0
100
AcDbBlockEnd
  0
BLOCK
  5
FE3
100
AcDbEntity
  8
0
100
AcDbBlockBegin
  2
$PAPER_SPACE
 70
     0
 10
0.0
 20
0.0
 30
0.0
  3
$PAPER_SPACE
  1

  0
ENDBLK
  5
76
100
AcDbEntity
  8
0
100
AcDbBlockEnd
  0
ENDSEC
  0
SECTION
  2
ENTITIES
  0
LINE
  5
FE9
100
AcDbEntity
  8
10000_FRONT
370
    50
390
0
  6
CONTINUOUS
 62
     7
100
AcDbLine
 10
78.7
 20
179.5
 30
0.0
 11
79.5
 21
179.5
 31
0.0
  0
LINE
  5
FEA
100
AcDbEntity
  8
10000_FRONT
370
    50
390
0
  6
CONTINUOUS
 62
     7
100
AcDbLine
 10
77.9
 20
179.5
 30
0.0
 11
78.7
 21
179.5
 31
0.0
  0
LINE
  5
FEB
100
AcDbEntity
  8
10000_FRONT
370
    50
390
0
  6
CONTINUOUS
 62
     7
100
AcDbLine
 10
74.400001
 20
179.5
 30
0.0
 11
77.9
 21
179.5
 31
0.0
  0
LINE
  5
FEC
100
AcDbEntity
  8
10000_FRONT
370
    50
390
0
  6
CONTINUOUS
 62
     7
100
AcDbLine
 10
73.6
 20
179.5
 30
0.0
 11
74.400001
 21
179.5
 31
0.0
  0
LINE
  5
FED
100
AcDbEntity
  8
10000_FRONT
370
    50
390
0
  6
CONTINUOUS
 62
     7
100
AcDbLine
 10
162.400003
 20
179.5
 30
0.0
 11
163.199998
 21
179.5
 31
0.0
  0
LINE
  5
FEE
100
AcDbEntity
  8
10000_FRONT
370
    50
390
0
  6
CONTINUOUS
 62
     7
100
AcDbLine
 10
109.590002
 20
179.5
 30
0.0
 11
162.400003
 21
179.5
 31
0.0
  0
LINE
  5
FEF
100
AcDbEntity
  8
10000_FRONT
370
    50
390
0
  6
CONTINUOUS
 62
     7
100
AcDbLine
 10
108.6
 20
179.5
 30
0.0
 11
109.590002
 21
179.5
 31
0.0
  0
LINE
  5
FF0
100
AcDbEntity
  8
10000_FRONT
370
    50
390
0
  6
CONTINUOUS
 62
     7
100
AcDbLine
 10
98.6
 20
179.5
 30
0.0
 11
108.60005
 21
179.5
 31
0.0
  0
LINE
  5
FF1
100
AcDbEntity
  8
10000_FRONT
370
    50
390
0
  6
CONTINUOUS
 62
     7
100
AcDbLine
 10
97.6
 20
179.5
 30
0.0
 11
98.6
 21
179.5
 31
0.0
  0
LINE
  5
FF2
100
AcDbEntity
  8
10000_FRONT
370
    50
390
0
  6
CONTINUOUS
 62
     7
100
AcDbLine
 10
84.3
 20
179.5
 30
0.0
 11
97.6
 21
179.5
 31
0.0
  0
LINE
  5
FF3
100
AcDbEntity
  8
10000_FRONT
370
    50
390
0
  6
CONTINUOUS
 62
     7
100
AcDbLine
 10
83.5
 20
179.5
 30
0.0
 11
84.3
 21
179.5
 31
0.0
  0
LINE
  5
FF4
100
AcDbEntity
  8
10000_FRONT
370
    50
390
0
  6
CONTINUOUS
 62
     7
100
AcDbLine
 10
82.7
 20
179.5
 30
0.0
 11
83.5
 21
179.5
 31
0.0
  0
LINE
  5
FF5
100
AcDbEntity
  8
10000_FRONT
370
    50
390
0
  6
CONTINUOUS
 62
     7
100
AcDbLine
 10
79.5
 20
179.5
 30
0.0
 11
82.7
 21
179.5
 31
0.0
  0
LINE
  5
FF6
100
AcDbEntity
  8
10000_FRONT
370
    50
390
0
  6
CONTINUOUS
 62
     7
100
AcDbLine
 10
75.6
 20
187.200001
 30
0.0
 11
77.1
 21
187.200001
 31
0.0
  0
LINE
  5
FF7
100
AcDbEntity
  8
10000_FRONT
370
    50
390
0
  6
CONTINUOUS
 62
     7
100
AcDbLine
 10
77.1
 20
196.5
 30
0.0
 11
77.1
 21
187.200001
 31
0.0
  0
LINE
  5
FF8
100
AcDbEntity
  8
10000_FRONT
370
    50
390
0
  6
CONTINUOUS
 62
     7
100
AcDbLine
 10
75.6
 20
196.5
 30
0.0
 11
77.1
 21
196.5
 31
0.0
  0
LINE
  5
FF9
100
AcDbEntity
  8
10000_FRONT
370
    50
390
0
  6
CONTINUOUS
 62
     7
100
AcDbLine
 10
75.6
 20
187.200001
 30
0.0
 11
75.6
 21
196.5
 31
0.0
  0
LINE
  5
FFA
100
AcDbEntity
  8
10000_FRONT
370
    50
390
0
  6
CONTINUOUS
 62
     7
100
AcDbLine
 10
77.6
 20
186.700001
 30
0.0
 11
77.6
 21
183.5
 31
0.0
  0
LINE
  5
FFB
100
AcDbEntity
  8
10000_FRONT
370
    50
390
0
  6
CONTINUOUS
 62
     7
100
AcDbLine
 10
75.1
 20
186.700001
 30
0.0
 11
77.6
 21
186.700001
 31
0.0
  0
LINE
  5
FFC
100
AcDbEntity
  8
10000_FRONT
370
    50
390
0
  6
CONTINUOUS
 62
     7
100
AcDbLine
 10
75.1
 20
183.5
 30
0.0
 11
75.1
 21
186.700001
 31
0.0
  0
LINE
  5
FFD
100
AcDbEntity
  8
10000_FRONT
370
    50
390
0
  6
CONTINUOUS
 62
     7
100
AcDbLine
 10
75.6
 20
187.200001
 30
0.0
 11
75.1
 21
186.700001
 31
0.0
  0
LINE
  5
FFE
100
AcDbEntity
  8
10000_FRONT
370
    50
390
0
  6
CONTINUOUS
 62
     7
100
AcDbLine
 10
77.6
 20
186.700001
 30
0.0
 11
77.1
 21
187.200001
 31
0.0
  0
LINE
  5
FFF
100
AcDbEntity
  8
10000_FRONT
370
    50
390
0
  6
CONTINUOUS
 62
     7
100
AcDbLine
 10
84.2
 20
187.200001
 30
0.0
 11
85.7
 21
187.200001
 31
0.0
  0
LINE
  5
1000
100
AcDbEntity
  8
10000_FRONT
370
    50
390
0
  6
CONTINUOUS
 62
     7
100
AcDbLine
 10
85.7
 20
196.5
 30
0.0
 11
85.7
 21
187.200001
 31
0.0
  0
LINE
  5
1001
100
AcDbEntity
  8
10000_FRONT
370
    50
390
0
  6
CONTINUOUS
 62
     7
100
AcDbLine
 10
84.2
 20
196.5
 30
0.0
 11
85.7
 21
196.5
 31
0.0
  0
LINE
  5
1002
100
AcDbEntity
  8
10000_FRONT
370
    50
390
0
  6
CONTINUOUS
 62
     7
100
AcDbLine
 10
84.2
 20
187.200001
 30
0.0
 11
84.2
 21
196.5
 31
0.0
  0
LINE
  5
1003
100
AcDbEntity
  8
10000_FRONT
370
    50
390
0
  6
CONTINUOUS
 62
     7
100
AcDbLine
 10
86.2
 20
186.700001
 30
0.0
 11
86.2
 21
183.5
 31
0.0
  0
LINE
  5
1004
100
AcDbEntity
  8
10000_FRONT
370
    50
390
0
  6
CONTINUOUS
 62
     7
100
AcDbLine
 10
83.7
 20
186.700001
 30
0.0
 11
86.2
 21
186.700001
 31
0.0
  0
LINE
  5
1005
100
AcDbEntity
  8
10000_FRONT
370
    50
390
0
  6
CONTINUOUS
 62
     7
100
AcDbLine
 10
83.7
 20
183.5
 30
0.0
 11
83.7
 21
186.700001
 31
0.0
  0
LINE
  5
1006
100
AcDbEntity
  8
10000_FRONT
370
    50
390
0
  6
CONTINUOUS
 62
     7
100
AcDbLine
 10
84.2
 20
187.200001
 30
0.0
 11
83.7
 21
186.700001
 31
0.0
  0
LINE
  5
1007
100
AcDbEntity
  8
10000_FRONT
370
    50
390
0
  6
CONTINUOUS
 62
     7
100
AcDbLine
 10
86.2
 20
186.700001
 30
0.0
 11
85.7
 21
187.200001
 31
0.0
  0
LINE
  5
1008
100
AcDbEntity
  8
10000_FRONT
370
    50
390
0
  6
CONTINUOUS
 62
     7
100
AcDbLine
 10
92.800001
 20
187.200001
 30
0.0
 11
94.300001
 21
187.200001
 31
0.0
  0
LINE
  5
1009
100
AcDbEntity
  8
10000_FRONT
370
    50
390
0
  6
CONTINUOUS
 62
     7
100
AcDbLine
 10
94.300001
 20
196.5
 30
0.0
 11
94.300001
 21
187.200001
 31
0.0
  0
LINE
  5
100A
100
AcDbEntity
  8
10000_FRONT
370
    50
390
0
  6
CONTINUOUS
 62
     7
100
AcDbLine
 10
92.800001
 20
196.5
 30
0.0
 11
94.300001
 21
196.5
 31
0.0
  0
LINE
  5
100B
100
AcDbEntity
  8
10000_FRONT
370
    50
390
0
  6
CONTINUOUS
 62
     7
100
AcDbLine
 10
92.800001
 20
187.200001
 30
0.0
 11
92.800001
 21
196.5
 31
0.0
  0
LINE
  5
100C
100
AcDbEntity
  8
10000_FRONT
370
    50
390
0
  6
CONTINUOUS
 62
     7
100
AcDbLine
 10
94.800001
 20
186.700001
 30
0.0
 11
94.800001
 21
183.5
 31
0.0
  0
LINE
  5
100D
100
AcDbEntity
  8
10000_FRONT
370
    50
390
0
  6
CONTINUOUS
 62
     7
100
AcDbLine
 10
92.3
 20
186.700001
 30
0.0
 11
94.800001
 21
186.700001
 31
0.0
  0
LINE
  5
100E
100
AcDbEntity
  8
10000_FRONT
370
    50
390
0
  6
CONTINUOUS
 62
     7
100
AcDbLine
 10
92.3
 20
183.5
 30
0.0
 11
92.3
 21
186.700001
 31
0.0
  0
LINE
  5
100F
100
AcDbEntity
  8
10000_FRONT
370
    50
390
0
  6
CONTINUOUS
 62
     7
100
AcDbLine
 10
92.800001
 20
187.200001
 30
0.0
 11
92.3
 21
186.700001
 31
0.0
  0
LINE
  5
1010
100
AcDbEntity
  8
10000_FRONT
370
    50
390
0
  6
CONTINUOUS
 62
     7
100
AcDbLine
 10
94.800001
 20
186.700001
 30
0.0
 11
94.300001
 21
187.200001
 31
0.0
  0
LINE
  5
1011
100
AcDbEntity
  8
10000_FRONT
370
    50
390
0
  6
CONTINUOUS
 62
     7
100
AcDbLine
 10
125.300001
 20
187.200001
 30
0.0
 11
126.800001
 21
187.200001
 31
0.0
  0
LINE
  5
1012
100
AcDbEntity
  8
10000_FRONT
370
    50
390
0
  6
CONTINUOUS
 62
     7
100
AcDbLine
 10
126.800001
 20
196.5
 30
0.0
 11
126.800001
 21
187.200001
 31
0.0
  0
LINE
  5
1013
100
AcDbEntity
  8
10000_FRONT
370
    50
390
0
  6
CONTINUOUS
 62
     7
100
AcDbLine
 10
125.300001
 20
196.5
 30
0.0
 11
126.800001
 21
196.5
 31
0.0
  0
LINE
  5
1014
100
AcDbEntity
  8
10000_FRONT
370
    50
390
0
  6
CONTINUOUS
 62
     7
100
AcDbLine
 10
125.300001
 20
187.200001
 30
0.0
 11
125.300001
 21
196.5
 31
0.0
  0
LINE
  5
1015
100
AcDbEntity
  8
10000_FRONT
370
    50
390
0
  6
CONTINUOUS
 62
     7
100
AcDbLine
 10
127.300001
 20
186.700001
 30
0.0
 11
127.300001
 21
183.5
 31
0.0
  0
LINE
  5
1016
100
AcDbEntity
  8
10000_FRONT
370
    50
390
0
  6
CONTINUOUS
 62
     7
100
AcDbLine
 10
124.800001
 20
186.700001
 30
0.0
 11
127.300001
 21
186.700001
 31
0.0
  0
LINE
  5
1017
100
AcDbEntity
  8
10000_FRONT
370
    50
390
0
  6
CONTINUOUS
 62
     7
100
AcDbLine
 10
124.800001
 20
183.5
 30
0.0
 11
124.800001
 21
186.700001
 31
0.0
  0
LINE
  5
1018
100
AcDbEntity
  8
10000_FRONT
370
    50
390
0
  6
CONTINUOUS
 62
     7
100
AcDbLine
 10
125.300001
 20
187.200001
 30
0.0
 11
124.800001
 21
186.700001
 31
0.0
  0
LINE
  5
1019
100
AcDbEntity
  8
10000_FRONT
370
    50
390
0
  6
CONTINUOUS
 62
     7
100
AcDbLine
 10
127.300001
 20
186.700001
 30
0.0
 11
126.800001
 21
187.200001
 31
0.0
  0
LINE
  5
101A
100
AcDbEntity
  8
10000_FRONT
370
    50
390
0
  6
CONTINUOUS
 62
     7
100
AcDbLine
 10
133.899999
 20
187.200001
 30
0.0
 11
135.399999
 21
187.200001
 31
0.0
  0
LINE
  5
101B
100
AcDbEntity
  8
10000_FRONT
370
    50
390
0
  6
CONTINUOUS
 62
     7
100
AcDbLine
 10
135.399999
 20
196.5
 30
0.0
 11
135.399999
 21
187.200001
 31
0.0
  0
LINE
  5
101C
100
AcDbEntity
  8
10000_FRONT
370
    50
390
0
  6
CONTINUOUS
 62
     7
100
AcDbLine
 10
133.899999
 20
196.5
 30
0.0
 11
135.399999
 21
196.5
 31
0.0
  0
LINE
  5
101D
100
AcDbEntity
  8
10000_FRONT
370
    50
390
0
  6
CONTINUOUS
 62
     7
100
AcDbLine
 10
133.899999
 20
187.200001
 30
0.0
 11
133.899999
 21
196.5
 31
0.0
  0
LINE
  5
101E
100
AcDbEntity
  8
10000_FRONT
370
    50
390
0
  6
CONTINUOUS
 62
     7
100
AcDbLine
 10
135.899999
 20
186.700001
 30
0.0
 11
135.899999
 21
183.5
 31
0.0
  0
LINE
  5
101F
100
AcDbEntity
  8
10000_FRONT
370
    50
390
0
  6
CONTINUOUS
 62
     7
100
AcDbLine
 10
133.399999
 20
186.700001
 30
0.0
 11
135.899999
 21
186.700001
 31
0.0
  0
LINE
  5
1020
100
AcDbEntity
  8
10000_FRONT
370
    50
390
0
  6
CONTINUOUS
 62
     7
100
AcDbLine
 10
133.399999
 20
183.5
 30
0.0
 11
133.399999
 21
186.700001
 31
0.0
  0
LINE
  5
1021
100
AcDbEntity
  8
10000_FRONT
370
    50
390
0
  6
CONTINUOUS
 62
     7
100
AcDbLine
 10
133.899999
 20
187.200001
 30
0.0
 11
133.399999
 21
186.700001
 31
0.0
  0
LINE
  5
1022
100
AcDbEntity
  8
10000_FRONT
370
    50
390
0
  6
CONTINUOUS
 62
     7
100
AcDbLine
 10
135.899999
 20
186.700001
 30
0.0
 11
135.399999
 21
187.200001
 31
0.0
  0
LINE
  5
1023
100
AcDbEntity
  8
10000_FRONT
370
    50
390
0
  6
CONTINUOUS
 62
     7
100
AcDbLine
 10
142.500002
 20
187.200001
 30
0.0
 11
144.000002
 21
187.200001
 31
0.0
  0
LINE
  5
1024
100
AcDbEntity
  8
10000_FRONT
370
    50
390
0
  6
CONTINUOUS
 62
     7
100
AcDbLine
 10
144.000002
 20
196.5
 30
0.0
 11
144.000002
 21
187.200001
 31
0.0
  0
LINE
  5
1025
100
AcDbEntity
  8
10000_FRONT
370
    50
390
0
  6
CONTINUOUS
 62
     7
100
AcDbLine
 10
142.500002
 20
196.5
 30
0.0
 11
144.000002
 21
196.5
 31
0.0
  0
LINE
  5
1026
100
AcDbEntity
  8
10000_FRONT
370
    50
390
0
  6
CONTINUOUS
 62
     7
100
AcDbLine
 10
142.500002
 20
187.200001
 30
0.0
 11
142.500002
 21
196.5
 31
0.0
  0
LINE
  5
1027
100
AcDbEntity
  8
10000_FRONT
370
    50
390
0
  6
CONTINUOUS
 62
     7
100
AcDbLine
 10
144.500002
 20
186.700001
 30
0.0
 11
144.500002
 21
183.5
 31
0.0
  0
LINE
  5
1028
100
AcDbEntity
  8
10000_FRONT
370
    50
390
0
  6
CONTINUOUS
 62
     7
100
AcDbLine
 10
142.000002
 20
186.700001
 30
0.0
 11
144.500002
 21
186.700001
 31
0.0
  0
LINE
  5
1029
100
AcDbEntity
  8
10000_FRONT
370
    50
390
0
  6
CONTINUOUS
 62
     7
100
AcDbLine
 10
142.000002
 20
183.5
 30
0.0
 11
142.000002
 21
186.700001
 31
0.0
  0
LINE
  5
102A
100
AcDbEntity
  8
10000_FRONT
370
    50
390
0
  6
CONTINUOUS
 62
     7
100
AcDbLine
 10
142.500002
 20
187.200001
 30
0.0
 11
142.000002
 21
186.700001
 31
0.0
  0
LINE
  5
102B
100
AcDbEntity
  8
10000_FRONT
370
    50
390
0
  6
CONTINUOUS
 62
     7
100
AcDbLine
 10
144.500002
 20
186.700001
 30
0.0
 11
144.000002
 21
187.200001
 31
0.0
  0
LINE
  5
102C
100
AcDbEntity
  8
10000_FRONT
370
    50
390
0
  6
CONTINUOUS
 62
     7
100
AcDbLine
 10
110.000002
 20
187.200001
 30
0.0
 11
111.500002
 21
187.200001
 31
0.0
  0
LINE
  5
102D
100
AcDbEntity
  8
10000_FRONT
370
    50
390
0
  6
CONTINUOUS
 62
     7
100
AcDbLine
 10
111.500002
 20
196.5
 30
0.0
 11
111.500002
 21
187.200001
 31
0.0
  0
LINE
  5
102E
100
AcDbEntity
  8
10000_FRONT
370
    50
390
0
  6
CONTINUOUS
 62
     7
100
AcDbLine
 10
110.000002
 20
196.5
 30
0.0
 11
111.500002
 21
196.5
 31
0.0
  0
LINE
  5
102F
100
AcDbEntity
  8
10000_FRONT
370
    50
390
0
  6
CONTINUOUS
 62
     7
100
AcDbLine
 10
110.000002
 20
187.200001
 30
0.0
 11
110.000002
 21
196.5
 31
0.0
  0
LINE
  5
1030
100
AcDbEntity
  8
10000_FRONT
370
    50
390
0
  6
CONTINUOUS
 62
     7
100
AcDbLine
 10
112.000002
 20
186.700001
 30
0.0
 11
112.000002
 21
183.5
 31
0.0
  0
LINE
  5
1031
100
AcDbEntity
  8
10000_FRONT
370
    50
390
0
  6
CONTINUOUS
 62
     7
100
AcDbLine
 10
109.500002
 20
186.700001
 30
0.0
 11
112.000002
 21
186.700001
 31
0.0
  0
LINE
  5
1032
100
AcDbEntity
  8
10000_FRONT
370
    50
390
0
  6
CONTINUOUS
 62
     7
100
AcDbLine
 10
109.500002
 20
183.5
 30
0.0
 11
109.500002
 21
186.700001
 31
0.0
  0
LINE
  5
1033
100
AcDbEntity
  8
10000_FRONT
370
    50
390
0
  6
CONTINUOUS
 62
     7
100
AcDbLine
 10
110.000002
 20
187.200001
 30
0.0
 11
109.500002
 21
186.700001
 31
0.0
  0
LINE
  5
1034
100
AcDbEntity
  8
10000_FRONT
370
    50
390
0
  6
CONTINUOUS
 62
     7
100
AcDbLine
 10
112.000002
 20
186.700001
 30
0.0
 11
111.500002
 21
187.200001
 31
0.0
  0
LINE
  5
1035
100
AcDbEntity
  8
10000_FRONT
370
    50
390
0
  6
CONTINUOUS
 62
     7
100
AcDbLine
 10
154.799997
 20
187.200001
 30
0.0
 11
156.299997
 21
187.200001
 31
0.0
  0
LINE
  5
1036
100
AcDbEntity
  8
10000_FRONT
370
    50
390
0
  6
CONTINUOUS
 62
     7
100
AcDbLine
 10
156.299997
 20
196.5
 30
0.0
 11
156.299997
 21
187.200001
 31
0.0
  0
LINE
  5
1037
100
AcDbEntity
  8
10000_FRONT
370
    50
390
0
  6
CONTINUOUS
 62
     7
100
AcDbLine
 10
154.799997
 20
196.5
 30
0.0
 11
156.299997
 21
196.5
 31
0.0
  0
LINE
  5
1038
100
AcDbEntity
  8
10000_FRONT
370
    50
390
0
  6
CONTINUOUS
 62
     7
100
AcDbLine
 10
154.799997
 20
187.200001
 30
0.0
 11
154.799997
 21
196.5
 31
0.0
  0
LINE
  5
1039
100
AcDbEntity
  8
10000_FRONT
370
    50
390
0
  6
CONTINUOUS
 62
     7
100
AcDbLine
 10
156.799997
 20
186.700001
 30
0.0
 11
156.799997
 21
183.5
 31
0.0
  0
LINE
  5
103A
100
AcDbEntity
  8
10000_FRONT
370
    50
390
0
  6
CONTINUOUS
 62
     7
100
AcDbLine
 10
154.299997
 20
186.700001
 30
0.0
 11
156.799997
 21
186.700001
 31
0.0
  0
LINE
  5
103B
100
AcDbEntity
  8
10000_FRONT
370
    50
390
0
  6
CONTINUOUS
 62
     7
100
AcDbLine
 10
154.299997
 20
183.5
 30
0.0
 11
154.299997
 21
186.700001
 31
0.0
  0
LINE
  5
103C
100
AcDbEntity
  8
10000_FRONT
370
    50
390
0
  6
CONTINUOUS
 62
     7
100
AcDbLine
 10
154.799997
 20
187.200001
 30
0.0
 11
154.299997
 21
186.700001
 31
0.0
  0
LINE
  5
103D
100
AcDbEntity
  8
10000_FRONT
370
    50
390
0
  6
CONTINUOUS
 62
     7
100
AcDbLine
 10
156.799997
 20
186.700001
 30
0.0
 11
156.299997
 21
187.200001
 31
0.0
  0
LINE
  5
103E
100
AcDbEntity
  8
10000_FRONT
370
    50
390
0
  6
CONTINUOUS
 62
     7
100
AcDbLine
 10
73.6
 20
183.5
 30
0.0
 11
74.400001
 21
183.5
 31
0.0
  0
LINE
  5
103F
100
AcDbEntity
  8
10000_FRONT
370
    50
390
0
  6
CONTINUOUS
 62
     7
100
AcDbLine
 10
74.400001
 20
183.5
 30
0.0
 11
77.9
 21
183.5
 31
0.0
  0
LINE
  5
1040
100
AcDbEntity
  8
10000_FRONT
370
    50
390
0
  6
CONTINUOUS
 62
     7
100
AcDbLine
 10
77.9
 20
183.5
 30
0.0
 11
78.7
 21
183.5
 31
0.0
  0
LINE
  5
1041
100
AcDbEntity
  8
10000_FRONT
370
    50
390
0
  6
CONTINUOUS
 62
     7
100
AcDbLine
 10
78.7
 20
183.5
 30
0.0
 11
79.5
 21
183.5
 31
0.0
  0
LINE
  5
1042
100
AcDbEntity
  8
10000_FRONT
370
    50
390
0
  6
CONTINUOUS
 62
     7
100
AcDbLine
 10
79.5
 20
183.5
 30
0.0
 11
82.7
 21
183.5
 31
0.0
  0
LINE
  5
1043
100
AcDbEntity
  8
10000_FRONT
370
    50
390
0
  6
CONTINUOUS
 62
     7
100
AcDbLine
 10
82.7
 20
183.5
 30
0.0
 11
83.5
 21
183.5
 31
0.0
  0
LINE
  5
1044
100
AcDbEntity
  8
10000_FRONT
370
    50
390
0
  6
CONTINUOUS
 62
     7
100
AcDbLine
 10
83.5
 20
183.5
 30
0.0
 11
84.3
 21
183.5
 31
0.0
  0
LINE
  5
1045
100
AcDbEntity
  8
10000_FRONT
370
    50
390
0
  6
CONTINUOUS
 62
     7
100
AcDbLine
 10
84.3
 20
183.5
 30
0.0
 11
97.6
 21
183.5
 31
0.0
  0
LINE
  5
1046
100
AcDbEntity
  8
10000_FRONT
370
    50
390
0
  6
CONTINUOUS
 62
     7
100
AcDbLine
 10
97.6
 20
183.5
 30
0.0
 11
98.6
 21
183.5
 31
0.0
  0
LINE
  5
1047
100
AcDbEntity
  8
10000_FRONT
370
    50
390
0
  6
CONTINUOUS
 62
     7
100
AcDbLine
 10
98.6
 20
183.5
 30
0.0
 11
108.60005
 21
183.5
 31
0.0
  0
LINE
  5
1048
100
AcDbEntity
  8
10000_FRONT
370
    50
390
0
  6
CONTINUOUS
 62
     7
100
AcDbLine
 10
108.6
 20
183.5
 30
0.0
 11
109.590002
 21
183.5
 31
0.0
  0
LINE
  5
1049
100
AcDbEntity
  8
10000_FRONT
370
    50
390
0
  6
CONTINUOUS
 62
     7
100
AcDbLine
 10
109.590002
 20
183.5
 30
0.0
 11
162.400003
 21
183.5
 31
0.0
  0
LINE
  5
104A
100
AcDbEntity
  8
10000_FRONT
370
    50
390
0
  6
CONTINUOUS
 62
     7
100
AcDbLine
 10
162.400003
 20
183.5
 30
0.0
 11
163.199998
 21
183.5
 31
0.0
  0
LINE
  5
104B
100
AcDbEntity
  8
10000_FRONT
370
    50
390
0
  6
CONTINUOUS
 62
     7
100
AcDbLine
 10
78.7
 20
183.5
 30
0.0
 11
78.7
 21
179.5
 31
0.0
  0
LINE
  5
104C
100
AcDbEntity
  8
10000_FRONT
370
    50
390
0
  6
CONTINUOUS
 62
     7
100
AcDbLine
 10
79.5
 20
183.5
 30
0.0
 11
79.5
 21
179.5
 31
0.0
  0
LINE
  5
104D
100
AcDbEntity
  8
10000_FRONT
370
    50
390
0
  6
CONTINUOUS
 62
     7
100
AcDbLine
 10
82.7
 20
183.5
 30
0.0
 11
82.7
 21
179.5
 31
0.0
  0
LINE
  5
104E
100
AcDbEntity
  8
10000_FRONT
370
    50
390
0
  6
CONTINUOUS
 62
     7
100
AcDbLine
 10
83.5
 20
183.5
 30
0.0
 11
83.5
 21
179.5
 31
0.0
  0
LINE
  5
104F
100
AcDbEntity
  8
10000_FRONT
370
    50
390
0
  6
CONTINUOUS
 62
     7
100
AcDbLine
 10
84.3
 20
183.5
 30
0.0
 11
84.3
 21
179.5
 31
0.0
  0
LINE
  5
1050
100
AcDbEntity
  8
10000_FRONT
370
    50
390
0
  6
CONTINUOUS
 62
     7
100
AcDbLine
 10
97.6
 20
183.5
 30
0.0
 11
97.6
 21
179.5
 31
0.0
  0
LINE
  5
1051
100
AcDbEntity
  8
10000_FRONT
370
    50
390
0
  6
CONTINUOUS
 62
     7
100
AcDbLine
 10
98.6
 20
183.5
 30
0.0
 11
98.6
 21
179.5
 31
0.0
  0
LINE
  5
1052
100
AcDbEntity
  8
10000_FRONT
370
    50
390
0
  6
CONTINUOUS
 62
     7
100
AcDbLine
 10
109.590002
 20
183.5
 30
0.0
 11
109.590002
 21
179.5
 31
0.0
  0
LINE
  5
1053
100
AcDbEntity
  8
10000_FRONT
370
    50
390
0
  6
CONTINUOUS
 62
     7
100
AcDbLine
 10
162.400003
 20
183.5
 30
0.0
 11
162.400003
 21
179.5
 31
0.0
  0
LINE
  5
1054
100
AcDbEntity
  8
10000_FRONT
370
    50
390
0
  6
CONTINUOUS
 62
     7
100
AcDbLine
 10
163.199998
 20
183.5
 30
0.0
 11
163.199998
 21
179.5
 31
0.0
  0
LINE
  5
1055
100
AcDbEntity
  8
10000_FRONT
370
    50
390
0
  6
CONTINUOUS
 62
     7
100
AcDbLine
 10
73.6
 20
183.5
 30
0.0
 11
73.6
 21
179.5
 31
0.0
  0
LINE
  5
1056
100
AcDbEntity
  8
10000_FRONT
370
    50
390
0
  6
CONTINUOUS
 62
     7
100
AcDbLine
 10
74.400001
 20
183.5
 30
0.0
 11
74.400001
 21
179.5
 31
0.0
  0
LINE
  5
1057
100
AcDbEntity
  8
10000_FRONT
370
    50
390
0
  6
CONTINUOUS
 62
     7
100
AcDbLine
 10
77.9
 20
183.5
 30
0.0
 11
77.9
 21
179.5
 31
0.0
  0
LINE
  5
1058
100
AcDbEntity
  8
10000_FRONT
370
    50
390
0
  6
CONTINUOUS
 62
     7
100
AcDbLine
 10
108.6
 20
179.5
 30
0.0
 11
108.6
 21
183.5
 31
0.0
  0
LINE
  5
1059
100
AcDbEntity
  8
10000_FRONT
370
    50
390
0
  6
CONTINUOUS
 62
     7
100
AcDbLine
 10
101.399999
 20
219.74
 30
0.0
 11
102.899999
 21
219.74
 31
0.0
  0
LINE
  5
105A
100
AcDbEntity
  8
10000_FRONT
370
    50
390
0
  6
CONTINUOUS
 62
     7
100
AcDbLine
 10
102.899999
 20
219.74
 30
0.0
 11
102.899999
 21
229.8
 31
0.0
  0
LINE
  5
105B
100
AcDbEntity
  8
10000_FRONT
370
    50
390
0
  6
CONTINUOUS
 62
     7
100
AcDbLine
 10
101.399999
 20
229.8
 30
0.0
 11
101.399999
 21
219.74
 31
0.0
  0
LINE
  5
105C
100
AcDbEntity
  8
10000_FRONT
370
    50
390
0
  6
CONTINUOUS
 62
     7
100
AcDbLine
 10
103.399999
 20
230.3
 30
0.0
 11
103.399999
 21
233.5
 31
0.0
  0
LINE
  5
105D
100
AcDbEntity
  8
10000_FRONT
370
    50
390
0
  6
CONTINUOUS
 62
     7
100
AcDbLine
 10
100.899999
 20
233.5
 30
0.0
 11
100.899999
 21
230.3
 31
0.0
  0
LINE
  5
105E
100
AcDbEntity
  8
10000_FRONT
370
    50
390
0
  6
CONTINUOUS
 62
     7
100
AcDbLine
 10
100.899999
 20
230.3
 30
0.0
 11
103.399999
 21
230.3
 31
0.0
  0
LINE
  5
105F
100
AcDbEntity
  8
10000_FRONT
370
    50
390
0
  6
CONTINUOUS
 62
     7
100
AcDbLine
 10
101.399999
 20
229.8
 30
0.0
 11
100.899999
 21
230.3
 31
0.0
  0
LINE
  5
1060
100
AcDbEntity
  8
10000_FRONT
370
    50
390
0
  6
CONTINUOUS
 62
     7
100
AcDbLine
 10
101.399999
 20
229.8
 30
0.0
 11
102.899999
 21
229.8
 31
0.0
  0
LINE
  5
1061
100
AcDbEntity
  8
10000_FRONT
370
    50
390
0
  6
CONTINUOUS
 62
     7
100
AcDbLine
 10
103.399999
 20
230.3
 30
0.0
 11
102.899999
 21
229.8
 31
0.0
  0
LINE
  5
1062
100
AcDbEntity
  8
10000_FRONT
370
    50
390
0
  6
CONTINUOUS
 62
     7
100
AcDbLine
 10
100.899999
 20
233.5
 30
0.0
 11
103.399999
 21
233.5
 31
0.0
  0
LINE
  5
1063
100
AcDbEntity
  8
10000_FRONT
370
    50
390
0
  6
CONTINUOUS
 62
     7
100
AcDbLine
 10
110.000002
 20
219.74
 30
0.0
 11
111.500002
 21
219.74
 31
0.0
  0
LINE
  5
1064
100
AcDbEntity
  8
10000_FRONT
370
    50
390
0
  6
CONTINUOUS
 62
     7
100
AcDbLine
 10
111.500002
 20
219.74
 30
0.0
 11
111.500002
 21
229.8
 31
0.0
  0
LINE
  5
1065
100
AcDbEntity
  8
10000_FRONT
370
    50
390
0
  6
CONTINUOUS
 62
     7
100
AcDbLine
 10
110.000002
 20
229.8
 30
0.0
 11
110.000002
 21
219.74
 31
0.0
  0
LINE
  5
1066
100
AcDbEntity
  8
10000_FRONT
370
    50
390
0
  6
CONTINUOUS
 62
     7
100
AcDbLine
 10
112.000002
 20
230.3
 30
0.0
 11
112.000002
 21
233.5
 31
0.0
  0
LINE
  5
1067
100
AcDbEntity
  8
10000_FRONT
370
    50
390
0
  6
CONTINUOUS
 62
     7
100
AcDbLine
 10
109.500002
 20
233.5
 30
0.0
 11
109.500002
 21
230.3
 31
0.0
  0
LINE
  5
1068
100
AcDbEntity
  8
10000_FRONT
370
    50
390
0
  6
CONTINUOUS
 62
     7
100
AcDbLine
 10
109.500002
 20
230.3
 30
0.0
 11
112.000002
 21
230.3
 31
0.0
  0
LINE
  5
1069
100
AcDbEntity
  8
10000_FRONT
370
    50
390
0
  6
CONTINUOUS
 62
     7
100
AcDbLine
 10
110.000002
 20
229.8
 30
0.0
 11
109.500002
 21
230.3
 31
0.0
  0
LINE
  5
106A
100
AcDbEntity
  8
10000_FRONT
370
    50
390
0
  6
CONTINUOUS
 62
     7
100
AcDbLine
 10
110.000002
 20
229.8
 30
0.0
 11
111.500002
 21
229.8
 31
0.0
  0
LINE
  5
106B
100
AcDbEntity
  8
10000_FRONT
370
    50
390
0
  6
CONTINUOUS
 62
     7
100
AcDbLine
 10
112.000002
 20
230.3
 30
0.0
 11
111.500002
 21
229.8
 31
0.0
  0
LINE
  5
106C
100
AcDbEntity
  8
10000_FRONT
370
    50
390
0
  6
CONTINUOUS
 62
     7
100
AcDbLine
 10
109.500002
 20
233.5
 30
0.0
 11
112.000002
 21
233.5
 31
0.0
  0
LINE
  5
106D
100
AcDbEntity
  8
10000_FRONT
370
    50
390
0
  6
CONTINUOUS
 62
     7
100
AcDbLine
 10
146.199998
 20
219.74
 30
0.0
 11
147.699998
 21
219.74
 31
0.0
  0
LINE
  5
106E
100
AcDbEntity
  8
10000_FRONT
370
    50
390
0
  6
CONTINUOUS
 62
     7
100
AcDbLine
 10
147.699998
 20
219.74
 30
0.0
 11
147.699998
 21
229.8
 31
0.0
  0
LINE
  5
106F
100
AcDbEntity
  8
10000_FRONT
370
    50
390
0
  6
CONTINUOUS
 62
     7
100
AcDbLine
 10
146.199998
 20
229.8
 30
0.0
 11
146.199998
 21
219.74
 31
0.0
  0
LINE
  5
1070
100
AcDbEntity
  8
10000_FRONT
370
    50
390
0
  6
CONTINUOUS
 62
     7
100
AcDbLine
 10
148.199998
 20
230.3
 30
0.0
 11
148.199998
 21
233.5
 31
0.0
  0
LINE
  5
1071
100
AcDbEntity
  8
10000_FRONT
370
    50
390
0
  6
CONTINUOUS
 62
     7
100
AcDbLine
 10
145.699998
 20
233.5
 30
0.0
 11
145.699998
 21
230.3
 31
0.0
  0
LINE
  5
1072
100
AcDbEntity
  8
10000_FRONT
370
    50
390
0
  6
CONTINUOUS
 62
     7
100
AcDbLine
 10
145.699998
 20
230.3
 30
0.0
 11
148.199998
 21
230.3
 31
0.0
  0
LINE
  5
1073
100
AcDbEntity
  8
10000_FRONT
370
    50
390
0
  6
CONTINUOUS
 62
     7
100
AcDbLine
 10
146.199998
 20
229.8
 30
0.0
 11
145.699998
 21
230.3
 31
0.0
  0
LINE
  5
1074
100
AcDbEntity
  8
10000_FRONT
370
    50
390
0
  6
CONTINUOUS
 62
     7
100
AcDbLine
 10
146.199998
 20
229.8
 30
0.0
 11
147.699998
 21
229.8
 31
0.0
  0
LINE
  5
1075
100
AcDbEntity
  8
10000_FRONT
370
    50
390
0
  6
CONTINUOUS
 62
     7
100
AcDbLine
 10
148.199998
 20
230.3
 30
0.0
 11
147.699998
 21
229.8
 31
0.0
  0
LINE
  5
1076
100
AcDbEntity
  8
10000_FRONT
370
    50
390
0
  6
CONTINUOUS
 62
     7
100
AcDbLine
 10
145.699998
 20
233.5
 30
0.0
 11
148.199998
 21
233.5
 31
0.0
  0
LINE
  5
1077
100
AcDbEntity
  8
10000_FRONT
370
    50
390
0
  6
CONTINUOUS
 62
     7
100
AcDbLine
 10
154.799997
 20
219.74
 30
0.0
 11
156.299997
 21
219.74
 31
0.0
  0
LINE
  5
1078
100
AcDbEntity
  8
10000_FRONT
370
    50
390
0
  6
CONTINUOUS
 62
     7
100
AcDbLine
 10
156.299997
 20
219.74
 30
0.0
 11
156.299997
 21
229.8
 31
0.0
  0
LINE
  5
1079
100
AcDbEntity
  8
10000_FRONT
370
    50
390
0
  6
CONTINUOUS
 62
     7
100
AcDbLine
 10
154.799997
 20
229.8
 30
0.0
 11
154.799997
 21
219.74
 31
0.0
  0
LINE
  5
107A
100
AcDbEntity
  8
10000_FRONT
370
    50
390
0
  6
CONTINUOUS
 62
     7
100
AcDbLine
 10
156.799997
 20
230.3
 30
0.0
 11
156.799997
 21
233.5
 31
0.0
  0
LINE
  5
107B
100
AcDbEntity
  8
10000_FRONT
370
    50
390
0
  6
CONTINUOUS
 62
     7
100
AcDbLine
 10
154.299997
 20
233.5
 30
0.0
 11
154.299997
 21
230.3
 31
0.0
  0
LINE
  5
107C
100
AcDbEntity
  8
10000_FRONT
370
    50
390
0
  6
CONTINUOUS
 62
     7
100
AcDbLine
 10
154.299997
 20
230.3
 30
0.0
 11
156.799997
 21
230.3
 31
0.0
  0
LINE
  5
107D
100
AcDbEntity
  8
10000_FRONT
370
    50
390
0
  6
CONTINUOUS
 62
     7
100
AcDbLine
 10
154.799997
 20
229.8
 30
0.0
 11
154.299997
 21
230.3
 31
0.0
  0
LINE
  5
107E
100
AcDbEntity
  8
10000_FRONT
370
    50
390
0
  6
CONTINUOUS
 62
     7
100
AcDbLine
 10
154.799997
 20
229.8
 30
0.0
 11
156.299997
 21
229.8
 31
0.0
  0
LINE
  5
107F
100
AcDbEntity
  8
10000_FRONT
370
    50
390
0
  6
CONTINUOUS
 62
     7
100
AcDbLine
 10
156.799997
 20
230.3
 30
0.0
 11
156.299997
 21
229.8
 31
0.0
  0
LINE
  5
1080
100
AcDbEntity
  8
10000_FRONT
370
    50
390
0
  6
CONTINUOUS
 62
     7
100
AcDbLine
 10
154.299997
 20
233.5
 30
0.0
 11
156.799997
 21
233.5
 31
0.0
  0
LINE
  5
1081
100
AcDbEntity
  8
10000_FRONT
370
    50
390
0
  6
CONTINUOUS
 62
     7
100
AcDbLine
 10
156.500002
 20
237.5
 30
0.0
 11
157.299997
 21
237.5
 31
0.0
  0
LINE
  5
1082
100
AcDbEntity
  8
10000_FRONT
370
    50
390
0
  6
CONTINUOUS
 62
     7
100
AcDbLine
 10
100.399999
 20
237.5
 30
0.0
 11
101.2
 21
237.5
 31
0.0
  0
LINE
  5
1083
100
AcDbEntity
  8
10000_FRONT
370
    50
390
0
  6
CONTINUOUS
 62
     7
100
AcDbLine
 10
156.500002
 20
237.5
 30
0.0
 11
101.2
 21
237.5
 31
0.0
  0
LINE
  5
1084
100
AcDbEntity
  8
10000_FRONT
370
    50
390
0
  6
CONTINUOUS
 62
     7
100
AcDbLine
 10
157.299997
 20
233.5
 30
0.0
 11
157.299997
 21
237.5
 31
0.0
  0
LINE
  5
1085
100
AcDbEntity
  8
10000_FRONT
370
    50
390
0
  6
CONTINUOUS
 62
     7
100
AcDbLine
 10
156.500002
 20
233.5
 30
0.0
 11
156.500002
 21
237.5
 31
0.0
  0
LINE
  5
1086
100
AcDbEntity
  8
10000_FRONT
370
    50
390
0
  6
CONTINUOUS
 62
     7
100
AcDbLine
 10
156.500002
 20
233.5
 30
0.0
 11
157.299997
 21
233.5
 31
0.0
  0
LINE
  5
1087
100
AcDbEntity
  8
10000_FRONT
370
    50
390
0
  6
CONTINUOUS
 62
     7
100
AcDbLine
 10
101.2
 20
233.5
 30
0.0
 11
101.2
 21
237.5
 31
0.0
  0
LINE
  5
1088
100
AcDbEntity
  8
10000_FRONT
370
    50
390
0
  6
CONTINUOUS
 62
     7
100
AcDbLine
 10
101.2
 20
233.5
 30
0.0
 11
156.500002
 21
233.5
 31
0.0
  0
LINE
  5
1089
100
AcDbEntity
  8
10000_FRONT
370
    50
390
0
  6
CONTINUOUS
 62
     7
100
AcDbLine
 10
100.399999
 20
233.5
 30
0.0
 11
100.399999
 21
237.5
 31
0.0
  0
LINE
  5
108A
100
AcDbEntity
  8
10000_FRONT
370
    50
390
0
  6
CONTINUOUS
 62
     7
100
AcDbLine
 10
100.399999
 20
233.5
 30
0.0
 11
101.2
 21
233.5
 31
0.0
  0
LINE
  5
108B
100
AcDbEntity
  8
10000_FRONT
370
    50
390
0
  6
CONTINUOUS
 62
     7
100
AcDbLine
 10
137.6
 20
219.74
 30
0.0
 11
139.1
 21
219.74
 31
0.0
  0
LINE
  5
108C
100
AcDbEntity
  8
10000_FRONT
370
    50
390
0
  6
CONTINUOUS
 62
     7
100
AcDbLine
 10
139.1
 20
219.74
 30
0.0
 11
139.1
 21
229.8
 31
0.0
  0
LINE
  5
108D
100
AcDbEntity
  8
10000_FRONT
370
    50
390
0
  6
CONTINUOUS
 62
     7
100
AcDbLine
 10
137.6
 20
229.8
 30
0.0
 11
137.6
 21
219.74
 31
0.0
  0
LINE
  5
108E
100
AcDbEntity
  8
10000_FRONT
370
    50
390
0
  6
CONTINUOUS
 62
     7
100
AcDbLine
 10
139.6
 20
230.3
 30
0.0
 11
139.6
 21
233.5
 31
0.0
  0
LINE
  5
108F
100
AcDbEntity
  8
10000_FRONT
370
    50
390
0
  6
CONTINUOUS
 62
     7
100
AcDbLine
 10
137.1
 20
233.5
 30
0.0
 11
137.1
 21
230.3
 31
0.0
  0
LINE
  5
1090
100
AcDbEntity
  8
10000_FRONT
370
    50
390
0
  6
CONTINUOUS
 62
     7
100
AcDbLine
 10
137.1
 20
230.3
 30
0.0
 11
139.6
 21
230.3
 31
0.0
  0
LINE
  5
1091
100
AcDbEntity
  8
10000_FRONT
370
    50
390
0
  6
CONTINUOUS
 62
     7
100
AcDbLine
 10
137.6
 20
229.8
 30
0.0
 11
137.1
 21
230.3
 31
0.0
  0
LINE
  5
1092
100
AcDbEntity
  8
10000_FRONT
370
    50
390
0
  6
CONTINUOUS
 62
     7
100
AcDbLine
 10
137.6
 20
229.8
 30
0.0
 11
139.1
 21
229.8
 31
0.0
  0
LINE
  5
1093
100
AcDbEntity
  8
10000_FRONT
370
    50
390
0
  6
CONTINUOUS
 62
     7
100
AcDbLine
 10
139.6
 20
230.3
 30
0.0
 11
139.1
 21
229.8
 31
0.0
  0
LINE
  5
1094
100
AcDbEntity
  8
10000_FRONT
370
    50
390
0
  6
CONTINUOUS
 62
     7
100
AcDbLine
 10
137.1
 20
233.5
 30
0.0
 11
139.6
 21
233.5
 31
0.0
  0
LINE
  5
1095
100
AcDbEntity
  8
10000_FRONT
370
    50
390
0
  6
CONTINUOUS
 62
     7
100
AcDbLine
 10
129.000002
 20
219.74
 30
0.0
 11
130.500002
 21
219.74
 31
0.0
  0
LINE
  5
1096
100
AcDbEntity
  8
10000_FRONT
370
    50
390
0
  6
CONTINUOUS
 62
     7
100
AcDbLine
 10
130.500002
 20
219.74
 30
0.0
 11
130.500002
 21
229.8
 31
0.0
  0
LINE
  5
1097
100
AcDbEntity
  8
10000_FRONT
370
    50
390
0
  6
CONTINUOUS
 62
     7
100
AcDbLine
 10
129.000002
 20
229.8
 30
0.0
 11
129.000002
 21
219.74
 31
0.0
  0
LINE
  5
1098
100
AcDbEntity
  8
10000_FRONT
370
    50
390
0
  6
CONTINUOUS
 62
     7
100
AcDbLine
 10
131.000002
 20
230.3
 30
0.0
 11
131.000002
 21
233.5
 31
0.0
  0
LINE
  5
1099
100
AcDbEntity
  8
10000_FRONT
370
    50
390
0
  6
CONTINUOUS
 62
     7
100
AcDbLine
 10
128.500002
 20
233.5
 30
0.0
 11
128.500002
 21
230.3
 31
0.0
  0
LINE
  5
109A
100
AcDbEntity
  8
10000_FRONT
370
    50
390
0
  6
CONTINUOUS
 62
     7
100
AcDbLine
 10
128.500002
 20
230.3
 30
0.0
 11
131.000002
 21
230.3
 31
0.0
  0
LINE
  5
109B
100
AcDbEntity
  8
10000_FRONT
370
    50
390
0
  6
CONTINUOUS
 62
     7
100
AcDbLine
 10
129.000002
 20
229.8
 30
0.0
 11
128.500002
 21
230.3
 31
0.0
  0
LINE
  5
109C
100
AcDbEntity
  8
10000_FRONT
370
    50
390
0
  6
CONTINUOUS
 62
     7
100
AcDbLine
 10
129.000002
 20
229.8
 30
0.0
 11
130.500002
 21
229.8
 31
0.0
  0
LINE
  5
109D
100
AcDbEntity
  8
10000_FRONT
370
    50
390
0
  6
CONTINUOUS
 62
     7
100
AcDbLine
 10
131.000002
 20
230.3
 30
0.0
 11
130.500002
 21
229.8
 31
0.0
  0
LINE
  5
109E
100
AcDbEntity
  8
10000_FRONT
370
    50
390
0
  6
CONTINUOUS
 62
     7
100
AcDbLine
 10
128.500002
 20
233.5
 30
0.0
 11
131.000002
 21
233.5
 31
0.0
  0
LINE
  5
109F
100
AcDbEntity
  8
10000_FRONT
370
    50
390
0
  6
CONTINUOUS
 62
     7
100
AcDbLine
 10
120.399999
 20
219.74
 30
0.0
 11
121.899999
 21
219.74
 31
0.0
  0
LINE
  5
10A0
100
AcDbEntity
  8
10000_FRONT
370
    50
390
0
  6
CONTINUOUS
 62
     7
100
AcDbLine
 10
121.899999
 20
219.74
 30
0.0
 11
121.899999
 21
229.8
 31
0.0
  0
LINE
  5
10A1
100
AcDbEntity
  8
10000_FRONT
370
    50
390
0
  6
CONTINUOUS
 62
     7
100
AcDbLine
 10
120.399999
 20
229.8
 30
0.0
 11
120.399999
 21
219.74
 31
0.0
  0
LINE
  5
10A2
100
AcDbEntity
  8
10000_FRONT
370
    50
390
0
  6
CONTINUOUS
 62
     7
100
AcDbLine
 10
122.399999
 20
230.3
 30
0.0
 11
122.399999
 21
233.5
 31
0.0
  0
LINE
  5
10A3
100
AcDbEntity
  8
10000_FRONT
370
    50
390
0
  6
CONTINUOUS
 62
     7
100
AcDbLine
 10
119.899999
 20
233.5
 30
0.0
 11
119.899999
 21
230.3
 31
0.0
  0
LINE
  5
10A4
100
AcDbEntity
  8
10000_FRONT
370
    50
390
0
  6
CONTINUOUS
 62
     7
100
AcDbLine
 10
119.899999
 20
230.3
 30
0.0
 11
122.399999
 21
230.3
 31
0.0
  0
LINE
  5
10A5
100
AcDbEntity
  8
10000_FRONT
370
    50
390
0
  6
CONTINUOUS
 62
     7
100
AcDbLine
 10
120.399999
 20
229.8
 30
0.0
 11
119.899999
 21
230.3
 31
0.0
  0
LINE
  5
10A6
100
AcDbEntity
  8
10000_FRONT
370
    50
390
0
  6
CONTINUOUS
 62
     7
100
AcDbLine
 10
120.399999
 20
229.8
 30
0.0
 11
121.899999
 21
229.8
 31
0.0
  0
LINE
  5
10A7
100
AcDbEntity
  8
10000_FRONT
370
    50
390
0
  6
CONTINUOUS
 62
     7
100
AcDbLine
 10
122.399999
 20
230.3
 30
0.0
 11
121.899999
 21
229.8
 31
0.0
  0
LINE
  5
10A8
100
AcDbEntity
  8
10000_FRONT
370
    50
390
0
  6
CONTINUOUS
 62
     7
100
AcDbLine
 10
119.899999
 20
233.5
 30
0.0
 11
122.399999
 21
233.5
 31
0.0
  0
LINE
  5
10A9
100
AcDbEntity
  8
10000_FRONT
370
    50
390
0
  6
CONTINUOUS
 62
     7
100
AcDbLine
 10
92.800001
 20
219.74
 30
0.0
 11
94.300001
 21
219.74
 31
0.0
  0
LINE
  5
10AA
100
AcDbEntity
  8
10000_FRONT
370
    50
390
0
  6
CONTINUOUS
 62
     7
100
AcDbLine
 10
94.300001
 20
219.74
 30
0.0
 11
94.300001
 21
229.8
 31
0.0
  0
LINE
  5
10AB
100
AcDbEntity
  8
10000_FRONT
370
    50
390
0
  6
CONTINUOUS
 62
     7
100
AcDbLine
 10
92.800001
 20
229.8
 30
0.0
 11
92.800001
 21
219.74
 31
0.0
  0
LINE
  5
10AC
100
AcDbEntity
  8
10000_FRONT
370
    50
390
0
  6
CONTINUOUS
 62
     7
100
AcDbLine
 10
94.800001
 20
230.3
 30
0.0
 11
94.800001
 21
233.5
 31
0.0
  0
LINE
  5
10AD
100
AcDbEntity
  8
10000_FRONT
370
    50
390
0
  6
CONTINUOUS
 62
     7
100
AcDbLine
 10
92.3
 20
233.5
 30
0.0
 11
92.3
 21
230.3
 31
0.0
  0
LINE
  5
10AE
100
AcDbEntity
  8
10000_FRONT
370
    50
390
0
  6
CONTINUOUS
 62
     7
100
AcDbLine
 10
92.3
 20
230.3
 30
0.0
 11
94.800001
 21
230.3
 31
0.0
  0
LINE
  5
10AF
100
AcDbEntity
  8
10000_FRONT
370
    50
390
0
  6
CONTINUOUS
 62
     7
100
AcDbLine
 10
92.800001
 20
229.8
 30
0.0
 11
92.3
 21
230.3
 31
0.0
  0
LINE
  5
10B0
100
AcDbEntity
  8
10000_FRONT
370
    50
390
0
  6
CONTINUOUS
 62
     7
100
AcDbLine
 10
92.800001
 20
229.8
 30
0.0
 11
94.300001
 21
229.8
 31
0.0
  0
LINE
  5
10B1
100
AcDbEntity
  8
10000_FRONT
370
    50
390
0
  6
CONTINUOUS
 62
     7
100
AcDbLine
 10
94.800001
 20
230.3
 30
0.0
 11
94.300001
 21
229.8
 31
0.0
  0
LINE
  5
10B2
100
AcDbEntity
  8
10000_FRONT
370
    50
390
0
  6
CONTINUOUS
 62
     7
100
AcDbLine
 10
92.3
 20
233.5
 30
0.0
 11
94.800001
 21
233.5
 31
0.0
  0
LINE
  5
10B3
100
AcDbEntity
  8
10000_FRONT
370
    50
390
0
  6
CONTINUOUS
 62
     7
100
AcDbLine
 10
84.2
 20
219.74
 30
0.0
 11
85.7
 21
219.74
 31
0.0
  0
LINE
  5
10B4
100
AcDbEntity
  8
10000_FRONT
370
    50
390
0
  6
CONTINUOUS
 62
     7
100
AcDbLine
 10
85.7
 20
219.74
 30
0.0
 11
85.7
 21
229.8
 31
0.0
  0
LINE
  5
10B5
100
AcDbEntity
  8
10000_FRONT
370
    50
390
0
  6
CONTINUOUS
 62
     7
100
AcDbLine
 10
84.2
 20
229.8
 30
0.0
 11
84.2
 21
219.74
 31
0.0
  0
LINE
  5
10B6
100
AcDbEntity
  8
10000_FRONT
370
    50
390
0
  6
CONTINUOUS
 62
     7
100
AcDbLine
 10
86.2
 20
230.3
 30
0.0
 11
86.2
 21
233.5
 31
0.0
  0
LINE
  5
10B7
100
AcDbEntity
  8
10000_FRONT
370
    50
390
0
  6
CONTINUOUS
 62
     7
100
AcDbLine
 10
83.7
 20
233.5
 30
0.0
 11
83.7
 21
230.3
 31
0.0
  0
LINE
  5
10B8
100
AcDbEntity
  8
10000_FRONT
370
    50
390
0
  6
CONTINUOUS
 62
     7
100
AcDbLine
 10
83.7
 20
230.3
 30
0.0
 11
86.2
 21
230.3
 31
0.0
  0
LINE
  5
10B9
100
AcDbEntity
  8
10000_FRONT
370
    50
390
0
  6
CONTINUOUS
 62
     7
100
AcDbLine
 10
84.2
 20
229.8
 30
0.0
 11
83.7
 21
230.3
 31
0.0
  0
LINE
  5
10BA
100
AcDbEntity
  8
10000_FRONT
370
    50
390
0
  6
CONTINUOUS
 62
     7
100
AcDbLine
 10
84.2
 20
229.8
 30
0.0
 11
85.7
 21
229.8
 31
0.0
  0
LINE
  5
10BB
100
AcDbEntity
  8
10000_FRONT
370
    50
390
0
  6
CONTINUOUS
 62
     7
100
AcDbLine
 10
86.2
 20
230.3
 30
0.0
 11
85.7
 21
229.8
 31
0.0
  0
LINE
  5
10BC
100
AcDbEntity
  8
10000_FRONT
370
    50
390
0
  6
CONTINUOUS
 62
     7
100
AcDbLine
 10
83.7
 20
233.5
 30
0.0
 11
86.2
 21
233.5
 31
0.0
  0
LINE
  5
10BD
100
AcDbEntity
  8
10000_FRONT
370
    50
390
0
  6
CONTINUOUS
 62
     7
100
AcDbLine
 10
75.6
 20
219.74
 30
0.0
 11
77.1
 21
219.74
 31
0.0
  0
LINE
  5
10BE
100
AcDbEntity
  8
10000_FRONT
370
    50
390
0
  6
CONTINUOUS
 62
     7
100
AcDbLine
 10
77.1
 20
219.74
 30
0.0
 11
77.1
 21
229.8
 31
0.0
  0
LINE
  5
10BF
100
AcDbEntity
  8
10000_FRONT
370
    50
390
0
  6
CONTINUOUS
 62
     7
100
AcDbLine
 10
75.6
 20
229.8
 30
0.0
 11
75.6
 21
219.74
 31
0.0
  0
LINE
  5
10C0
100
AcDbEntity
  8
10000_FRONT
370
    50
390
0
  6
CONTINUOUS
 62
     7
100
AcDbLine
 10
77.6
 20
230.3
 30
0.0
 11
77.6
 21
233.5
 31
0.0
  0
LINE
  5
10C1
100
AcDbEntity
  8
10000_FRONT
370
    50
390
0
  6
CONTINUOUS
 62
     7
100
AcDbLine
 10
75.1
 20
233.5
 30
0.0
 11
75.1
 21
230.3
 31
0.0
  0
LINE
  5
10C2
100
AcDbEntity
  8
10000_FRONT
370
    50
390
0
  6
CONTINUOUS
 62
     7
100
AcDbLine
 10
75.1
 20
230.3
 30
0.0
 11
77.6
 21
230.3
 31
0.0
  0
LINE
  5
10C3
100
AcDbEntity
  8
10000_FRONT
370
    50
390
0
  6
CONTINUOUS
 62
     7
100
AcDbLine
 10
75.6
 20
229.8
 30
0.0
 11
75.1
 21
230.3
 31
0.0
  0
LINE
  5
10C4
100
AcDbEntity
  8
10000_FRONT
370
    50
390
0
  6
CONTINUOUS
 62
     7
100
AcDbLine
 10
75.6
 20
229.8
 30
0.0
 11
77.1
 21
229.8
 31
0.0
  0
LINE
  5
10C5
100
AcDbEntity
  8
10000_FRONT
370
    50
390
0
  6
CONTINUOUS
 62
     7
100
AcDbLine
 10
77.6
 20
230.3
 30
0.0
 11
77.1
 21
229.8
 31
0.0
  0
LINE
  5
10C6
100
AcDbEntity
  8
10000_FRONT
370
    50
390
0
  6
CONTINUOUS
 62
     7
100
AcDbLine
 10
75.1
 20
233.5
 30
0.0
 11
77.6
 21
233.5
 31
0.0
  0
LINE
  5
10C7
100
AcDbEntity
  8
10000_FRONT
370
    50
390
0
  6
CONTINUOUS
 62
     7
100
AcDbLine
 10
77.5
 20
233.5
 30
0.0
 11
78.1
 21
233.5
 31
0.0
  0
LINE
  5
10C8
100
AcDbEntity
  8
10000_FRONT
370
    50
390
0
  6
CONTINUOUS
 62
     7
100
AcDbLine
 10
75.3
 20
233.5
 30
0.0
 11
77.5
 21
233.5
 31
0.0
  0
LINE
  5
10C9
100
AcDbEntity
  8
10000_FRONT
370
    50
390
0
  6
CONTINUOUS
 62
     7
100
AcDbLine
 10
74.6
 20
233.5
 30
0.0
 11
75.3
 21
233.5
 31
0.0
  0
LINE
  5
10CA
100
AcDbEntity
  8
10000_FRONT
370
    50
390
0
  6
CONTINUOUS
 62
     7
100
AcDbLine
 10
71.0
 20
233.5
 30
0.0
 11
74.6
 21
233.5
 31
0.0
  0
LINE
  5
10CB
100
AcDbEntity
  8
10000_FRONT
370
    50
390
0
  6
CONTINUOUS
 62
     7
100
AcDbLine
 10
70.3
 20
233.5
 30
0.0
 11
71.0
 21
233.5
 31
0.0
  0
LINE
  5
10CC
100
AcDbEntity
  8
10000_FRONT
370
    50
390
0
  6
CONTINUOUS
 62
     7
100
AcDbLine
 10
139.500002
 20
233.5
 30
0.0
 11
140.1
 21
233.5
 31
0.0
  0
LINE
  5
10CD
100
AcDbEntity
  8
10000_FRONT
370
    50
390
0
  6
CONTINUOUS
 62
     7
100
AcDbLine
 10
137.199998
 20
233.5
 30
0.0
 11
139.500002
 21
233.5
 31
0.0
  0
LINE
  5
10CE
100
AcDbEntity
  8
10000_FRONT
370
    50
390
0
  6
CONTINUOUS
 62
     7
100
AcDbLine
 10
136.6
 20
233.5
 30
0.0
 11
137.199998
 21
233.5
 31
0.0
  0
LINE
  5
10CF
100
AcDbEntity
  8
10000_FRONT
370
    50
390
0
  6
CONTINUOUS
 62
     7
100
AcDbLine
 10
131.500002
 20
233.5
 30
0.0
 11
136.6
 21
233.5
 31
0.0
  0
LINE
  5
10D0
100
AcDbEntity
  8
10000_FRONT
370
    50
390
0
  6
CONTINUOUS
 62
     7
100
AcDbLine
 10
130.899625
 20
233.5
 30
0.0
 11
131.499704
 21
233.5
 31
0.0
  0
LINE
  5
10D1
100
AcDbEntity
  8
10000_FRONT
370
    50
390
0
  6
CONTINUOUS
 62
     7
100
AcDbLine
 10
128.599924
 20
233.5
 30
0.0
 11
130.899625
 21
233.5
 31
0.0
  0
LINE
  5
10D2
100
AcDbEntity
  8
10000_FRONT
370
    50
390
0
  6
CONTINUOUS
 62
     7
100
AcDbLine
 10
128.000002
 20
233.5
 30
0.0
 11
128.599924
 21
233.5
 31
0.0
  0
LINE
  5
10D3
100
AcDbEntity
  8
10000_FRONT
370
    50
390
0
  6
CONTINUOUS
 62
     7
100
AcDbLine
 10
122.899999
 20
233.5
 30
0.0
 11
128.000002
 21
233.5
 31
0.0
  0
LINE
  5
10D4
100
AcDbEntity
  8
10000_FRONT
370
    50
390
0
  6
CONTINUOUS
 62
     7
100
AcDbLine
 10
122.300001
 20
233.5
 30
0.0
 11
122.899999
 21
233.5
 31
0.0
  0
LINE
  5
10D5
100
AcDbEntity
  8
10000_FRONT
370
    50
390
0
  6
CONTINUOUS
 62
     7
100
AcDbLine
 10
120.000002
 20
233.5
 30
0.0
 11
122.300001
 21
233.5
 31
0.0
  0
LINE
  5
10D6
100
AcDbEntity
  8
10000_FRONT
370
    50
390
0
  6
CONTINUOUS
 62
     7
100
AcDbLine
 10
119.399999
 20
233.5
 30
0.0
 11
120.000002
 21
233.5
 31
0.0
  0
LINE
  5
10D7
100
AcDbEntity
  8
10000_FRONT
370
    50
390
0
  6
CONTINUOUS
 62
     7
100
AcDbLine
 10
95.300191
 20
233.5
 30
0.0
 11
100.900005
 21
233.5
 31
0.0
  0
LINE
  5
10D8
100
AcDbEntity
  8
10000_FRONT
370
    50
390
0
  6
CONTINUOUS
 62
     7
100
AcDbLine
 10
103.400005
 20
233.5
 30
0.0
 11
109.500005
 21
233.5
 31
0.0
  0
LINE
  5
10D9
100
AcDbEntity
  8
10000_FRONT
370
    50
390
0
  6
CONTINUOUS
 62
     7
100
AcDbLine
 10
112.000005
 20
233.5
 30
0.0
 11
119.399999
 21
233.5
 31
0.0
  0
LINE
  5
10DA
100
AcDbEntity
  8
10000_FRONT
370
    50
390
0
  6
CONTINUOUS
 62
     7
100
AcDbLine
 10
94.700191
 20
233.5
 30
0.0
 11
95.300191
 21
233.5
 31
0.0
  0
LINE
  5
10DB
100
AcDbEntity
  8
10000_FRONT
370
    50
390
0
  6
CONTINUOUS
 62
     7
100
AcDbLine
 10
92.399999
 20
233.5
 30
0.0
 11
94.700191
 21
233.5
 31
0.0
  0
LINE
  5
10DC
100
AcDbEntity
  8
10000_FRONT
370
    50
390
0
  6
CONTINUOUS
 62
     7
100
AcDbLine
 10
91.8
 20
233.5
 30
0.0
 11
92.399999
 21
233.5
 31
0.0
  0
LINE
  5
10DD
100
AcDbEntity
  8
10000_FRONT
370
    50
390
0
  6
CONTINUOUS
 62
     7
100
AcDbLine
 10
86.7
 20
233.5
 30
0.0
 11
91.8
 21
233.5
 31
0.0
  0
LINE
  5
10DE
100
AcDbEntity
  8
10000_FRONT
370
    50
390
0
  6
CONTINUOUS
 62
     7
100
AcDbLine
 10
86.1
 20
233.5
 30
0.0
 11
86.7
 21
233.5
 31
0.0
  0
LINE
  5
10DF
100
AcDbEntity
  8
10000_FRONT
370
    50
390
0
  6
CONTINUOUS
 62
     7
100
AcDbLine
 10
83.8
 20
233.5
 30
0.0
 11
86.1
 21
233.5
 31
0.0
  0
LINE
  5
10E0
100
AcDbEntity
  8
10000_FRONT
370
    50
390
0
  6
CONTINUOUS
 62
     7
100
AcDbLine
 10
83.2
 20
233.5
 30
0.0
 11
83.8
 21
233.5
 31
0.0
  0
LINE
  5
10E1
100
AcDbEntity
  8
10000_FRONT
370
    50
390
0
  6
CONTINUOUS
 62
     7
100
AcDbLine
 10
78.1
 20
233.5
 30
0.0
 11
83.2
 21
233.5
 31
0.0
  0
LINE
  5
10E2
100
AcDbEntity
  8
10000_FRONT
370
    50
390
0
  6
CONTINUOUS
 62
     7
100
AcDbLine
 10
140.1
 20
237.500007
 30
0.0
 11
140.1
 21
242.0
 31
0.0
  0
LINE
  5
10E3
100
AcDbEntity
  8
10000_FRONT
370
    50
390
0
  6
CONTINUOUS
 62
     7
100
AcDbLine
 10
70.3
 20
242.0
 30
0.0
 11
71.0
 21
242.0
 31
0.0
  0
LINE
  5
10E4
100
AcDbEntity
  8
10000_FRONT
370
    50
390
0
  6
CONTINUOUS
 62
     7
100
AcDbLine
 10
74.6
 20
242.0
 30
0.0
 11
71.0
 21
242.0
 31
0.0
  0
LINE
  5
10E5
100
AcDbEntity
  8
10000_FRONT
370
    50
390
0
  6
CONTINUOUS
 62
     7
100
AcDbLine
 10
74.6
 20
242.0
 30
0.0
 11
75.3
 21
242.0
 31
0.0
  0
LINE
  5
10E6
100
AcDbEntity
  8
10000_FRONT
370
    50
390
0
  6
CONTINUOUS
 62
     7
100
AcDbLine
 10
77.5
 20
242.0
 30
0.0
 11
75.3
 21
242.0
 31
0.0
  0
LINE
  5
10E7
100
AcDbEntity
  8
10000_FRONT
370
    50
390
0
  6
CONTINUOUS
 62
     7
100
AcDbLine
 10
77.5
 20
242.0
 30
0.0
 11
78.1
 21
242.0
 31
0.0
  0
LINE
  5
10E8
100
AcDbEntity
  8
10000_FRONT
370
    50
390
0
  6
CONTINUOUS
 62
     7
100
AcDbLine
 10
83.2
 20
242.0
 30
0.0
 11
78.1
 21
242.0
 31
0.0
  0
LINE
  5
10E9
100
AcDbEntity
  8
10000_FRONT
370
    50
390
0
  6
CONTINUOUS
 62
     7
100
AcDbLine
 10
83.2
 20
242.0
 30
0.0
 11
83.8
 21
242.0
 31
0.0
  0
LINE
  5
10EA
100
AcDbEntity
  8
10000_FRONT
370
    50
390
0
  6
CONTINUOUS
 62
     7
100
AcDbLine
 10
86.1
 20
242.0
 30
0.0
 11
83.8
 21
242.0
 31
0.0
  0
LINE
  5
10EB
100
AcDbEntity
  8
10000_FRONT
370
    50
390
0
  6
CONTINUOUS
 62
     7
100
AcDbLine
 10
86.1
 20
242.0
 30
0.0
 11
86.7
 21
242.0
 31
0.0
  0
LINE
  5
10EC
100
AcDbEntity
  8
10000_FRONT
370
    50
390
0
  6
CONTINUOUS
 62
     7
100
AcDbLine
 10
91.8
 20
242.0
 30
0.0
 11
86.7
 21
242.0
 31
0.0
  0
LINE
  5
10ED
100
AcDbEntity
  8
10000_FRONT
370
    50
390
0
  6
CONTINUOUS
 62
     7
100
AcDbLine
 10
91.8
 20
242.0
 30
0.0
 11
92.399999
 21
242.0
 31
0.0
  0
LINE
  5
10EE
100
AcDbEntity
  8
10000_FRONT
370
    50
390
0
  6
CONTINUOUS
 62
     7
100
AcDbLine
 10
94.700191
 20
242.0
 30
0.0
 11
92.399999
 21
242.0
 31
0.0
  0
LINE
  5
10EF
100
AcDbEntity
  8
10000_FRONT
370
    50
390
0
  6
CONTINUOUS
 62
     7
100
AcDbLine
 10
94.700191
 20
242.0
 30
0.0
 11
95.300191
 21
242.0
 31
0.0
  0
LINE
  5
10F0
100
AcDbEntity
  8
10000_FRONT
370
    50
390
0
  6
CONTINUOUS
 62
     7
100
AcDbLine
 10
119.399999
 20
242.0
 30
0.0
 11
95.300191
 21
242.0
 31
0.0
  0
LINE
  5
10F1
100
AcDbEntity
  8
10000_FRONT
370
    50
390
0
  6
CONTINUOUS
 62
     7
100
AcDbLine
 10
119.399999
 20
242.0
 30
0.0
 11
120.000002
 21
242.0
 31
0.0
  0
LINE
  5
10F2
100
AcDbEntity
  8
10000_FRONT
370
    50
390
0
  6
CONTINUOUS
 62
     7
100
AcDbLine
 10
122.300001
 20
242.0
 30
0.0
 11
120.000002
 21
242.0
 31
0.0
  0
LINE
  5
10F3
100
AcDbEntity
  8
10000_FRONT
370
    50
390
0
  6
CONTINUOUS
 62
     7
100
AcDbLine
 10
122.300001
 20
242.0
 30
0.0
 11
122.899999
 21
242.0
 31
0.0
  0
LINE
  5
10F4
100
AcDbEntity
  8
10000_FRONT
370
    50
390
0
  6
CONTINUOUS
 62
     7
100
AcDbLine
 10
128.000002
 20
242.0
 30
0.0
 11
122.899999
 21
242.0
 31
0.0
  0
LINE
  5
10F5
100
AcDbEntity
  8
10000_FRONT
370
    50
390
0
  6
CONTINUOUS
 62
     7
100
AcDbLine
 10
128.000002
 20
242.0
 30
0.0
 11
128.599924
 21
242.0
 31
0.0
  0
LINE
  5
10F6
100
AcDbEntity
  8
10000_FRONT
370
    50
390
0
  6
CONTINUOUS
 62
     7
100
AcDbLine
 10
130.899625
 20
242.0
 30
0.0
 11
128.599924
 21
242.0
 31
0.0
  0
LINE
  5
10F7
100
AcDbEntity
  8
10000_FRONT
370
    50
390
0
  6
CONTINUOUS
 62
     7
100
AcDbLine
 10
130.899625
 20
242.0
 30
0.0
 11
131.499704
 21
242.0
 31
0.0
  0
LINE
  5
10F8
100
AcDbEntity
  8
10000_FRONT
370
    50
390
0
  6
CONTINUOUS
 62
     7
100
AcDbLine
 10
136.6
 20
242.0
 30
0.0
 11
131.500002
 21
242.0
 31
0.0
  0
LINE
  5
10F9
100
AcDbEntity
  8
10000_FRONT
370
    50
390
0
  6
CONTINUOUS
 62
     7
100
AcDbLine
 10
136.6
 20
242.0
 30
0.0
 11
137.199998
 21
242.0
 31
0.0
  0
LINE
  5
10FA
100
AcDbEntity
  8
10000_FRONT
370
    50
390
0
  6
CONTINUOUS
 62
     7
100
AcDbLine
 10
139.500002
 20
242.0
 30
0.0
 11
137.199998
 21
242.0
 31
0.0
  0
LINE
  5
10FB
100
AcDbEntity
  8
10000_FRONT
370
    50
390
0
  6
CONTINUOUS
 62
     7
100
AcDbLine
 10
139.500002
 20
242.0
 30
0.0
 11
140.1
 21
242.0
 31
0.0
  0
LINE
  5
10FC
100
AcDbEntity
  8
10000_FRONT
370
    50
390
0
  6
CONTINUOUS
 62
     7
100
AcDbLine
 10
75.3
 20
233.5
 30
0.0
 11
75.3
 21
242.0
 31
0.0
  0
LINE
  5
10FD
100
AcDbEntity
  8
10000_FRONT
370
    50
390
0
  6
CONTINUOUS
 62
     7
100
AcDbLine
 10
74.6
 20
233.5
 30
0.0
 11
74.6
 21
242.0
 31
0.0
  0
LINE
  5
10FE
100
AcDbEntity
  8
10000_FRONT
370
    50
390
0
  6
CONTINUOUS
 62
     7
100
AcDbLine
 10
71.0
 20
233.5
 30
0.0
 11
71.0
 21
242.0
 31
0.0
  0
LINE
  5
10FF
100
AcDbEntity
  8
10000_FRONT
370
    50
390
0
  6
CONTINUOUS
 62
     7
100
AcDbLine
 10
70.3
 20
233.5
 30
0.0
 11
70.3
 21
242.0
 31
0.0
  0
LINE
  5
1100
100
AcDbEntity
  8
10000_FRONT
370
    50
390
0
  6
CONTINUOUS
 62
     7
100
AcDbLine
 10
139.500002
 20
237.500007
 30
0.0
 11
139.500002
 21
242.0
 31
0.0
  0
LINE
  5
1101
100
AcDbEntity
  8
10000_FRONT
370
    50
390
0
  6
CONTINUOUS
 62
     7
100
AcDbLine
 10
137.199998
 20
237.500007
 30
0.0
 11
137.199998
 21
242.0
 31
0.0
  0
LINE
  5
1102
100
AcDbEntity
  8
10000_FRONT
370
    50
390
0
  6
CONTINUOUS
 62
     7
100
AcDbLine
 10
136.6
 20
237.500007
 30
0.0
 11
136.6
 21
242.0
 31
0.0
  0
LINE
  5
1103
100
AcDbEntity
  8
10000_FRONT
370
    50
390
0
  6
CONTINUOUS
 62
     7
100
AcDbLine
 10
131.499704
 20
237.500007
 30
0.0
 11
131.499704
 21
242.0
 31
0.0
  0
LINE
  5
1104
100
AcDbEntity
  8
10000_FRONT
370
    50
390
0
  6
CONTINUOUS
 62
     7
100
AcDbLine
 10
130.899625
 20
237.500007
 30
0.0
 11
130.899625
 21
242.0
 31
0.0
  0
LINE
  5
1105
100
AcDbEntity
  8
10000_FRONT
370
    50
390
0
  6
CONTINUOUS
 62
     7
100
AcDbLine
 10
128.599924
 20
237.500007
 30
0.0
 11
128.599924
 21
242.0
 31
0.0
  0
LINE
  5
1106
100
AcDbEntity
  8
10000_FRONT
370
    50
390
0
  6
CONTINUOUS
 62
     7
100
AcDbLine
 10
128.000002
 20
237.500007
 30
0.0
 11
128.000002
 21
242.0
 31
0.0
  0
LINE
  5
1107
100
AcDbEntity
  8
10000_FRONT
370
    50
390
0
  6
CONTINUOUS
 62
     7
100
AcDbLine
 10
122.899999
 20
237.500007
 30
0.0
 11
122.899999
 21
242.0
 31
0.0
  0
LINE
  5
1108
100
AcDbEntity
  8
10000_FRONT
370
    50
390
0
  6
CONTINUOUS
 62
     7
100
AcDbLine
 10
122.300001
 20
237.500007
 30
0.0
 11
122.300001
 21
242.0
 31
0.0
  0
LINE
  5
1109
100
AcDbEntity
  8
10000_FRONT
370
    50
390
0
  6
CONTINUOUS
 62
     7
100
AcDbLine
 10
120.000002
 20
237.500007
 30
0.0
 11
120.000002
 21
242.0
 31
0.0
  0
LINE
  5
110A
100
AcDbEntity
  8
10000_FRONT
370
    50
390
0
  6
CONTINUOUS
 62
     7
100
AcDbLine
 10
119.399999
 20
237.500007
 30
0.0
 11
119.399999
 21
242.0
 31
0.0
  0
LINE
  5
110B
100
AcDbEntity
  8
10000_FRONT
370
    50
390
0
  6
CONTINUOUS
 62
     7
100
AcDbLine
 10
95.300191
 20
233.5
 30
0.0
 11
95.300191
 21
242.0
 31
0.0
  0
LINE
  5
110C
100
AcDbEntity
  8
10000_FRONT
370
    50
390
0
  6
CONTINUOUS
 62
     7
100
AcDbLine
 10
94.700191
 20
233.5
 30
0.0
 11
94.700191
 21
242.0
 31
0.0
  0
LINE
  5
110D
100
AcDbEntity
  8
10000_FRONT
370
    50
390
0
  6
CONTINUOUS
 62
     7
100
AcDbLine
 10
92.399999
 20
233.5
 30
0.0
 11
92.399999
 21
242.0
 31
0.0
  0
LINE
  5
110E
100
AcDbEntity
  8
10000_FRONT
370
    50
390
0
  6
CONTINUOUS
 62
     7
100
AcDbLine
 10
91.8
 20
233.5
 30
0.0
 11
91.8
 21
242.0
 31
0.0
  0
LINE
  5
110F
100
AcDbEntity
  8
10000_FRONT
370
    50
390
0
  6
CONTINUOUS
 62
     7
100
AcDbLine
 10
86.7
 20
233.5
 30
0.0
 11
86.7
 21
242.0
 31
0.0
  0
LINE
  5
1110
100
AcDbEntity
  8
10000_FRONT
370
    50
390
0
  6
CONTINUOUS
 62
     7
100
AcDbLine
 10
86.1
 20
233.5
 30
0.0
 11
86.1
 21
242.0
 31
0.0
  0
LINE
  5
1111
100
AcDbEntity
  8
10000_FRONT
370
    50
390
0
  6
CONTINUOUS
 62
     7
100
AcDbLine
 10
83.8
 20
233.5
 30
0.0
 11
83.8
 21
242.0
 31
0.0
  0
LINE
  5
1112
100
AcDbEntity
  8
10000_FRONT
370
    50
390
0
  6
CONTINUOUS
 62
     7
100
AcDbLine
 10
83.2
 20
233.5
 30
0.0
 11
83.2
 21
242.0
 31
0.0
  0
LINE
  5
1113
100
AcDbEntity
  8
10000_FRONT
370
    50
390
0
  6
CONTINUOUS
 62
     7
100
AcDbLine
 10
78.1
 20
233.5
 30
0.0
 11
78.1
 21
242.0
 31
0.0
  0
LINE
  5
1114
100
AcDbEntity
  8
10000_FRONT
370
    50
390
0
  6
CONTINUOUS
 62
     7
100
AcDbLine
 10
77.5
 20
233.5
 30
0.0
 11
77.5
 21
242.0
 31
0.0
  0
LINE
  5
1115
100
AcDbEntity
  8
10100_FRONT_DIM
370
    13
390
0
  6
CONTINUOUS
 62
     7
100
AcDbLine
 10
73.6
 20
179.5
 30
0.0
 11
73.6
 21
168.5
 31
0.0
  0
TEXT
  5
1116
100
AcDbEntity
  8
10100_FRONT_DIM
370
    13
390
0
  6
CONTINUOUS
 62
     7
100
AcDbText
 10
115.4
 20
170.0
 30
0.0
 40
2.0
  1
89.6
 72
     1
 11
118.4
 21
170.0
 31
0.0
100
AcDbText
  0
LINE
  5
1117
100
AcDbEntity
  8
10100_FRONT_DIM
370
    13
390
0
  6
CONTINUOUS
 62
     7
100
AcDbLine
 10
73.6
 20
169.5
 30
0.0
 11
163.2
 21
169.5
 31
0.0
  0
LINE
  5
1118
100
AcDbEntity
  8
10100_FRONT_DIM
370
    13
390
0
  6
CONTINUOUS
 62
     7
100
AcDbLine
 10
163.2
 20
168.5
 30
0.0
 11
163.2
 21
179.5
 31
0.0
  0
LINE
  5
1119
100
AcDbEntity
  8
10100_FRONT_DIM
370
    13
390
0
  6
CONTINUOUS
 62
     7
100
AcDbLine
 10
76.35
 20
196.5
 30
0.0
 11
76.35
 21
207.5
 31
0.0
  0
TEXT
  5
111A
100
AcDbEntity
  8
10100_FRONT_DIM
370
    13
390
0
  6
CONTINUOUS
 62
     7
100
AcDbText
 10
78.65
 20
207.0
 30
0.0
 40
2.0
  1
8.6
 72
     1
 11
80.65
 21
207.0
 31
0.0
100
AcDbText
  0
LINE
  5
111B
100
AcDbEntity
  8
10100_FRONT_DIM
370
    13
390
0
  6
CONTINUOUS
 62
     7
100
AcDbLine
 10
90.95
 20
206.5
 30
0.0
 11
70.35
 21
206.5
 31
0.0
  0
LINE
  5
111C
100
AcDbEntity
  8
10100_FRONT_DIM
370
    13
390
0
  6
CONTINUOUS
 62
     7
100
AcDbLine
 10
84.95
 20
207.5
 30
0.0
 11
84.95
 21
196.5
 31
0.0
  0
LINE
  5
111D
100
AcDbEntity
  8
10100_FRONT_DIM
370
    13
390
0
  6
CONTINUOUS
 62
     7
100
AcDbLine
 10
76.35
 20
196.5
 30
0.0
 11
76.35
 21
214.5
 31
0.0
  0
TEXT
  5
111E
100
AcDbEntity
  8
10100_FRONT_DIM
370
    13
390
0
  6
CONTINUOUS
 62
     7
100
AcDbText
 10
90.55
 20
214.0
 30
0.0
 40
2.0
  1
34.4
 72
     1
 11
93.55
 21
214.0
 31
0.0
100
AcDbText
  0
LINE
  5
111F
100
AcDbEntity
  8
10100_FRONT_DIM
370
    13
390
0
  6
CONTINUOUS
 62
     7
100
AcDbLine
 10
76.35
 20
213.5
 30
0.0
 11
110.75
 21
213.5
 31
0.0
  0
LINE
  5
1120
100
AcDbEntity
  8
10100_FRONT_DIM
370
    13
390
0
  6
CONTINUOUS
 62
     7
100
AcDbLine
 10
110.75
 20
214.5
 30
0.0
 11
110.75
 21
196.5
 31
0.0
  0
LINE
  5
1121
100
AcDbEntity
  8
10100_FRONT_DIM
370
    13
390
0
  6
CONTINUOUS
 62
     7
100
AcDbLine
 10
70.3
 20
242.0
 30
0.0
 11
70.3
 21
253.0
 31
0.0
  0
TEXT
  5
1122
100
AcDbEntity
  8
10100_FRONT_DIM
370
    13
390
0
  6
CONTINUOUS
 62
     7
100
AcDbText
 10
112.133333
 20
252.5
 30
0.0
 40
2.0
  1
87
 72
     1
 11
113.8
 21
252.5
 31
0.0
100
AcDbText
  0
LINE
  5
1123
100
AcDbEntity
  8
10100_FRONT_DIM
370
    13
390
0
  6
CONTINUOUS
 62
     7
100
AcDbLine
 10
70.3
 20
252.0
 30
0.0
 11
157.3
 21
252.0
 31
0.0
  0
LINE
  5
1124
100
AcDbEntity
  8
10100_FRONT_DIM
370
    13
390
0
  6
CONTINUOUS
 62
     7
100
AcDbLine
 10
157.3
 20
253.0
 30
0.0
 11
157.3
 21
237.5
 31
0.0
  0
SOLID
  5
1125
100
AcDbEntity
  8
10100_FRONT_DIM
370
    13
390
0
  6
CONTINUOUS
 62
     7
100
AcDbTrace
 10
77.6
 20
170.02661
 30
0.0
 11
73.6
 21
169.5
 31
0.0
 12
77.6
 22
168.97339
 32
0.0
 13
73.6
 23
169.5
 33
0.0
  0
SOLID
  5
1126
100
AcDbEntity
  8
10100_FRONT_DIM
370
    13
390
0
  6
CONTINUOUS
 62
     7
100
AcDbTrace
 10
159.2
 20
168.97339
 30
0.0
 11
163.2
 21
169.5
 31
0.0
 12
159.2
 22
170.02661
 32
0.0
 13
163.2
 23
169.5
 33
0.0
  0
SOLID
  5
1127
100
AcDbEntity
  8
10100_FRONT_DIM
370
    13
390
0
  6
CONTINUOUS
 62
     7
100
AcDbTrace
 10
72.35
 20
205.97339
 30
0.0
 11
76.35
 21
206.5
 31
0.0
 12
72.35
 22
207.02661
 32
0.0
 13
76.35
 23
206.5
 33
0.0
  0
SOLID
  5
1128
100
AcDbEntity
  8
10100_FRONT_DIM
370
    13
390
0
  6
CONTINUOUS
 62
     7
100
AcDbTrace
 10
88.95
 20
207.02661
 30
0.0
 11
84.95
 21
206.5
 31
0.0
 12
88.95
 22
205.97339
 32
0.0
 13
84.95
 23
206.5
 33
0.0
  0
SOLID
  5
1129
100
AcDbEntity
  8
10100_FRONT_DIM
370
    13
390
0
  6
CONTINUOUS
 62
     7
100
AcDbTrace
 10
80.35
 20
214.02661
 30
0.0
 11
76.35
 21
213.5
 31
0.0
 12
80.35
 22
212.97339
 32
0.0
 13
76.35
 23
213.5
 33
0.0
  0
SOLID
  5
112A
100
AcDbEntity
  8
10100_FRONT_DIM
370
    13
390
0
  6
CONTINUOUS
 62
     7
100
AcDbTrace
 10
106.75
 20
212.97339
 30
0.0
 11
110.75
 21
213.5
 31
0.0
 12
106.75
 22
214.02661
 32
0.0
 13
110.75
 23
213.5
 33
0.0
  0
SOLID
  5
112B
100
AcDbEntity
  8
10100_FRONT_DIM
370
    13
390
0
  6
CONTINUOUS
 62
     7
100
AcDbTrace
 10
74.3
 20
252.52661
 30
0.0
 11
70.3
 21
252.0
 31
0.0
 12
74.3
 22
251.47339
 32
0.0
 13
70.3
 23
252.0
 33
0.0
  0
SOLID
  5
112C
100
AcDbEntity
  8
10100_FRONT_DIM
370
    13
390
0
  6
CONTINUOUS
 62
     7
100
AcDbTrace
 10
153.3
 20
251.47339
 30
0.0
 11
157.3
 21
252.0
 31
0.0
 12
153.3
 22
252.52661
 32
0.0
 13
157.3
 23
252.0
 33
0.0
  0
LINE
  5
112D
100
AcDbEntity
  8
11000_LEFT
370
    50
390
0
  6
CONTINUOUS
 62
     7
100
AcDbLine
 10
221.399522
 20
179.5
 30
0.0
 11
222.199522
 21
179.5
 31
0.0
  0
LINE
  5
112E
100
AcDbEntity
  8
11000_LEFT
370
    50
390
0
  6
CONTINUOUS
 62
     7
100
AcDbLine
 10
201.199521
 20
179.5
 30
0.0
 11
221.399522
 21
179.5
 31
0.0
  0
LINE
  5
112F
100
AcDbEntity
  8
11000_LEFT
370
    50
390
0
  6
CONTINUOUS
 62
     7
100
AcDbLine
 10
200.199521
 20
179.5
 30
0.0
 11
201.199521
 21
179.5
 31
0.0
  0
LINE
  5
1130
100
AcDbEntity
  8
11000_LEFT
370
    50
390
0
  6
CONTINUOUS
 62
     7
100
AcDbLine
 10
196.499522
 20
179.5
 30
0.0
 11
200.199521
 21
179.5
 31
0.0
  0
LINE
  5
1131
100
AcDbEntity
  8
11000_LEFT
370
    50
390
0
  6
CONTINUOUS
 62
     7
100
AcDbLine
 10
195.699521
 20
179.5
 30
0.0
 11
196.499522
 21
179.5
 31
0.0
  0
LINE
  5
1132
100
AcDbEntity
  8
11000_LEFT
370
    50
390
0
  6
CONTINUOUS
 62
     7
100
AcDbLine
 10
227.899522
 20
179.5
 30
0.0
 11
228.699522
 21
179.5
 31
0.0
  0
LINE
  5
1133
100
AcDbEntity
  8
11000_LEFT
370
    50
390
0
  6
CONTINUOUS
 62
     7
100
AcDbLine
 10
222.199529
 20
179.5
 30
0.0
 11
227.899522
 21
179.5
 31
0.0
  0
LINE
  5
1134
100
AcDbEntity
  8
11000_LEFT
370
    50
390
0
  6
CONTINUOUS
 62
     7
100
AcDbLine
 10
220.45
 20
187.200001
 30
0.0
 11
221.2
 21
187.200001
 31
0.0
  0
LINE
  5
1135
100
AcDbEntity
  8
11000_LEFT
370
    50
390
0
  6
CONTINUOUS
 62
     7
100
AcDbLine
 10
220.45
 20
196.5
 30
0.0
 11
221.2
 21
196.5
 31
0.0
  0
LINE
  5
1136
100
AcDbEntity
  8
11000_LEFT
370
    50
390
0
  6
CONTINUOUS
 62
     7
100
AcDbLine
 10
220.45
 20
186.700001
 30
0.0
 11
221.7
 21
186.700001
 31
0.0
  0
LINE
  5
1137
100
AcDbEntity
  8
11000_LEFT
370
    50
390
0
  6
CONTINUOUS
 62
     7
100
AcDbLine
 10
219.2
 20
186.700001
 30
0.0
 11
220.45
 21
186.700001
 31
0.0
  0
LINE
  5
1138
100
AcDbEntity
  8
11000_LEFT
370
    50
390
0
  6
CONTINUOUS
 62
     7
100
AcDbLine
 10
219.7
 20
187.200001
 30
0.0
 11
220.45
 21
187.200001
 31
0.0
  0
LINE
  5
1139
100
AcDbEntity
  8
11000_LEFT
370
    50
390
0
  6
CONTINUOUS
 62
     7
100
AcDbLine
 10
219.7
 20
196.5
 30
0.0
 11
220.45
 21
196.5
 31
0.0
  0
LINE
  5
113A
100
AcDbEntity
  8
11000_LEFT
370
    50
390
0
  6
CONTINUOUS
 62
     7
100
AcDbLine
 10
200.1995
 20
183.5
 30
0.0
 11
200.1995
 21
181.0
 31
0.0
  0
LINE
  5
113B
100
AcDbEntity
  8
11000_LEFT
370
    50
390
0
  6
CONTINUOUS
 62
     7
100
AcDbLine
 10
200.1995
 20
181.0
 30
0.0
 11
198.1995
 21
181.0
 31
0.0
  0
ARC
  5
113C
100
AcDbEntity
  8
11000_LEFT
370
    50
390
0
  6
CONTINUOUS
 62
     7
100
AcDbCircle
 10
198.1995
 20
182.0
 30
0.0
 40
1.0
100
AcDbArc
 50
180.0
 51
270.000016
  0
LINE
  5
113D
100
AcDbEntity
  8
11000_LEFT
370
    50
390
0
  6
CONTINUOUS
 62
     7
100
AcDbLine
 10
197.1995
 20
182.0
 30
0.0
 11
197.1995
 21
183.5
 31
0.0
  0
LINE
  5
113E
100
AcDbEntity
  8
11000_LEFT
370
    50
390
0
  6
CONTINUOUS
 62
     7
100
AcDbLine
 10
200.1995
 20
183.5
 30
0.0
 11
200.199512
 21
183.5
 31
0.0
  0
LINE
  5
113F
100
AcDbEntity
  8
11000_LEFT
370
    50
390
0
  6
CONTINUOUS
 62
     7
100
AcDbLine
 10
196.499522
 20
183.5
 30
0.0
 11
197.1995
 21
183.5
 31
0.0
  0
LINE
  5
1140
100
AcDbEntity
  8
11000_LEFT
370
    50
390
0
  6
CONTINUOUS
 62
     7
100
AcDbLine
 10
195.699521
 20
183.5
 30
0.0
 11
196.499522
 21
183.5
 31
0.0
  0
LINE
  5
1141
100
AcDbEntity
  8
11000_LEFT
370
    50
390
0
  6
CONTINUOUS
 62
     7
100
AcDbLine
 10
200.1995
 20
183.5
 30
0.0
 11
200.199521
 21
183.5
 31
0.0
  0
LINE
  5
1142
100
AcDbEntity
  8
11000_LEFT
370
    50
390
0
  6
CONTINUOUS
 62
     7
100
AcDbLine
 10
200.199521
 20
183.5
 30
0.0
 11
201.199521
 21
183.5
 31
0.0
  0
LINE
  5
1143
100
AcDbEntity
  8
11000_LEFT
370
    50
390
0
  6
CONTINUOUS
 62
     7
100
AcDbLine
 10
201.199521
 20
183.5
 30
0.0
 11
221.399522
 21
183.5
 31
0.0
  0
LINE
  5
1144
100
AcDbEntity
  8
11000_LEFT
370
    50
390
0
  6
CONTINUOUS
 62
     7
100
AcDbLine
 10
221.399522
 20
183.5
 30
0.0
 11
222.199522
 21
183.5
 31
0.0
  0
LINE
  5
1145
100
AcDbEntity
  8
11000_LEFT
370
    50
390
0
  6
CONTINUOUS
 62
     7
100
AcDbLine
 10
222.199529
 20
183.5
 30
0.0
 11
227.899522
 21
183.5
 31
0.0
  0
LINE
  5
1146
100
AcDbEntity
  8
11000_LEFT
370
    50
390
0
  6
CONTINUOUS
 62
     7
100
AcDbLine
 10
227.899522
 20
183.5
 30
0.0
 11
228.699522
 21
183.5
 31
0.0
  0
LINE
  5
1147
100
AcDbEntity
  8
11000_LEFT
370
    50
390
0
  6
CONTINUOUS
 62
     7
100
AcDbLine
 10
196.499522
 20
183.5
 30
0.0
 11
196.499522
 21
179.5
 31
0.0
  0
LINE
  5
1148
100
AcDbEntity
  8
11000_LEFT
370
    50
390
0
  6
CONTINUOUS
 62
     7
100
AcDbLine
 10
227.899522
 20
183.5
 30
0.0
 11
227.899522
 21
179.5
 31
0.0
  0
LINE
  5
1149
100
AcDbEntity
  8
11000_LEFT
370
    50
390
0
  6
CONTINUOUS
 62
     7
100
AcDbLine
 10
228.699522
 20
183.5
 30
0.0
 11
228.699522
 21
179.5
 31
0.0
  0
LINE
  5
114A
100
AcDbEntity
  8
11000_LEFT
370
    50
390
0
  6
CONTINUOUS
 62
     7
100
AcDbLine
 10
195.699521
 20
183.5
 30
0.0
 11
195.699521
 21
179.5
 31
0.0
  0
LINE
  5
114B
100
AcDbEntity
  8
11000_LEFT
370
    50
390
0
  6
CONTINUOUS
 62
     7
100
AcDbLine
 10
200.199521
 20
183.5
 30
0.0
 11
200.199521
 21
179.5
 31
0.0
  0
LINE
  5
114C
100
AcDbEntity
  8
11000_LEFT
370
    50
390
0
  6
CONTINUOUS
 62
     7
100
AcDbLine
 10
201.199521
 20
183.5
 30
0.0
 11
201.199521
 21
179.5
 31
0.0
  0
LINE
  5
114D
100
AcDbEntity
  8
11000_LEFT
370
    50
390
0
  6
CONTINUOUS
 62
     7
100
AcDbLine
 10
221.399522
 20
183.5
 30
0.0
 11
221.399522
 21
179.5
 31
0.0
  0
LINE
  5
114E
100
AcDbEntity
  8
11000_LEFT
370
    50
390
0
  6
CONTINUOUS
 62
     7
100
AcDbLine
 10
222.199522
 20
183.5
 30
0.0
 11
222.199522
 21
179.5
 31
0.0
  0
LINE
  5
114F
100
AcDbEntity
  8
11000_LEFT
370
    50
390
0
  6
CONTINUOUS
 62
     7
100
AcDbLine
 10
221.2
 20
196.5
 30
0.0
 11
221.2
 21
187.200001
 31
0.0
  0
LINE
  5
1150
100
AcDbEntity
  8
11000_LEFT
370
    50
390
0
  6
CONTINUOUS
 62
     7
100
AcDbLine
 10
221.7
 20
186.700001
 30
0.0
 11
221.7
 21
183.5
 31
0.0
  0
LINE
  5
1151
100
AcDbEntity
  8
11000_LEFT
370
    50
390
0
  6
CONTINUOUS
 62
     7
100
AcDbLine
 10
219.2
 20
186.700001
 30
0.0
 11
219.7
 21
187.200001
 31
0.0
  0
LINE
  5
1152
100
AcDbEntity
  8
11000_LEFT
370
    50
390
0
  6
CONTINUOUS
 62
     7
100
AcDbLine
 10
219.2
 20
186.700001
 30
0.0
 11
219.7
 21
187.200001
 31
0.0
  0
LINE
  5
1153
100
AcDbEntity
  8
11000_LEFT
370
    50
390
0
  6
CONTINUOUS
 62
     7
100
AcDbLine
 10
219.2
 20
186.700001
 30
0.0
 11
219.7
 21
187.200001
 31
0.0
  0
LINE
  5
1154
100
AcDbEntity
  8
11000_LEFT
370
    50
390
0
  6
CONTINUOUS
 62
     7
100
AcDbLine
 10
219.2
 20
186.700001
 30
0.0
 11
219.7
 21
187.200001
 31
0.0
  0
LINE
  5
1155
100
AcDbEntity
  8
11000_LEFT
370
    50
390
0
  6
CONTINUOUS
 62
     7
100
AcDbLine
 10
219.2
 20
186.700001
 30
0.0
 11
219.7
 21
187.200001
 31
0.0
  0
LINE
  5
1156
100
AcDbEntity
  8
11000_LEFT
370
    50
390
0
  6
CONTINUOUS
 62
     7
100
AcDbLine
 10
219.2
 20
186.700001
 30
0.0
 11
219.7
 21
187.200001
 31
0.0
  0
LINE
  5
1157
100
AcDbEntity
  8
11000_LEFT
370
    50
390
0
  6
CONTINUOUS
 62
     7
100
AcDbLine
 10
219.2
 20
186.700001
 30
0.0
 11
219.7
 21
187.200001
 31
0.0
  0
LINE
  5
1158
100
AcDbEntity
  8
11000_LEFT
370
    50
390
0
  6
CONTINUOUS
 62
     7
100
AcDbLine
 10
219.2
 20
186.700001
 30
0.0
 11
219.7
 21
187.200001
 31
0.0
  0
LINE
  5
1159
100
AcDbEntity
  8
11000_LEFT
370
    50
390
0
  6
CONTINUOUS
 62
     7
100
AcDbLine
 10
219.2
 20
186.700001
 30
0.0
 11
219.2
 21
183.5
 31
0.0
  0
LINE
  5
115A
100
AcDbEntity
  8
11000_LEFT
370
    50
390
0
  6
CONTINUOUS
 62
     7
100
AcDbLine
 10
219.7
 20
196.5
 30
0.0
 11
219.7
 21
187.200001
 31
0.0
  0
LINE
  5
115B
100
AcDbEntity
  8
11000_LEFT
370
    50
390
0
  6
CONTINUOUS
 62
     7
100
AcDbLine
 10
219.2
 20
186.700001
 30
0.0
 11
219.2
 21
183.5
 31
0.0
  0
LINE
  5
115C
100
AcDbEntity
  8
11000_LEFT
370
    50
390
0
  6
CONTINUOUS
 62
     7
100
AcDbLine
 10
219.7
 20
196.5
 30
0.0
 11
219.7
 21
187.200001
 31
0.0
  0
LINE
  5
115D
100
AcDbEntity
  8
11000_LEFT
370
    50
390
0
  6
CONTINUOUS
 62
     7
100
AcDbLine
 10
219.2
 20
186.700001
 30
0.0
 11
219.2
 21
183.5
 31
0.0
  0
LINE
  5
115E
100
AcDbEntity
  8
11000_LEFT
370
    50
390
0
  6
CONTINUOUS
 62
     7
100
AcDbLine
 10
219.7
 20
196.5
 30
0.0
 11
219.7
 21
187.200001
 31
0.0
  0
LINE
  5
115F
100
AcDbEntity
  8
11000_LEFT
370
    50
390
0
  6
CONTINUOUS
 62
     7
100
AcDbLine
 10
219.2
 20
186.700001
 30
0.0
 11
219.2
 21
183.5
 31
0.0
  0
LINE
  5
1160
100
AcDbEntity
  8
11000_LEFT
370
    50
390
0
  6
CONTINUOUS
 62
     7
100
AcDbLine
 10
219.7
 20
196.5
 30
0.0
 11
219.7
 21
187.200001
 31
0.0
  0
LINE
  5
1161
100
AcDbEntity
  8
11000_LEFT
370
    50
390
0
  6
CONTINUOUS
 62
     7
100
AcDbLine
 10
219.2
 20
186.700001
 30
0.0
 11
219.2
 21
183.5
 31
0.0
  0
LINE
  5
1162
100
AcDbEntity
  8
11000_LEFT
370
    50
390
0
  6
CONTINUOUS
 62
     7
100
AcDbLine
 10
219.7
 20
196.5
 30
0.0
 11
219.7
 21
187.200001
 31
0.0
  0
LINE
  5
1163
100
AcDbEntity
  8
11000_LEFT
370
    50
390
0
  6
CONTINUOUS
 62
     7
100
AcDbLine
 10
219.2
 20
186.700001
 30
0.0
 11
219.2
 21
183.5
 31
0.0
  0
LINE
  5
1164
100
AcDbEntity
  8
11000_LEFT
370
    50
390
0
  6
CONTINUOUS
 62
     7
100
AcDbLine
 10
219.7
 20
196.5
 30
0.0
 11
219.7
 21
187.200001
 31
0.0
  0
LINE
  5
1165
100
AcDbEntity
  8
11000_LEFT
370
    50
390
0
  6
CONTINUOUS
 62
     7
100
AcDbLine
 10
219.2
 20
186.700001
 30
0.0
 11
219.2
 21
183.5
 31
0.0
  0
LINE
  5
1166
100
AcDbEntity
  8
11000_LEFT
370
    50
390
0
  6
CONTINUOUS
 62
     7
100
AcDbLine
 10
219.7
 20
196.5
 30
0.0
 11
219.7
 21
187.200001
 31
0.0
  0
LINE
  5
1167
100
AcDbEntity
  8
11000_LEFT
370
    50
390
0
  6
CONTINUOUS
 62
     7
100
AcDbLine
 10
221.7
 20
186.700001
 30
0.0
 11
221.2
 21
187.200001
 31
0.0
  0
LINE
  5
1168
100
AcDbEntity
  8
11000_LEFT
370
    50
390
0
  6
CONTINUOUS
 62
     7
100
AcDbLine
 10
219.2
 20
186.700001
 30
0.0
 11
219.2
 21
183.5
 31
0.0
  0
LINE
  5
1169
100
AcDbEntity
  8
11000_LEFT
370
    50
390
0
  6
CONTINUOUS
 62
     7
100
AcDbLine
 10
219.7
 20
196.5
 30
0.0
 11
219.7
 21
187.200001
 31
0.0
  0
LINE
  5
116A
100
AcDbEntity
  8
11000_LEFT
370
    50
390
0
  6
CONTINUOUS
 62
     7
100
AcDbLine
 10
219.7
 20
219.74
 30
0.0
 11
219.7
 21
229.8
 31
0.0
  0
LINE
  5
116B
100
AcDbEntity
  8
11000_LEFT
370
    50
390
0
  6
CONTINUOUS
 62
     7
100
AcDbLine
 10
219.2
 20
230.3
 30
0.0
 11
219.2
 21
233.5
 31
0.0
  0
LINE
  5
116C
100
AcDbEntity
  8
11000_LEFT
370
    50
390
0
  6
CONTINUOUS
 62
     7
100
AcDbLine
 10
219.2
 20
230.3
 30
0.0
 11
219.7
 21
229.8
 31
0.0
  0
LINE
  5
116D
100
AcDbEntity
  8
11000_LEFT
370
    50
390
0
  6
CONTINUOUS
 62
     7
100
AcDbLine
 10
219.7
 20
219.74
 30
0.0
 11
219.7
 21
229.8
 31
0.0
  0
LINE
  5
116E
100
AcDbEntity
  8
11000_LEFT
370
    50
390
0
  6
CONTINUOUS
 62
     7
100
AcDbLine
 10
219.2
 20
230.3
 30
0.0
 11
219.2
 21
233.5
 31
0.0
  0
LINE
  5
116F
100
AcDbEntity
  8
11000_LEFT
370
    50
390
0
  6
CONTINUOUS
 62
     7
100
AcDbLine
 10
219.2
 20
230.3
 30
0.0
 11
219.7
 21
229.8
 31
0.0
  0
LINE
  5
1170
100
AcDbEntity
  8
11000_LEFT
370
    50
390
0
  6
CONTINUOUS
 62
     7
100
AcDbLine
 10
219.7
 20
219.74
 30
0.0
 11
219.7
 21
229.8
 31
0.0
  0
LINE
  5
1171
100
AcDbEntity
  8
11000_LEFT
370
    50
390
0
  6
CONTINUOUS
 62
     7
100
AcDbLine
 10
219.2
 20
230.3
 30
0.0
 11
219.2
 21
233.5
 31
0.0
  0
LINE
  5
1172
100
AcDbEntity
  8
11000_LEFT
370
    50
390
0
  6
CONTINUOUS
 62
     7
100
AcDbLine
 10
219.2
 20
230.3
 30
0.0
 11
219.7
 21
229.8
 31
0.0
  0
LINE
  5
1173
100
AcDbEntity
  8
11000_LEFT
370
    50
390
0
  6
CONTINUOUS
 62
     7
100
AcDbLine
 10
219.7
 20
219.74
 30
0.0
 11
219.7
 21
229.8
 31
0.0
  0
LINE
  5
1174
100
AcDbEntity
  8
11000_LEFT
370
    50
390
0
  6
CONTINUOUS
 62
     7
100
AcDbLine
 10
219.2
 20
230.3
 30
0.0
 11
219.2
 21
233.5
 31
0.0
  0
LINE
  5
1175
100
AcDbEntity
  8
11000_LEFT
370
    50
390
0
  6
CONTINUOUS
 62
     7
100
AcDbLine
 10
219.2
 20
230.3
 30
0.0
 11
219.7
 21
229.8
 31
0.0
  0
LINE
  5
1176
100
AcDbEntity
  8
11000_LEFT
370
    50
390
0
  6
CONTINUOUS
 62
     7
100
AcDbLine
 10
230.9
 20
237.5
 30
0.0
 11
222.200006
 21
237.5
 31
0.0
  0
LINE
  5
1177
100
AcDbEntity
  8
11000_LEFT
370
    50
390
0
  6
CONTINUOUS
 62
     7
100
AcDbLine
 10
230.9
 20
237.5
 30
0.0
 11
231.7
 21
237.5
 31
0.0
  0
LINE
  5
1178
100
AcDbEntity
  8
11000_LEFT
370
    50
390
0
  6
CONTINUOUS
 62
     7
100
AcDbLine
 10
231.7
 20
233.5
 30
0.0
 11
231.7
 21
237.5
 31
0.0
  0
LINE
  5
1179
100
AcDbEntity
  8
11000_LEFT
370
    50
390
0
  6
CONTINUOUS
 62
     7
100
AcDbLine
 10
230.9
 20
233.5
 30
0.0
 11
230.9
 21
237.5
 31
0.0
  0
LINE
  5
117A
100
AcDbEntity
  8
11000_LEFT
370
    50
390
0
  6
CONTINUOUS
 62
     7
100
AcDbLine
 10
230.9
 20
233.5
 30
0.0
 11
231.7
 21
233.5
 31
0.0
  0
LINE
  5
117B
100
AcDbEntity
  8
11000_LEFT
370
    50
390
0
  6
CONTINUOUS
 62
     7
100
AcDbLine
 10
221.700017
 20
233.5
 30
0.0
 11
230.9
 21
233.5
 31
0.0
  0
LINE
  5
117C
100
AcDbEntity
  8
11000_LEFT
370
    50
390
0
  6
CONTINUOUS
 62
     7
100
AcDbLine
 10
218.7
 20
233.5
 30
0.0
 11
219.199997
 21
233.5
 31
0.0
  0
LINE
  5
117D
100
AcDbEntity
  8
11000_LEFT
370
    50
390
0
  6
CONTINUOUS
 62
     7
100
AcDbLine
 10
219.7
 20
219.74
 30
0.0
 11
219.7
 21
229.8
 31
0.0
  0
LINE
  5
117E
100
AcDbEntity
  8
11000_LEFT
370
    50
390
0
  6
CONTINUOUS
 62
     7
100
AcDbLine
 10
219.2
 20
230.3
 30
0.0
 11
219.2
 21
233.5
 31
0.0
  0
LINE
  5
117F
100
AcDbEntity
  8
11000_LEFT
370
    50
390
0
  6
CONTINUOUS
 62
     7
100
AcDbLine
 10
219.2
 20
230.3
 30
0.0
 11
219.7
 21
229.8
 31
0.0
  0
LINE
  5
1180
100
AcDbEntity
  8
11000_LEFT
370
    50
390
0
  6
CONTINUOUS
 62
     7
100
AcDbLine
 10
219.7
 20
219.74
 30
0.0
 11
219.7
 21
229.8
 31
0.0
  0
LINE
  5
1181
100
AcDbEntity
  8
11000_LEFT
370
    50
390
0
  6
CONTINUOUS
 62
     7
100
AcDbLine
 10
219.2
 20
230.3
 30
0.0
 11
219.2
 21
233.5
 31
0.0
  0
LINE
  5
1182
100
AcDbEntity
  8
11000_LEFT
370
    50
390
0
  6
CONTINUOUS
 62
     7
100
AcDbLine
 10
219.2
 20
230.3
 30
0.0
 11
219.7
 21
229.8
 31
0.0
  0
LINE
  5
1183
100
AcDbEntity
  8
11000_LEFT
370
    50
390
0
  6
CONTINUOUS
 62
     7
100
AcDbLine
 10
219.7
 20
219.74
 30
0.0
 11
219.7
 21
229.8
 31
0.0
  0
LINE
  5
1184
100
AcDbEntity
  8
11000_LEFT
370
    50
390
0
  6
CONTINUOUS
 62
     7
100
AcDbLine
 10
219.2
 20
230.3
 30
0.0
 11
219.2
 21
233.5
 31
0.0
  0
LINE
  5
1185
100
AcDbEntity
  8
11000_LEFT
370
    50
390
0
  6
CONTINUOUS
 62
     7
100
AcDbLine
 10
219.2
 20
230.3
 30
0.0
 11
219.7
 21
229.8
 31
0.0
  0
LINE
  5
1186
100
AcDbEntity
  8
11000_LEFT
370
    50
390
0
  6
CONTINUOUS
 62
     7
100
AcDbLine
 10
219.7
 20
219.74
 30
0.0
 11
219.7
 21
229.8
 31
0.0
  0
LINE
  5
1187
100
AcDbEntity
  8
11000_LEFT
370
    50
390
0
  6
CONTINUOUS
 62
     7
100
AcDbLine
 10
219.2
 20
230.3
 30
0.0
 11
219.2
 21
233.5
 31
0.0
  0
LINE
  5
1188
100
AcDbEntity
  8
11000_LEFT
370
    50
390
0
  6
CONTINUOUS
 62
     7
100
AcDbLine
 10
219.2
 20
230.3
 30
0.0
 11
219.7
 21
229.8
 31
0.0
  0
LINE
  5
1189
100
AcDbEntity
  8
11000_LEFT
370
    50
390
0
  6
CONTINUOUS
 62
     7
100
AcDbLine
 10
219.7
 20
219.74
 30
0.0
 11
219.7
 21
229.8
 31
0.0
  0
LINE
  5
118A
100
AcDbEntity
  8
11000_LEFT
370
    50
390
0
  6
CONTINUOUS
 62
     7
100
AcDbLine
 10
219.2
 20
230.3
 30
0.0
 11
219.2
 21
233.5
 31
0.0
  0
LINE
  5
118B
100
AcDbEntity
  8
11000_LEFT
370
    50
390
0
  6
CONTINUOUS
 62
     7
100
AcDbLine
 10
219.2
 20
230.3
 30
0.0
 11
219.7
 21
229.8
 31
0.0
  0
LINE
  5
118C
100
AcDbEntity
  8
11000_LEFT
370
    50
390
0
  6
CONTINUOUS
 62
     7
100
AcDbLine
 10
219.7
 20
219.74
 30
0.0
 11
220.45
 21
219.74
 31
0.0
  0
LINE
  5
118D
100
AcDbEntity
  8
11000_LEFT
370
    50
390
0
  6
CONTINUOUS
 62
     7
100
AcDbLine
 10
220.45
 20
219.74
 30
0.0
 11
221.2
 21
219.74
 31
0.0
  0
LINE
  5
118E
100
AcDbEntity
  8
11000_LEFT
370
    50
390
0
  6
CONTINUOUS
 62
     7
100
AcDbLine
 10
219.7
 20
229.8
 30
0.0
 11
220.45
 21
229.8
 31
0.0
  0
LINE
  5
118F
100
AcDbEntity
  8
11000_LEFT
370
    50
390
0
  6
CONTINUOUS
 62
     7
100
AcDbLine
 10
219.2
 20
233.5
 30
0.0
 11
220.45
 21
233.5
 31
0.0
  0
LINE
  5
1190
100
AcDbEntity
  8
11000_LEFT
370
    50
390
0
  6
CONTINUOUS
 62
     7
100
AcDbLine
 10
219.2
 20
230.3
 30
0.0
 11
220.45
 21
230.3
 31
0.0
  0
LINE
  5
1191
100
AcDbEntity
  8
11000_LEFT
370
    50
390
0
  6
CONTINUOUS
 62
     7
100
AcDbLine
 10
220.45
 20
230.3
 30
0.0
 11
221.7
 21
230.3
 31
0.0
  0
LINE
  5
1192
100
AcDbEntity
  8
11000_LEFT
370
    50
390
0
  6
CONTINUOUS
 62
     7
100
AcDbLine
 10
220.45
 20
229.8
 30
0.0
 11
221.2
 21
229.8
 31
0.0
  0
LINE
  5
1193
100
AcDbEntity
  8
11000_LEFT
370
    50
390
0
  6
CONTINUOUS
 62
     7
100
AcDbLine
 10
220.45
 20
233.5
 30
0.0
 11
221.7
 21
233.5
 31
0.0
  0
LINE
  5
1194
100
AcDbEntity
  8
11000_LEFT
370
    50
390
0
  6
CONTINUOUS
 62
     7
100
AcDbLine
 10
219.7
 20
219.74
 30
0.0
 11
219.7
 21
229.8
 31
0.0
  0
LINE
  5
1195
100
AcDbEntity
  8
11000_LEFT
370
    50
390
0
  6
CONTINUOUS
 62
     7
100
AcDbLine
 10
219.2
 20
230.3
 30
0.0
 11
219.2
 21
233.5
 31
0.0
  0
LINE
  5
1196
100
AcDbEntity
  8
11000_LEFT
370
    50
390
0
  6
CONTINUOUS
 62
     7
100
AcDbLine
 10
221.7
 20
230.3
 30
0.0
 11
221.2
 21
229.8
 31
0.0
  0
LINE
  5
1197
100
AcDbEntity
  8
11000_LEFT
370
    50
390
0
  6
CONTINUOUS
 62
     7
100
AcDbLine
 10
219.2
 20
230.3
 30
0.0
 11
219.7
 21
229.8
 31
0.0
  0
LINE
  5
1198
100
AcDbEntity
  8
11000_LEFT
370
    50
390
0
  6
CONTINUOUS
 62
     7
100
AcDbLine
 10
221.7
 20
230.3
 30
0.0
 11
221.7
 21
233.5
 31
0.0
  0
LINE
  5
1199
100
AcDbEntity
  8
11000_LEFT
370
    50
390
0
  6
CONTINUOUS
 62
     7
100
AcDbLine
 10
221.2
 20
219.74
 30
0.0
 11
221.2
 21
229.8
 31
0.0
  0
LINE
  5
119A
100
AcDbEntity
  8
11000_LEFT
370
    50
390
0
  6
CONTINUOUS
 62
     7
100
AcDbLine
 10
221.5
 20
233.5
 30
0.0
 11
222.2
 21
233.5
 31
0.0
  0
LINE
  5
119B
100
AcDbEntity
  8
11000_LEFT
370
    50
390
0
  6
CONTINUOUS
 62
     7
100
AcDbLine
 10
214.45
 20
233.5
 30
0.0
 11
221.5
 21
233.5
 31
0.0
  0
LINE
  5
119C
100
AcDbEntity
  8
11000_LEFT
370
    50
390
0
  6
CONTINUOUS
 62
     7
100
AcDbLine
 10
213.75
 20
233.5
 30
0.0
 11
214.45
 21
233.5
 31
0.0
  0
LINE
  5
119D
100
AcDbEntity
  8
11000_LEFT
370
    50
390
0
  6
CONTINUOUS
 62
     7
100
AcDbLine
 10
211.65
 20
233.5
 30
0.0
 11
213.75
 21
233.5
 31
0.0
  0
LINE
  5
119E
100
AcDbEntity
  8
11000_LEFT
370
    50
390
0
  6
CONTINUOUS
 62
     7
100
AcDbLine
 10
210.95
 20
233.5
 30
0.0
 11
211.65
 21
233.5
 31
0.0
  0
LINE
  5
119F
100
AcDbEntity
  8
11000_LEFT
370
    50
390
0
  6
CONTINUOUS
 62
     7
100
AcDbLine
 10
209.15
 20
233.5
 30
0.0
 11
210.95
 21
233.5
 31
0.0
  0
LINE
  5
11A0
100
AcDbEntity
  8
11000_LEFT
370
    50
390
0
  6
CONTINUOUS
 62
     7
100
AcDbLine
 10
208.45
 20
233.5
 30
0.0
 11
209.15
 21
233.5
 31
0.0
  0
LINE
  5
11A1
100
AcDbEntity
  8
11000_LEFT
370
    50
390
0
  6
CONTINUOUS
 62
     7
100
AcDbLine
 10
205.9
 20
233.5
 30
0.0
 11
208.45
 21
233.5
 31
0.0
  0
LINE
  5
11A2
100
AcDbEntity
  8
11000_LEFT
370
    50
390
0
  6
CONTINUOUS
 62
     7
100
AcDbLine
 10
205.2
 20
233.5
 30
0.0
 11
205.9
 21
233.5
 31
0.0
  0
LINE
  5
11A3
100
AcDbEntity
  8
11000_LEFT
370
    50
390
0
  6
CONTINUOUS
 62
     7
100
AcDbLine
 10
205.2
 20
236.1
 30
0.0
 11
205.9
 21
236.1
 31
0.0
  0
LINE
  5
11A4
100
AcDbEntity
  8
11000_LEFT
370
    50
390
0
  6
CONTINUOUS
 62
     7
100
AcDbLine
 10
208.45
 20
236.1
 30
0.0
 11
205.9
 21
236.1
 31
0.0
  0
LINE
  5
11A5
100
AcDbEntity
  8
11000_LEFT
370
    50
390
0
  6
CONTINUOUS
 62
     7
100
AcDbLine
 10
208.45
 20
239.4
 30
0.0
 11
209.15
 21
239.4
 31
0.0
  0
LINE
  5
11A6
100
AcDbEntity
  8
11000_LEFT
370
    50
390
0
  6
CONTINUOUS
 62
     7
100
AcDbLine
 10
210.95
 20
239.4
 30
0.0
 11
209.15
 21
239.4
 31
0.0
  0
LINE
  5
11A7
100
AcDbEntity
  8
11000_LEFT
370
    50
390
0
  6
CONTINUOUS
 62
     7
100
AcDbLine
 10
208.45
 20
233.5
 30
0.0
 11
208.45
 21
239.4
 31
0.0
  0
LINE
  5
11A8
100
AcDbEntity
  8
11000_LEFT
370
    50
390
0
  6
CONTINUOUS
 62
     7
100
AcDbLine
 10
205.9
 20
233.5
 30
0.0
 11
205.9
 21
236.1
 31
0.0
  0
LINE
  5
11A9
100
AcDbEntity
  8
11000_LEFT
370
    50
390
0
  6
CONTINUOUS
 62
     7
100
AcDbLine
 10
205.2
 20
233.5
 30
0.0
 11
205.2
 21
236.1
 31
0.0
  0
LINE
  5
11AA
100
AcDbEntity
  8
11000_LEFT
370
    50
390
0
  6
CONTINUOUS
 62
     7
100
AcDbLine
 10
210.95
 20
242.0
 30
0.0
 11
211.65
 21
242.0
 31
0.0
  0
LINE
  5
11AB
100
AcDbEntity
  8
11000_LEFT
370
    50
390
0
  6
CONTINUOUS
 62
     7
100
AcDbLine
 10
213.75
 20
242.0
 30
0.0
 11
211.65
 21
242.0
 31
0.0
  0
LINE
  5
11AC
100
AcDbEntity
  8
11000_LEFT
370
    50
390
0
  6
CONTINUOUS
 62
     7
100
AcDbLine
 10
213.75
 20
242.0
 30
0.0
 11
214.45
 21
242.0
 31
0.0
  0
LINE
  5
11AD
100
AcDbEntity
  8
11000_LEFT
370
    50
390
0
  6
CONTINUOUS
 62
     7
100
AcDbLine
 10
221.5
 20
242.0
 30
0.0
 11
214.45
 21
242.0
 31
0.0
  0
LINE
  5
11AE
100
AcDbEntity
  8
11000_LEFT
370
    50
390
0
  6
CONTINUOUS
 62
     7
100
AcDbLine
 10
221.5
 20
242.0
 30
0.0
 11
222.2
 21
242.0
 31
0.0
  0
LINE
  5
11AF
100
AcDbEntity
  8
11000_LEFT
370
    50
390
0
  6
CONTINUOUS
 62
     7
100
AcDbLine
 10
210.95
 20
233.5
 30
0.0
 11
210.95
 21
242.0
 31
0.0
  0
LINE
  5
11B0
100
AcDbEntity
  8
11000_LEFT
370
    50
390
0
  6
CONTINUOUS
 62
     7
100
AcDbLine
 10
222.2
 20
233.5
 30
0.0
 11
222.2
 21
242.0
 31
0.0
  0
LINE
  5
11B1
100
AcDbEntity
  8
11000_LEFT
370
    50
390
0
  6
CONTINUOUS
 62
     7
100
AcDbLine
 10
221.5
 20
233.5
 30
0.0
 11
221.5
 21
242.0
 31
0.0
  0
LINE
  5
11B2
100
AcDbEntity
  8
11000_LEFT
370
    50
390
0
  6
CONTINUOUS
 62
     7
100
AcDbLine
 10
214.45
 20
233.5
 30
0.0
 11
214.45
 21
242.0
 31
0.0
  0
LINE
  5
11B3
100
AcDbEntity
  8
11000_LEFT
370
    50
390
0
  6
CONTINUOUS
 62
     7
100
AcDbLine
 10
213.75
 20
233.5
 30
0.0
 11
213.75
 21
242.0
 31
0.0
  0
LINE
  5
11B4
100
AcDbEntity
  8
11000_LEFT
370
    50
390
0
  6
CONTINUOUS
 62
     7
100
AcDbLine
 10
211.65
 20
233.5
 30
0.0
 11
211.65
 21
242.0
 31
0.0
  0
LINE
  5
11B5
100
AcDbEntity
  8
11000_LEFT
370
    50
390
0
  6
CONTINUOUS
 62
     7
100
AcDbLine
 10
209.15
 20
233.5
 30
0.0
 11
209.15
 21
239.4
 31
0.0
  0
LINE
  5
11B6
100
AcDbEntity
  8
11100_LEFT_DIM
370
    13
390
0
  6
CONTINUOUS
 62
     7
100
AcDbLine
 10
195.7
 20
183.5
 30
0.0
 11
195.7
 21
207.5
 31
0.0
  0
TEXT
  5
11B7
100
AcDbEntity
  8
11100_LEFT_DIM
370
    13
390
0
  6
CONTINUOUS
 62
     7
100
AcDbText
 10
210.533333
 20
207.0
 30
0.0
 40
2.0
  1
33
 72
     1
 11
212.2
 21
207.0
 31
0.0
100
AcDbText
  0
LINE
  5
11B8
100
AcDbEntity
  8
11100_LEFT_DIM
370
    13
390
0
  6
CONTINUOUS
 62
     7
100
AcDbLine
 10
195.7
 20
206.5
 30
0.0
 11
228.7
 21
206.5
 31
0.0
  0
LINE
  5
11B9
100
AcDbEntity
  8
11100_LEFT_DIM
370
    13
390
0
  6
CONTINUOUS
 62
     7
100
AcDbLine
 10
228.7
 20
207.5
 30
0.0
 11
228.7
 21
183.5
 31
0.0
  0
LINE
  5
11BA
100
AcDbEntity
  8
11100_LEFT_DIM
370
    13
390
0
  6
CONTINUOUS
 62
     7
100
AcDbLine
 10
195.7
 20
179.5
 30
0.0
 11
184.7
 21
179.5
 31
0.0
  0
TEXT
  5
11BB
100
AcDbEntity
  8
11100_LEFT_DIM
370
    13
390
0
  6
CONTINUOUS
 62
     7
100
AcDbText
 10
185.2
 20
185.0
 30
0.0
 40
2.0
  1
29.4
 50
90.0
 51
360.0
 72
     1
 11
185.2
 21
188.0
 31
0.0
100
AcDbText
  0
LINE
  5
11BC
100
AcDbEntity
  8
11100_LEFT_DIM
370
    13
390
0
  6
CONTINUOUS
 62
     7
100
AcDbLine
 10
185.7
 20
202.5
 30
0.0
 11
185.7
 21
173.5
 31
0.0
  0
LINE
  5
11BD
100
AcDbEntity
  8
11100_LEFT_DIM
370
    13
390
0
  6
CONTINUOUS
 62
     7
100
AcDbLine
 10
184.7
 20
196.5
 30
0.0
 11
219.7
 21
196.5
 31
0.0
  0
LINE
  5
11BE
100
AcDbEntity
  8
11100_LEFT_DIM
370
    13
390
0
  6
CONTINUOUS
 62
     7
100
AcDbLine
 10
205.2
 20
242.0
 30
0.0
 11
205.2
 21
253.0
 31
0.0
  0
TEXT
  5
11BF
100
AcDbEntity
  8
11100_LEFT_DIM
370
    13
390
0
  6
CONTINUOUS
 62
     7
100
AcDbText
 10
215.45
 20
252.5
 30
0.0
 40
2.0
  1
26.5
 72
     1
 11
218.45
 21
252.5
 31
0.0
100
AcDbText
  0
LINE
  5
11C0
100
AcDbEntity
  8
11100_LEFT_DIM
370
    13
390
0
  6
CONTINUOUS
 62
     7
100
AcDbLine
 10
205.2
 20
252.0
 30
0.0
 11
231.7
 21
252.0
 31
0.0
  0
LINE
  5
11C1
100
AcDbEntity
  8
11100_LEFT_DIM
370
    13
390
0
  6
CONTINUOUS
 62
     7
100
AcDbLine
 10
231.7
 20
253.0
 30
0.0
 11
231.7
 21
237.5
 31
0.0
  0
LINE
  5
11C2
100
AcDbEntity
  8
11100_LEFT_DIM
370
    13
390
0
  6
CONTINUOUS
 62
     7
100
AcDbLine
 10
219.7
 20
219.7
 30
0.0
 11
194.2
 21
219.7
 31
0.0
  0
TEXT
  5
11C3
100
AcDbEntity
  8
11100_LEFT_DIM
370
    13
390
0
  6
CONTINUOUS
 62
     7
100
AcDbText
 10
194.7
 20
227.85
 30
0.0
 40
2.0
  1
22.3
 50
90.0
 51
360.0
 72
     1
 11
194.7
 21
230.85
 31
0.0
100
AcDbText
  0
LINE
  5
11C4
100
AcDbEntity
  8
11100_LEFT_DIM
370
    13
390
0
  6
CONTINUOUS
 62
     7
100
AcDbLine
 10
195.2
 20
219.7
 30
0.0
 11
195.2
 21
242.0
 31
0.0
  0
LINE
  5
11C5
100
AcDbEntity
  8
11100_LEFT_DIM
370
    13
390
0
  6
CONTINUOUS
 62
     7
100
AcDbLine
 10
194.2
 20
242.0
 30
0.0
 11
205.2
 21
242.0
 31
0.0
  0
SOLID
  5
11C6
100
AcDbEntity
  8
11100_LEFT_DIM
370
    13
390
0
  6
CONTINUOUS
 62
     7
100
AcDbTrace
 10
199.7
 20
207.02661
 30
0.0
 11
195.7
 21
206.5
 31
0.0
 12
199.7
 22
205.97339
 32
0.0
 13
195.7
 23
206.5
 33
0.0
  0
SOLID
  5
11C7
100
AcDbEntity
  8
11100_LEFT_DIM
370
    13
390
0
  6
CONTINUOUS
 62
     7
100
AcDbTrace
 10
224.7
 20
205.97339
 30
0.0
 11
228.7
 21
206.5
 31
0.0
 12
224.7
 22
207.02661
 32
0.0
 13
228.7
 23
206.5
 33
0.0
  0
SOLID
  5
11C8
100
AcDbEntity
  8
11100_LEFT_DIM
370
    13
390
0
  6
CONTINUOUS
 62
     7
100
AcDbTrace
 10
186.22661
 20
175.5
 30
0.0
 11
185.7
 21
179.5
 31
0.0
 12
185.17339
 22
175.5
 32
0.0
 13
185.7
 23
179.5
 33
0.0
  0
SOLID
  5
11C9
100
AcDbEntity
  8
11100_LEFT_DIM
370
    13
390
0
  6
CONTINUOUS
 62
     7
100
AcDbTrace
 10
185.17339
 20
200.5
 30
0.0
 11
185.7
 21
196.5
 31
0.0
 12
186.22661
 22
200.5
 32
0.0
 13
185.7
 23
196.5
 33
0.0
  0
SOLID
  5
11CA
100
AcDbEntity
  8
11100_LEFT_DIM
370
    13
390
0
  6
CONTINUOUS
 62
     7
100
AcDbTrace
 10
209.2
 20
252.52661
 30
0.0
 11
205.2
 21
252.0
 31
0.0
 12
209.2
 22
251.47339
 32
0.0
 13
205.2
 23
252.0
 33
0.0
  0
SOLID
  5
11CB
100
AcDbEntity
  8
11100_LEFT_DIM
370
    13
390
0
  6
CONTINUOUS
 62
     7
100
AcDbTrace
 10
227.7
 20
251.47339
 30
0.0
 11
231.7
 21
252.0
 31
0.0
 12
227.7
 22
252.52661
 32
0.0
 13
231.7
 23
252.0
 33
0.0
  0
SOLID
  5
11CC
100
AcDbEntity
  8
11100_LEFT_DIM
370
    13
390
0
  6
CONTINUOUS
 62
     7
100
AcDbTrace
 10
194.67339
 20
223.7
 30
0.0
 11
195.2
 21
219.7
 31
0.0
 12
195.72661
 22
223.7
 32
0.0
 13
195.2
 23
219.7
 33
0.0
  0
SOLID
  5
11CD
100
AcDbEntity
  8
11100_LEFT_DIM
370
    13
390
0
  6
CONTINUOUS
 62
     7
100
AcDbTrace
 10
195.72661
 20
238.0
 30
0.0
 11
195.2
 21
242.0
 31
0.0
 12
194.67339
 22
238.0
 32
0.0
 13
195.2
 23
242.0
 33
0.0
  0
LINE
  5
11CE
100
AcDbEntity
  8
90000_FRAME
370
    13
  6
CONTINUOUS
 62
     7
100
AcDbLine
 10
50.704072
 20
59.496858
 30
0.0
 11
50.704072
 21
329.496858
 31
0.0
  0
LINE
  5
11CF
100
AcDbEntity
  8
90000_FRAME
370
    13
  6
CONTINUOUS
 62
     7
100
AcDbLine
 10
250.704072
 20
329.496858
 30
0.0
 11
50.704072
 21
329.496858
 31
0.0
  0
LINE
  5
11D0
100
AcDbEntity
  8
91000_TIP
370
    13
  6
CONTINUOUS
 62
     7
100
AcDbLine
 10
82.083533
 20
75.706949
 30
0.0
 11
92.083533
 21
78.206949
 31
0.0
  0
LINE
  5
11D1
100
AcDbEntity
  8
91000_TIP
370
    13
  6
CONTINUOUS
 62
     7
100
AcDbLine
 10
80.804022
 20
73.206949
 30
0.0
 11
104.406012
 21
73.206949
 31
0.0
  0
LINE
  5
11D2
100
AcDbEntity
  8
91000_TIP
370
    13
  6
CONTINUOUS
 62
     7
100
AcDbLine
 10
82.083533
 20
70.706949
 30
0.0
 11
92.083533
 21
68.206949
 31
0.0
  0
LINE
  5
11D3
100
AcDbEntity
  8
91000_TIP
370
    13
  6
CONTINUOUS
 62
     7
100
AcDbLine
 10
82.083533
 20
75.706949
 30
0.0
 11
82.083533
 21
70.706949
 31
0.0
  0
LINE
  5
11D4
100
AcDbEntity
  8
91000_TIP
370
    13
  6
CONTINUOUS
 62
     7
100
AcDbLine
 10
92.083533
 20
78.206949
 30
0.0
 11
92.083533
 21
68.206949
 31
0.0
  0
LINE
  5
11D5
100
AcDbEntity
  8
91000_TIP
370
    13
  6
CONTINUOUS
 62
     7
100
AcDbLine
 10
98.583532
 20
67.485468
 30
0.0
 11
98.583532
 21
78.768854
 31
0.0
  0
CIRCLE
  5
11D6
100
AcDbEntity
  8
91000_TIP
370
    13
  6
CONTINUOUS
 62
     7
100
AcDbCircle
 10
98.583532
 20
73.206949
 30
0.0
 40
5.0
  0
CIRCLE
  5
11D7
100
AcDbEntity
  8
91000_TIP
370
    13
  6
CONTINUOUS
 62
     7
100
AcDbCircle
 10
98.583532
 20
73.206949
 30
0.0
 40
2.5
  0
TEXT
  5
11D8
100
AcDbEntity
  8
90000_FRAME
370
    13
  6
CONTINUOUS
 62
     7
100
AcDbText
 10
111.263613
 20
84.274562
 30
0.0
 40
2.2
  1
All dimensions are in millimeters (mm)
 41
0.961374
100
AcDbText
  0
TEXT
  5
11D9
100
AcDbEntity
  8
90000_FRAME
370
    13
  6
CONTINUOUS
 62
     7
100
AcDbText
 10
111.263613
 20
87.403585
 30
0.0
 40
2.2
  1
Alle Bemassungswerte sind in Millimeter (mm) angegeben.
 41
0.825144
100
AcDbText
  0
LINE
  5
11DA
100
AcDbEntity
  8
90000_FRAME
370
    13
  6
CONTINUOUS
 62
     7
100
AcDbLine
 10
250.704072
 20
59.496858
 30
0.0
 11
250.704072
 21
329.496858
 31
0.0
  0
LINE
  5
11DB
100
AcDbEntity
  8
90000_FRAME
370
    13
  6
CONTINUOUS
 62
     7
100
AcDbLine
 10
250.704072
 20
59.496858
 30
0.0
 11
50.704072
 21
59.496858
 31
0.0
  0
TEXT
  5
11DC
100
AcDbEntity
  8
90000_FRAME
370
    13
  6
CONTINUOUS
 62
     7
100
AcDbText
 10
162.152155
 20
77.2
 30
0.0
 40
3.0
  1
3RA2913-2AA1
 41
0.784213
100
AcDbText
  0
TEXT
  5
11DD
100
AcDbEntity
  8
90000_FRAME
370
    13
  6
CONTINUOUS
 62
     7
100
AcDbText
 10
203.864072
 20
66.396858
 30
0.0
 40
2.2
  1
Massstab/Scale:
 41
0.9
100
AcDbText
  0
TEXT
  5
11DE
100
AcDbEntity
  8
90000_FRAME
370
    13
  6
CONTINUOUS
 62
     7
100
AcDbText
 10
162.0
 20
66.396858
 30
0.0
 40
2.2
  1
Format/Size: DIN A4
 41
0.803258
100
AcDbText
  0
LINE
  5
11DF
100
AcDbEntity
  8
90000_FRAME
370
    13
  6
CONTINUOUS
 62
     7
100
AcDbLine
 10
245.704072
 20
64.496858
 30
0.0
 11
245.704072
 21
82.496858
 31
0.0
  0
LINE
  5
11E0
100
AcDbEntity
  8
90000_FRAME
370
    13
  6
CONTINUOUS
 62
     7
100
AcDbLine
 10
203.204072
 20
64.496858
 30
0.0
 11
203.204072
 21
70.496858
 31
0.0
  0
LINE
  5
11E1
100
AcDbEntity
  8
90000_FRAME
370
    13
  6
CONTINUOUS
 62
     7
100
AcDbLine
 10
160.704072
 20
64.496858
 30
0.0
 11
160.704072
 21
82.496858
 31
0.0
  0
LINE
  5
11E2
100
AcDbEntity
  8
90000_FRAME
370
    13
  6
CONTINUOUS
 62
     7
100
AcDbLine
 10
110.704072
 20
82.496858
 30
0.0
 11
245.704072
 21
82.496858
 31
0.0
  0
LINE
  5
11E3
100
AcDbEntity
  8
90000_FRAME
370
    13
  6
CONTINUOUS
 62
     7
100
AcDbLine
 10
160.704072
 20
70.496858
 30
0.0
 11
245.704072
 21
70.496858
 31
0.0
  0
LINE
  5
11E4
100
AcDbEntity
  8
90000_FRAME
370
    13
  6
CONTINUOUS
 62
     7
100
AcDbLine
 10
110.704072
 20
64.496858
 30
0.0
 11
110.704072
 21
82.496858
 31
0.0
  0
LINE
  5
11E5
100
AcDbEntity
  8
90000_FRAME
370
    13
  6
CONTINUOUS
 62
     7
100
AcDbLine
 10
110.704072
 20
64.496858
 30
0.0
 11
245.704072
 21
64.496858
 31
0.0
  0
LINE
  5
11E6
100
AcDbEntity
  8
90000_FRAME
370
    13
  6
CONTINUOUS
 62
     7
100
AcDbLine
 10
124.890272
 20
75.911406
 30
0.0
 11
124.890272
 21
71.158137
 31
0.0
  0
LINE
  5
11E7
100
AcDbEntity
  8
90000_FRAME
370
    13
  6
CONTINUOUS
 62
     7
100
AcDbLine
 10
126.316253
 20
75.911406
 30
0.0
 11
126.316253
 21
71.158137
 31
0.0
  0
LINE
  5
11E8
100
AcDbEntity
  8
90000_FRAME
370
    13
  6
CONTINUOUS
 62
     7
100
AcDbLine
 10
124.890272
 20
71.158137
 30
0.0
 11
126.316253
 21
71.158137
 31
0.0
  0
LINE
  5
11E9
100
AcDbEntity
  8
90000_FRAME
370
    13
  6
CONTINUOUS
 62
     7
100
AcDbLine
 10
124.890272
 20
75.911406
 30
0.0
 11
126.316253
 21
75.911406
 31
0.0
  0
LINE
  5
11EA
100
AcDbEntity
  8
90000_FRAME
370
    13
  6
CONTINUOUS
 62
     7
100
AcDbLine
 10
127.409505
 20
75.911406
 30
0.0
 11
127.409505
 21
71.158137
 31
0.0
  0
LINE
  5
11EB
100
AcDbEntity
  8
90000_FRAME
370
    13
  6
CONTINUOUS
 62
     7
100
AcDbLine
 10
127.409505
 20
71.158137
 30
0.0
 11
130.974457
 21
71.158137
 31
0.0
  0
LINE
  5
11EC
100
AcDbEntity
  8
90000_FRAME
370
    13
  6
CONTINUOUS
 62
     7
100
AcDbLine
 10
130.974457
 20
72.061258
 30
0.0
 11
128.787953
 21
72.061258
 31
0.0
  0
LINE
  5
11ED
100
AcDbEntity
  8
90000_FRAME
370
    13
  6
CONTINUOUS
 62
     7
100
AcDbLine
 10
130.974457
 20
72.061258
 30
0.0
 11
130.974457
 21
71.158137
 31
0.0
  0
LINE
  5
11EE
100
AcDbEntity
  8
90000_FRAME
370
    13
  6
CONTINUOUS
 62
     7
100
AcDbLine
 10
130.926924
 20
75.911406
 30
0.0
 11
127.409505
 21
75.911406
 31
0.0
  0
LINE
  5
11EF
100
AcDbEntity
  8
90000_FRAME
370
    13
  6
CONTINUOUS
 62
     7
100
AcDbLine
 10
130.926924
 20
75.032051
 30
0.0
 11
128.787953
 21
75.032051
 31
0.0
  0
LINE
  5
11F0
100
AcDbEntity
  8
90000_FRAME
370
    13
  6
CONTINUOUS
 62
     7
100
AcDbLine
 10
130.926924
 20
75.911406
 30
0.0
 11
130.926924
 21
75.032051
 31
0.0
  0
LINE
  5
11F1
100
AcDbEntity
  8
90000_FRAME
370
    13
  6
CONTINUOUS
 62
     7
100
AcDbLine
 10
130.641728
 20
73.178276
 30
0.0
 11
128.787953
 21
73.178276
 31
0.0
  0
LINE
  5
11F2
100
AcDbEntity
  8
90000_FRAME
370
    13
  6
CONTINUOUS
 62
     7
100
AcDbLine
 10
130.641728
 20
73.962566
 30
0.0
 11
130.641728
 21
73.178276
 31
0.0
  0
LINE
  5
11F3
100
AcDbEntity
  8
90000_FRAME
370
    13
  6
CONTINUOUS
 62
     7
100
AcDbLine
 10
130.641728
 20
73.962566
 30
0.0
 11
128.787953
 21
73.962566
 31
0.0
  0
LINE
  5
11F4
100
AcDbEntity
  8
90000_FRAME
370
    13
  6
CONTINUOUS
 62
     7
100
AcDbLine
 10
128.787953
 20
75.032051
 30
0.0
 11
128.787953
 21
73.962566
 31
0.0
  0
LINE
  5
11F5
100
AcDbEntity
  8
90000_FRAME
370
    13
  6
CONTINUOUS
 62
     7
100
AcDbLine
 10
128.787953
 20
73.178276
 30
0.0
 11
128.787953
 21
72.061258
 31
0.0
  0
LINE
  5
11F6
100
AcDbEntity
  8
90000_FRAME
370
    13
  6
CONTINUOUS
 62
     7
100
AcDbLine
 10
131.782513
 20
71.158137
 30
0.0
 11
131.782513
 21
75.911406
 31
0.0
  0
LINE
  5
11F7
100
AcDbEntity
  8
90000_FRAME
370
    13
  6
CONTINUOUS
 62
     7
100
AcDbLine
 10
131.782513
 20
71.158137
 30
0.0
 11
132.733166
 21
71.158137
 31
0.0
  0
LINE
  5
11F8
100
AcDbEntity
  8
90000_FRAME
370
    13
  6
CONTINUOUS
 62
     7
100
AcDbLine
 10
137.629034
 20
75.911406
 30
0.0
 11
137.629034
 21
71.158137
 31
0.0
  0
LINE
  5
11F9
100
AcDbEntity
  8
90000_FRAME
370
    13
  6
CONTINUOUS
 62
     7
100
AcDbLine
 10
137.629034
 20
71.158137
 30
0.0
 11
136.250586
 21
71.158137
 31
0.0
  0
LINE
  5
11FA
100
AcDbEntity
  8
90000_FRAME
370
    13
  6
CONTINUOUS
 62
     7
100
AcDbLine
 10
134.064082
 20
71.110604
 30
0.0
 11
134.91967
 21
71.110604
 31
0.0
  0
LINE
  5
11FB
100
AcDbEntity
  8
90000_FRAME
370
    13
  6
CONTINUOUS
 62
     7
100
AcDbLine
 10
134.064082
 20
71.110604
 30
0.0
 11
132.733166
 21
74.200229
 31
0.0
  0
LINE
  5
11FC
100
AcDbEntity
  8
90000_FRAME
370
    13
  6
CONTINUOUS
 62
     7
100
AcDbLine
 10
132.733166
 20
71.158137
 30
0.0
 11
132.733166
 21
74.200229
 31
0.0
  0
LINE
  5
11FD
100
AcDbEntity
  8
90000_FRAME
370
    13
  6
CONTINUOUS
 62
     7
100
AcDbLine
 10
136.250586
 20
74.247762
 30
0.0
 11
134.91967
 21
71.110604
 31
0.0
  0
LINE
  5
11FE
100
AcDbEntity
  8
90000_FRAME
370
    13
  6
CONTINUOUS
 62
     7
100
AcDbLine
 10
133.493689
 20
75.911406
 30
0.0
 11
131.782513
 21
75.911406
 31
0.0
  0
LINE
  5
11FF
100
AcDbEntity
  8
90000_FRAME
370
    13
  6
CONTINUOUS
 62
     7
100
AcDbLine
 10
137.629034
 20
75.911406
 30
0.0
 11
135.917857
 21
75.911406
 31
0.0
  0
LINE
  5
1200
100
AcDbEntity
  8
90000_FRAME
370
    13
  6
CONTINUOUS
 62
     7
100
AcDbLine
 10
133.493689
 20
75.911406
 30
0.0
 11
134.729539
 21
73.011912
 31
0.0
  0
LINE
  5
1201
100
AcDbEntity
  8
90000_FRAME
370
    13
  6
CONTINUOUS
 62
     7
100
AcDbLine
 10
135.917857
 20
75.911406
 30
0.0
 11
134.729539
 21
73.011912
 31
0.0
  0
LINE
  5
1202
100
AcDbEntity
  8
90000_FRAME
370
    13
  6
CONTINUOUS
 62
     7
100
AcDbLine
 10
136.250586
 20
74.247762
 30
0.0
 11
136.250586
 21
71.158137
 31
0.0
  0
LINE
  5
1203
100
AcDbEntity
  8
90000_FRAME
370
    13
  6
CONTINUOUS
 62
     7
100
AcDbLine
 10
138.722285
 20
75.911406
 30
0.0
 11
138.722285
 21
71.158137
 31
0.0
  0
LINE
  5
1204
100
AcDbEntity
  8
90000_FRAME
370
    13
  6
CONTINUOUS
 62
     7
100
AcDbLine
 10
138.722285
 20
71.158137
 30
0.0
 11
142.287237
 21
71.158137
 31
0.0
  0
LINE
  5
1205
100
AcDbEntity
  8
90000_FRAME
370
    13
  6
CONTINUOUS
 62
     7
100
AcDbLine
 10
142.287237
 20
72.061258
 30
0.0
 11
140.100733
 21
72.061258
 31
0.0
  0
LINE
  5
1206
100
AcDbEntity
  8
90000_FRAME
370
    13
  6
CONTINUOUS
 62
     7
100
AcDbLine
 10
142.287237
 20
72.061258
 30
0.0
 11
142.287237
 21
71.158137
 31
0.0
  0
LINE
  5
1207
100
AcDbEntity
  8
90000_FRAME
370
    13
  6
CONTINUOUS
 62
     7
100
AcDbLine
 10
142.239705
 20
75.911406
 30
0.0
 11
138.722285
 21
75.911406
 31
0.0
  0
LINE
  5
1208
100
AcDbEntity
  8
90000_FRAME
370
    13
  6
CONTINUOUS
 62
     7
100
AcDbLine
 10
142.239705
 20
75.032051
 30
0.0
 11
140.100733
 21
75.032051
 31
0.0
  0
LINE
  5
1209
100
AcDbEntity
  8
90000_FRAME
370
    13
  6
CONTINUOUS
 62
     7
100
AcDbLine
 10
142.239705
 20
75.911406
 30
0.0
 11
142.239705
 21
75.032051
 31
0.0
  0
LINE
  5
120A
100
AcDbEntity
  8
90000_FRAME
370
    13
  6
CONTINUOUS
 62
     7
100
AcDbLine
 10
141.954508
 20
73.178276
 30
0.0
 11
140.100733
 21
73.178276
 31
0.0
  0
LINE
  5
120B
100
AcDbEntity
  8
90000_FRAME
370
    13
  6
CONTINUOUS
 62
     7
100
AcDbLine
 10
141.954508
 20
73.962566
 30
0.0
 11
141.954508
 21
73.178276
 31
0.0
  0
LINE
  5
120C
100
AcDbEntity
  8
90000_FRAME
370
    13
  6
CONTINUOUS
 62
     7
100
AcDbLine
 10
141.954508
 20
73.962566
 30
0.0
 11
140.100733
 21
73.962566
 31
0.0
  0
LINE
  5
120D
100
AcDbEntity
  8
90000_FRAME
370
    13
  6
CONTINUOUS
 62
     7
100
AcDbLine
 10
140.100733
 20
75.032051
 30
0.0
 11
140.100733
 21
73.962566
 31
0.0
  0
LINE
  5
120E
100
AcDbEntity
  8
90000_FRAME
370
    13
  6
CONTINUOUS
 62
     7
100
AcDbLine
 10
140.100733
 20
73.178276
 30
0.0
 11
140.100733
 21
72.061258
 31
0.0
  0
LINE
  5
120F
100
AcDbEntity
  8
90000_FRAME
370
    13
  6
CONTINUOUS
 62
     7
100
AcDbLine
 10
143.071527
 20
71.158137
 30
0.0
 11
143.071527
 21
75.911406
 31
0.0
  0
LINE
  5
1210
100
AcDbEntity
  8
90000_FRAME
370
    13
  6
CONTINUOUS
 62
     7
100
AcDbLine
 10
147.254403
 20
75.911406
 30
0.0
 11
147.254403
 21
71.158137
 31
0.0
  0
LINE
  5
1211
100
AcDbEntity
  8
90000_FRAME
370
    13
  6
CONTINUOUS
 62
     7
100
AcDbLine
 10
143.071527
 20
71.158137
 30
0.0
 11
144.02218
 21
71.158137
 31
0.0
  0
LINE
  5
1212
100
AcDbEntity
  8
90000_FRAME
370
    13
  6
CONTINUOUS
 62
     7
100
AcDbLine
 10
147.254403
 20
75.911406
 30
0.0
 11
146.30375
 21
75.911406
 31
0.0
  0
LINE
  5
1213
100
AcDbEntity
  8
90000_FRAME
370
    13
  6
CONTINUOUS
 62
     7
100
AcDbLine
 10
144.616339
 20
75.911406
 30
0.0
 11
143.071527
 21
75.911406
 31
0.0
  0
LINE
  5
1214
100
AcDbEntity
  8
90000_FRAME
370
    13
  6
CONTINUOUS
 62
     7
100
AcDbLine
 10
147.254403
 20
71.158137
 30
0.0
 11
145.733357
 21
71.158137
 31
0.0
  0
LINE
  5
1215
100
AcDbEntity
  8
90000_FRAME
370
    13
  6
CONTINUOUS
 62
     7
100
AcDbLine
 10
145.733357
 20
71.158137
 30
0.0
 11
144.02218
 21
74.200229
 31
0.0
  0
LINE
  5
1216
100
AcDbEntity
  8
90000_FRAME
370
    13
  6
CONTINUOUS
 62
     7
100
AcDbLine
 10
144.616339
 20
75.911406
 30
0.0
 11
146.30375
 21
72.964379
 31
0.0
  0
LINE
  5
1217
100
AcDbEntity
  8
90000_FRAME
370
    13
  6
CONTINUOUS
 62
     7
100
AcDbLine
 10
146.30375
 20
75.911406
 30
0.0
 11
146.30375
 21
72.964379
 31
0.0
  0
LINE
  5
1218
100
AcDbEntity
  8
90000_FRAME
370
    13
  6
CONTINUOUS
 62
     7
100
AcDbLine
 10
144.02218
 20
71.158137
 30
0.0
 11
144.02218
 21
74.200229
 31
0.0
  0
LINE
  5
1219
100
AcDbEntity
  8
90000_FRAME
370
    13
  6
CONTINUOUS
 62
     7
100
AcDbLine
 10
148.062459
 20
71.253202
 30
0.0
 11
148.062459
 21
72.203856
 31
0.0
  0
LINE
  5
121A
100
AcDbEntity
  8
90000_FRAME
370
    13
  6
CONTINUOUS
 62
     7
100
AcDbLine
 10
151.389748
 20
74.91322
 30
0.0
 11
151.389748
 21
75.863874
 31
0.0
  0
ARC
  5
121B
100
AcDbEntity
  8
90000_FRAME
370
    13
  6
CONTINUOUS
 62
     7
100
AcDbCircle
 10
149.7671
 20
73.115296
 30
0.0
 40
1.111619
100
AcDbArc
 50
277.709996
 51
295.688493
  0
ARC
  5
121C
100
AcDbEntity
  8
90000_FRAME
370
    13
  6
CONTINUOUS
 62
     7
100
AcDbCircle
 10
150.05141
 20
72.39047
 30
0.0
 40
0.340169
100
AcDbArc
 50
305.503221
 51
72.46529
  0
ARC
  5
121D
100
AcDbEntity
  8
90000_FRAME
370
    13
  6
CONTINUOUS
 62
     7
100
AcDbCircle
 10
149.485416
 20
75.792177
 30
0.0
 40
4.756795
100
AcDbArc
 50
252.59392
 51
280.98166
  0
ARC
  5
121E
100
AcDbEntity
  8
90000_FRAME
370
    13
  6
CONTINUOUS
 62
     7
100
AcDbCircle
 10
149.940252
 20
73.174163
 30
0.0
 40
2.100727
100
AcDbArc
 50
282.405836
 51
311.864443
  0
ARC
  5
121F
100
AcDbEntity
  8
90000_FRAME
370
    13
  6
CONTINUOUS
 62
     7
100
AcDbCircle
 10
149.666688
 20
74.782505
 30
0.0
 40
0.302963
100
AcDbArc
 50
154.440035
 51
221.82017
  0
ARC
  5
1220
100
AcDbEntity
  8
90000_FRAME
370
    13
  6
CONTINUOUS
 62
     7
100
AcDbCircle
 10
149.745909
 20
74.703284
 30
0.0
 40
0.410309
100
AcDbArc
 50
102.828783
 51
149.225964
  0
ARC
  5
1221
100
AcDbEntity
  8
90000_FRAME
370
    13
  6
CONTINUOUS
 62
     7
100
AcDbCircle
 10
150.162935
 20
72.960948
 30
0.0
 40
2.201837
100
AcDbArc
 50
84.040006
 51
103.342766
  0
ARC
  5
1222
100
AcDbEntity
  8
90000_FRAME
370
    13
  6
CONTINUOUS
 62
     7
100
AcDbCircle
 10
149.821972
 20
70.543584
 30
0.0
 40
4.642374
100
AcDbArc
 50
70.262586
 51
82.952419
  0
ARC
  5
1223
100
AcDbEntity
  8
90000_FRAME
370
    13
  6
CONTINUOUS
 62
     7
100
AcDbCircle
 10
149.307953
 20
75.215207
 30
0.0
 40
3.258756
100
AcDbArc
 50
247.530021
 51
280.757952
  0
ARC
  5
1224
100
AcDbEntity
  8
90000_FRAME
370
    13
  6
CONTINUOUS
 62
     7
100
AcDbCircle
 10
142.922987
 20
56.963687
 30
0.0
 40
17.331608
100
AcDbArc
 50
65.341467
 51
67.399777
  0
ARC
  5
1225
100
AcDbEntity
  8
90000_FRAME
370
    13
  6
CONTINUOUS
 62
     7
100
AcDbCircle
 10
153.718849
 20
82.756114
 30
0.0
 40
10.629164
100
AcDbArc
 50
242.86201
 51
247.104203
  0
ARC
  5
1226
100
AcDbEntity
  8
90000_FRAME
370
    13
  6
CONTINUOUS
 62
     7
100
AcDbCircle
 10
149.863948
 20
75.222182
 30
0.0
 40
2.166292
100
AcDbArc
 50
227.311928
 51
242.704032
  0
ARC
  5
1227
100
AcDbEntity
  8
90000_FRAME
370
    13
  6
CONTINUOUS
 62
     7
100
AcDbCircle
 10
149.259917
 20
74.516505
 30
0.0
 40
1.238522
100
AcDbArc
 50
194.795219
 51
225.717655
  0
ARC
  5
1228
100
AcDbEntity
  8
90000_FRAME
370
    13
  6
CONTINUOUS
 62
     7
100
AcDbCircle
 10
149.322075
 20
74.556725
 30
0.0
 40
1.309092
100
AcDbArc
 50
164.197486
 51
195.802514
  0
ARC
  5
1229
100
AcDbEntity
  8
90000_FRAME
370
    13
  6
CONTINUOUS
 62
     7
100
AcDbCircle
 10
149.879099
 20
73.668457
 30
0.0
 40
2.366925
100
AcDbArc
 50
86.221802
 51
120.42726
  0
ARC
  5
122A
100
AcDbEntity
  8
90000_FRAME
370
    13
  6
CONTINUOUS
 62
     7
100
AcDbCircle
 10
149.610242
 20
66.97229
 30
0.0
 40
9.067905
100
AcDbArc
 50
78.682705
 51
87.31476
  0
ARC
  5
122B
100
AcDbEntity
  8
90000_FRAME
370
    13
  6
CONTINUOUS
 62
     7
100
AcDbCircle
 10
149.154173
 20
74.664232
 30
0.0
 40
1.119747
100
AcDbArc
 50
142.813918
 51
167.152295
  0
ARC
  5
122C
100
AcDbEntity
  8
90000_FRAME
370
    13
  6
CONTINUOUS
 62
     7
100
AcDbCircle
 10
149.499483
 20
74.357651
 30
0.0
 40
1.580547
100
AcDbArc
 50
121.214095
 51
141.525477
  0
ARC
  5
122D
100
AcDbEntity
  8
90000_FRAME
370
    13
  6
CONTINUOUS
 62
     7
100
AcDbCircle
 10
150.076657
 20
75.168708
 30
0.0
 40
0.866128
100
AcDbArc
 50
222.776039
 51
239.036243
  0
ARC
  5
122E
100
AcDbEntity
  8
90000_FRAME
370
    13
  6
CONTINUOUS
 62
     7
100
AcDbCircle
 10
147.569947
 20
67.838436
 30
0.0
 40
6.858774
100
AcDbArc
 50
59.902027
 51
68.203648
  0
ARC
  5
122F
100
AcDbEntity
  8
90000_FRAME
370
    13
  6
CONTINUOUS
 62
     7
100
AcDbCircle
 10
150.978442
 20
76.764322
 30
0.0
 40
2.698741
100
AcDbArc
 50
240.0482
 51
251.377967
  0
ARC
  5
1230
100
AcDbEntity
  8
90000_FRAME
370
    13
  6
CONTINUOUS
 62
     7
100
AcDbCircle
 10
150.312985
 20
72.607424
 30
0.0
 40
1.433447
100
AcDbArc
 50
315.890455
 51
333.522926
  0
ARC
  5
1231
100
AcDbEntity
  8
90000_FRAME
370
    13
  6
CONTINUOUS
 62
     7
100
AcDbCircle
 10
150.317623
 20
72.554016
 30
0.0
 40
1.406229
100
AcDbArc
 50
335.386797
 51
24.391512
  0
ARC
  5
1232
100
AcDbEntity
  8
90000_FRAME
370
    13
  6
CONTINUOUS
 62
     7
100
AcDbCircle
 10
150.245418
 20
72.47616
 30
0.0
 40
1.504703
100
AcDbArc
 50
25.956292
 51
59.483483
  0
LINE
  5
1233
100
AcDbEntity
  8
90000_FRAME
370
    13
  6
CONTINUOUS
 62
     7
100
AcDbLine
 10
120.469732
 20
71.253202
 30
0.0
 11
120.469732
 21
72.203856
 31
0.0
  0
LINE
  5
1234
100
AcDbEntity
  8
90000_FRAME
370
    13
  6
CONTINUOUS
 62
     7
100
AcDbLine
 10
123.797021
 20
74.91322
 30
0.0
 11
123.797021
 21
75.863874
 31
0.0
  0
ARC
  5
1235
100
AcDbEntity
  8
90000_FRAME
370
    13
  6
CONTINUOUS
 62
     7
100
AcDbCircle
 10
122.174373
 20
73.115296
 30
0.0
 40
1.111619
100
AcDbArc
 50
277.709996
 51
295.688493
  0
ARC
  5
1236
100
AcDbEntity
  8
90000_FRAME
370
    13
  6
CONTINUOUS
 62
     7
100
AcDbCircle
 10
122.458683
 20
72.39047
 30
0.0
 40
0.340169
100
AcDbArc
 50
305.503221
 51
72.46529
  0
ARC
  5
1237
100
AcDbEntity
  8
90000_FRAME
370
    13
  6
CONTINUOUS
 62
     7
100
AcDbCircle
 10
121.892689
 20
75.792177
 30
0.0
 40
4.756795
100
AcDbArc
 50
252.59392
 51
280.98166
  0
ARC
  5
1238
100
AcDbEntity
  8
90000_FRAME
370
    13
  6
CONTINUOUS
 62
     7
100
AcDbCircle
 10
122.347525
 20
73.174163
 30
0.0
 40
2.100727
100
AcDbArc
 50
282.405836
 51
311.864443
  0
ARC
  5
1239
100
AcDbEntity
  8
90000_FRAME
370
    13
  6
CONTINUOUS
 62
     7
100
AcDbCircle
 10
122.07396
 20
74.782505
 30
0.0
 40
0.302963
100
AcDbArc
 50
154.440035
 51
221.82017
  0
ARC
  5
123A
100
AcDbEntity
  8
90000_FRAME
370
    13
  6
CONTINUOUS
 62
     7
100
AcDbCircle
 10
122.153182
 20
74.703284
 30
0.0
 40
0.410309
100
AcDbArc
 50
102.828783
 51
149.225964
  0
ARC
  5
123B
100
AcDbEntity
  8
90000_FRAME
370
    13
  6
CONTINUOUS
 62
     7
100
AcDbCircle
 10
122.570208
 20
72.960948
 30
0.0
 40
2.201837
100
AcDbArc
 50
84.040006
 51
103.342766
  0
ARC
  5
123C
100
AcDbEntity
  8
90000_FRAME
370
    13
  6
CONTINUOUS
 62
     7
100
AcDbCircle
 10
122.229245
 20
70.543584
 30
0.0
 40
4.642374
100
AcDbArc
 50
70.262586
 51
82.952419
  0
ARC
  5
123D
100
AcDbEntity
  8
90000_FRAME
370
    13
  6
CONTINUOUS
 62
     7
100
AcDbCircle
 10
121.715226
 20
75.215207
 30
0.0
 40
3.258756
100
AcDbArc
 50
247.530021
 51
280.757952
  0
ARC
  5
123E
100
AcDbEntity
  8
90000_FRAME
370
    13
  6
CONTINUOUS
 62
     7
100
AcDbCircle
 10
115.33026
 20
56.963687
 30
0.0
 40
17.331608
100
AcDbArc
 50
65.341467
 51
67.399777
  0
ARC
  5
123F
100
AcDbEntity
  8
90000_FRAME
370
    13
  6
CONTINUOUS
 62
     7
100
AcDbCircle
 10
126.126122
 20
82.756114
 30
0.0
 40
10.629164
100
AcDbArc
 50
242.86201
 51
247.104203
  0
ARC
  5
1240
100
AcDbEntity
  8
90000_FRAME
370
    13
  6
CONTINUOUS
 62
     7
100
AcDbCircle
 10
122.271221
 20
75.222182
 30
0.0
 40
2.166292
100
AcDbArc
 50
227.311928
 51
242.704032
  0
ARC
  5
1241
100
AcDbEntity
  8
90000_FRAME
370
    13
  6
CONTINUOUS
 62
     7
100
AcDbCircle
 10
121.66719
 20
74.516505
 30
0.0
 40
1.238522
100
AcDbArc
 50
194.795219
 51
225.717655
  0
ARC
  5
1242
100
AcDbEntity
  8
90000_FRAME
370
    13
  6
CONTINUOUS
 62
     7
100
AcDbCircle
 10
122.286372
 20
73.668457
 30
0.0
 40
2.366925
100
AcDbArc
 50
86.221802
 51
120.42726
  0
ARC
  5
1243
100
AcDbEntity
  8
90000_FRAME
370
    13
  6
CONTINUOUS
 62
     7
100
AcDbCircle
 10
122.017515
 20
66.97229
 30
0.0
 40
9.067905
100
AcDbArc
 50
78.682705
 51
87.31476
  0
ARC
  5
1244
100
AcDbEntity
  8
90000_FRAME
370
    13
  6
CONTINUOUS
 62
     7
100
AcDbCircle
 10
121.906756
 20
74.357651
 30
0.0
 40
1.580547
100
AcDbArc
 50
121.214095
 51
141.525477
  0
ARC
  5
1245
100
AcDbEntity
  8
90000_FRAME
370
    13
  6
CONTINUOUS
 62
     7
100
AcDbCircle
 10
122.48393
 20
75.168708
 30
0.0
 40
0.866128
100
AcDbArc
 50
222.776039
 51
239.036243
  0
ARC
  5
1246
100
AcDbEntity
  8
90000_FRAME
370
    13
  6
CONTINUOUS
 62
     7
100
AcDbCircle
 10
119.97722
 20
67.838436
 30
0.0
 40
6.858774
100
AcDbArc
 50
59.902027
 51
68.203648
  0
ARC
  5
1247
100
AcDbEntity
  8
90000_FRAME
370
    13
  6
CONTINUOUS
 62
     7
100
AcDbCircle
 10
123.385715
 20
76.764322
 30
0.0
 40
2.698741
100
AcDbArc
 50
240.0482
 51
251.377967
  0
ARC
  5
1248
100
AcDbEntity
  8
90000_FRAME
370
    13
  6
CONTINUOUS
 62
     7
100
AcDbCircle
 10
122.720258
 20
72.607424
 30
0.0
 40
1.433447
100
AcDbArc
 50
315.890455
 51
333.522926
  0
ARC
  5
1249
100
AcDbEntity
  8
90000_FRAME
370
    13
  6
CONTINUOUS
 62
     7
100
AcDbCircle
 10
122.724896
 20
72.554016
 30
0.0
 40
1.406229
100
AcDbArc
 50
335.386797
 51
24.391512
  0
ARC
  5
124A
100
AcDbEntity
  8
90000_FRAME
370
    13
  6
CONTINUOUS
 62
     7
100
AcDbCircle
 10
122.652691
 20
72.47616
 30
0.0
 40
1.504703
100
AcDbArc
 50
25.956292
 51
59.483483
  0
LINE
  5
124B
100
AcDbEntity
  8
90000_FRAME
370
    13
  6
CONTINUOUS
 62
     7
100
AcDbLine
 10
120.661561
 20
75.330601
 30
0.0
 11
120.935627
 21
75.604674
 31
0.0
  0
ARC
  5
124C
100
AcDbEntity
  8
90000_FRAME
370
    13
  6
CONTINUOUS
 62
     7
100
AcDbCircle
 10
121.729348
 20
74.556725
 30
0.0
 40
1.309092
100
AcDbArc
 50
164.197486
 51
195.802514
  0
ARC
  5
124D
100
AcDbEntity
  8
90000_FRAME
370
    13
  6
CONTINUOUS
 62
     7
100
AcDbCircle
 10
121.561446
 20
74.664232
 30
0.0
 40
1.119747
100
AcDbArc
 50
142.813918
 51
167.152295
  0
TEXT
  5
124E
100
AcDbEntity
  8
90000_FRAME
370
    13
  6
CONTINUOUS
 62
     7
100
AcDbText
 10
232.0
 20
66.3969
 30
0.0
 40
2.2
  1
1:1
 41
0.9
100
AcDbText
  0
TEXT
  5
124F
100
AcDbEntity
  8
90000_FRAME
370
    13
  6
CONTINUOUS
 62
     7
100
AcDbText
 10
162.0
 20
72.2
 30
0.0
 40
2.2
  1

 41
0.784213
100
AcDbText
  0
ENDSEC
  0
SECTION
  2
OBJECTS
  0
DICTIONARY
  5
FE4
100
AcDbDictionary
280
     0
281
     1
  3
ACAD_GROUP
350
FE5
  3
ACAD_MLINESTYLE
350
FE6
  0
DICTIONARY
  5
FE5
102
{ACAD_REACTORS
330
FE4
102
}
100
AcDbDictionary
280
     0
281
     1
  0
DICTIONARY
  5
FE6
102
{ACAD_REACTORS
330
FE4
102
}
100
AcDbDictionary
280
     0
281
     1
  3
Standard
350
FE7
  0
MLINESTYLE
  5
FE7
102
{ACAD_REACTORS
330
FE6
102
}
100
AcDbMlineStyle
  2
Standard
 70
     0
  3

 62
     0
 51
90.0
 52
90.0
 71
     2
 49
0.5
 62
   256
  6
ByLayer
 49
-0.5
 62
   256
  6
ByLayer
  0
ENDSEC
  0
EOF
