  0
SECTION
  2
HEADER
  9
$ACADVER
  1
AC1015
  9
$ACADMAINTVER
 70
     6
  9
$DWGCODEPAGE
  3
ANSI_1252
  9
$INSBASE
 10
0.0
 20
0.0
 30
0.0
  9
$EXTMIN
 10
69.395417
 20
287.976483
 30
-1.0
  9
$EXTMAX
 10
1026.514554
 20
492.804657
 30
0.7
  9
$LIMMIN
 10
0.0
 20
0.0
  9
$LIMMAX
 10
12.0
 20
9.0
  9
$ORTHOMODE
 70
     0
  9
$REGENMODE
 70
     1
  9
$FILLMODE
 70
     1
  9
$QTEXTMODE
 70
     0
  9
$MIRRTEXT
 70
     0
  9
$LTSCALE
 40
10.0
  9
$ATTMODE
 70
     1
  9
$TEXTSIZE
 40
0.2
  9
$TRACEWID
 40
0.05
  9
$TEXTSTYLE
  7
STANDARD
  9
$CLAYER
  8
0
  9
$CELTYPE
  6
ByLayer
  9
$CECOLOR
 62
   256
  9
$CELTSCALE
 40
1.0
  9
$DISPSILH
 70
     0
  9
$DIMSCALE
 40
1.0
  9
$DIMASZ
 40
0.18
  9
$DIMEXO
 40
0.0625
  9
$DIMDLI
 40
0.38
  9
$DIMRND
 40
0.0
  9
$DIMDLE
 40
0.0
  9
$DIMEXE
 40
0.18
  9
$DIMTP
 40
0.0
  9
$DIMTM
 40
0.0
  9
$DIMTXT
 40
0.18
  9
$DIMCEN
 40
0.09
  9
$DIMTSZ
 40
0.0
  9
$DIMTOL
 70
     0
  9
$DIMLIM
 70
     0
  9
$DIMTIH
 70
     1
  9
$DIMTOH
 70
     1
  9
$DIMSE1
 70
     0
  9
$DIMSE2
 70
     0
  9
$DIMTAD
 70
     0
  9
$DIMZIN
 70
     0
  9
$DIMBLK
  1

  9
$DIMASO
 70
     1
  9
$DIMSHO
 70
     1
  9
$DIMPOST
  1

  9
$DIMAPOST
  1

  9
$DIMALT
 70
     0
  9
$DIMALTD
 70
     2
  9
$DIMALTF
 40
25.4
  9
$DIMLFAC
 40
1.0
  9
$DIMTOFL
 70
     0
  9
$DIMTVP
 40
0.0
  9
$DIMTIX
 70
     0
  9
$DIMSOXD
 70
     0
  9
$DIMSAH
 70
     0
  9
$DIMBLK1
  1

  9
$DIMBLK2
  1

  9
$DIMSTYLE
  2
STANDARD
  9
$DIMCLRD
 70
     0
  9
$DIMCLRE
 70
     0
  9
$DIMCLRT
 70
     0
  9
$DIMTFAC
 40
1.0
  9
$DIMGAP
 40
0.09
  9
$DIMJUST
 70
     0
  9
$DIMSD1
 70
     0
  9
$DIMSD2
 70
     0
  9
$DIMTOLJ
 70
     1
  9
$DIMTZIN
 70
     0
  9
$DIMALTZ
 70
     0
  9
$DIMALTTZ
 70
     0
  9
$DIMUPT
 70
     0
  9
$DIMDEC
 70
     4
  9
$DIMTDEC
 70
     4
  9
$DIMALTU
 70
     2
  9
$DIMALTTD
 70
     2
  9
$DIMTXSTY
  7
STANDARD
  9
$DIMAUNIT
 70
     0
  9
$DIMADEC
 70
     0
  9
$DIMALTRND
 40
0.0
  9
$DIMAZIN
 70
     0
  9
$DIMDSEP
 70
     0
  9
$DIMATFIT
 70
     3
  9
$DIMFRAC
 70
     0
  9
$DIMLDRBLK
  1

  9
$DIMLUNIT
 70
     2
  9
$DIMLWD
 70
     0
  9
$DIMLWE
 70
     0
  9
$DIMTMOVE
 70
     0
  9
$LUNITS
 70
     2
  9
$LUPREC
 70
     4
  9
$SKETCHINC
 40
0.1
  9
$FILLETRAD
 40
0.0
  9
$AUNITS
 70
     0
  9
$AUPREC
 70
     0
  9
$MENU
  1
.
  9
$ELEVATION
 40
0.0
  9
$PELEVATION
 40
0.0
  9
$THICKNESS
 40
0.0
  9
$LIMCHECK
 70
     0
  9
$CHAMFERA
 40
0.0
  9
$CHAMFERB
 40
0.0
  9
$CHAMFERC
 40
0.0
  9
$CHAMFERD
 40
0.0
  9
$SKPOLY
 70
     0
  9
$TDCREATE
 40
2453353.758792454
  9
$TDUCREATE
 40
0.000000000
  9
$TDUPDATE
 40
0.000000000
  9
$TDUUPDATE
 40
2447892.958333334
  9
$TDINDWG
 40
78332576.0667047050
  9
$TDUSRTIMER
 40
0.0000000000
  9
$USRTIMER
 70
     1
  9
$ANGBASE
 50
0.0
  9
$ANGDIR
 70
     0
  9
$PDMODE
 70
     0
  9
$PDSIZE
 40
0.0
  9
$PLINEWID
 40
0.0
  9
$SPLFRAME
 70
     0
  9
$SPLINETYPE
 70
     6
  9
$SPLINESEGS
 70
     8
  9
$HANDSEED
  5
125E
  9
$SURFTAB1
 70
     6
  9
$SURFTAB2
 70
     6
  9
$SURFTYPE
 70
     6
  9
$SURFU
 70
     6
  9
$SURFV
 70
     6
  9
$UCSBASE
  2

  9
$UCSNAME
  2

  9
$UCSORG
 10
0.0
 20
0.0
 30
0.0
  9
$UCSXDIR
 10
1.0
 20
0.0
 30
0.0
  9
$UCSYDIR
 10
0.0
 20
1.0
 30
0.0
  9
$UCSORTHOREF
  2

  9
$UCSORTHOVIEW
 70
     0
  9
$UCSORGTOP
 10
0.0
 20
0.0
 30
0.0
  9
$UCSORGBOTTOM
 10
0.0
 20
0.0
 30
0.0
  9
$UCSORGLEFT
 10
0.0
 20
0.0
 30
0.0
  9
$UCSORGRIGHT
 10
0.0
 20
0.0
 30
0.0
  9
$UCSORGFRONT
 10
0.0
 20
0.0
 30
0.0
  9
$UCSORGBACK
 10
0.0
 20
0.0
 30
0.0
  9
$PUCSBASE
  2

  9
$PUCSNAME
  2

  9
$PUCSORG
 10
0.0
 20
0.0
 30
0.0
  9
$PUCSXDIR
 10
1.0
 20
0.0
 30
0.0
  9
$PUCSYDIR
 10
0.0
 20
1.0
 30
0.0
  9
$PUCSORTHOREF
  2

  9
$PUCSORTHOVIEW
 70
     0
  9
$PUCSORGTOP
 10
0.0
 20
0.0
 30
0.0
  9
$PUCSORGBOTTOM
 10
0.0
 20
0.0
 30
0.0
  9
$PUCSORGLEFT
 10
0.0
 20
0.0
 30
0.0
  9
$PUCSORGRIGHT
 10
0.0
 20
0.0
 30
0.0
  9
$PUCSORGFRONT
 10
0.0
 20
0.0
 30
0.0
  9
$PUCSORGBACK
 10
0.0
 20
0.0
 30
0.0
  9
$USERI1
 70
     0
  9
$USERI2
 70
     0
  9
$USERI3
 70
     0
  9
$USERI4
 70
     0
  9
$USERI5
 70
     0
  9
$USERR1
 40
0.0
  9
$USERR2
 40
0.0
  9
$USERR3
 40
0.0
  9
$USERR4
 40
0.0
  9
$USERR5
 40
0.0
  9
$WORLDVIEW
 70
     1
  9
$SHADEDGE
 70
     3
  9
$SHADEDIF
 70
    70
  9
$TILEMODE
 70
     1
  9
$MAXACTVP
 70
    64
  9
$PINSBASE
 10
0.0
 20
0.0
 30
0.0
  9
$PLIMCHECK
 70
     0
  9
$PEXTMIN
 10
0.0
 20
0.0
 30
0.0
  9
$PEXTMAX
 10
0.0
 20
0.0
 30
0.0
  9
$PLIMMIN
 10
0.0
 20
0.0
  9
$PLIMMAX
 10
0.0
 20
0.0
  9
$UNITMODE
 70
     0
  9
$VISRETAIN
 70
     1
  9
$PLINEGEN
 70
     0
  9
$PSLTSCALE
 70
     1
  9
$TREEDEPTH
 70
  3020
  9
$CMLSTYLE
  2
Standard
  9
$CMLJUST
 70
     0
  9
$CMLSCALE
 40
1.0
  9
$PROXYGRAPHICS
 70
     0
  9
$MEASUREMENT
 70
     0
  9
$CELWEIGHT
370
     0
  9
$ENDCAPS
280
     0
  9
$JOINSTYLE
280
     0
  9
$LWDISPLAY
290
     0
  9
$INSUNITS
 70
     0
  9
$HYPERLINKBASE
  1

  9
$STYLESHEET
  1

  9
$XEDIT
290
     1
  9
$CEPSNTYPE
380
     0
  9
$PSTYLEMODE
290
     1
  9
$FINGERPRINTGUID
  2

  9
$VERSIONGUID
  2

  9
$EXTNAMES
290
     1
  9
$PSVPSCALE
 40
0.0
  0
ENDSEC
  0
SECTION
  2
CLASSES
  0
CLASS
  1
LWPOLYLINE
  2
AcDbPolyline
  3
AutoCAD 2000
 90
        0
280
     0
281
     1
  0
CLASS
  1
IMAGE
  2
AcDbRasterImage
  3
ISM
 90
      127
280
     0
281
     1
  0
CLASS
  1
OLE2FRAME
  2
AcDbOle2Frame
  3
AutoCAD 2000
 90
        0
280
     0
281
     1
  0
CLASS
  1
HATCH
  2
AcDbHatch
  3
AutoCAD 2000
 90
        0
280
     0
281
     1
  0
CLASS
  1
DICTIONARYVAR
  2
AcDbDictionaryVar
  3
AutoCAD 2000
 90
        0
280
     0
281
     0
  0
CLASS
  1
RASTERVARIABLES
  2
AcDbRasterVariables
  3
ISM
 90
        0
280
     0
281
     0
  0
CLASS
  1
IMAGEDEF
  2
AcDbRasterImageDef
  3
ISM
 90
        0
280
     0
281
     0
  0
CLASS
  1
IMAGEDEF_REACTOR
  2
AcDbRasterImageDefReactor
  3
ISM
 90
        1
280
     0
281
     0
  0
CLASS
  1
IDBUFFER
  2
AcDbIdBuffer
  3
AutoCAD 2000
 90
        0
280
     0
281
     0
  0
CLASS
  1
SPATIAL_FILTER
  2
AcDbSpatialFilter
  3
AutoCAD 2000
 90
        0
280
     0
281
     0
  0
CLASS
  1
XRECORD
  2
AcDbXrecord
  3
AutoCAD 2000
 90
        0
280
     0
281
     0
  0
CLASS
  1
SORTENTSTABLE
  2
AcDbSortentsTable
  3
AutoCAD 2000
 90
        0
280
     0
281
     0
  0
CLASS
  1
LAYER_INDEX
  2
AcDbLayerIndex
  3
AutoCAD 2000
 90
        0
280
     0
281
     0
  0
CLASS
  1
SPATIAL_INDEX
  2
AcDbSpatialIndex
  3
AutoCAD 2000
 90
        0
280
     0
281
     0
  0
CLASS
  1
OBJECT_PTR
  2
CAseDLPNTableRecord
  3
"ASE-LPNTableRecord"
 90
        1
280
     0
281
     0
  0
CLASS
  1
LAYOUT
  2
AcDbLayout
  3
AutoCAD 2000
 90
        0
280
     0
281
     0
  0
CLASS
  1
PLOTSETTINGS
  2
AcDbPlotSettings
  3
AutoCAD 2000
 90
        0
280
     0
281
     0
  0
CLASS
  1
ACDBDICTIONARYWDFLT
  2
AcDbDictionaryWithDefault
  3
AutoCAD 2000
 90
        0
280
     0
281
     0
  0
CLASS
  1
ACDBPLACEHOLDER
  2
AcDbPlaceHolder
  3
AutoCAD 2000
 90
        0
280
     0
281
     0
  0
CLASS
  1
VBA_PROJECT
  2
AcDbVbaProject
  3
acadvba
 90
        0
280
     0
281
     0
  0
CLASS
  1
WIPEOUT
  2
AcDbWipeout
  3
WipeOut|AutoCAD Express Tool|expresstools@autodesk.com
 90
      127
280
     0
281
     1
  0
CLASS
  1
WIPEOUTVARIABLES
  2
AcDbWipeoutVariables
  3
WipeOut|AutoCAD Express Tool|expresstools@autodesk.com
 90
        0
280
     0
281
     0
  0
CLASS
  1
RTEXT
  2
RText
  3
RText|AutoCAD Express Tool|expresstools@autodesk.com
 90
        0
280
     0
281
     1
  0
CLASS
  1
ARCALIGNEDTEXT
  2
AcDbArcAlignedText
  3
ATEXT|AutoCAD Express Tool|expresstools@autodesk.com
 90
        0
280
     0
281
     1
  0
ENDSEC
  0
SECTION
  2
TABLES
  0
TABLE
  2
VPORT
  5
1094
100
AcDbSymbolTable
 70
     1
  0
VPORT
  5
10BB
100
AcDbSymbolTableRecord
100
AcDbViewportTableRecord
  2
*ACTIVE
 70
     0
 10
0.0
 20
0.0
 11
1.0
 21
1.0
 12
450.328833
 22
266.374849
 13
0.0
 23
0.0
 14
0.5
 24
0.5
 15
0.5
 25
0.5
 16
0.0
 26
0.0
 36
1.0
 17
0.0
 27
0.0
 37
0.0
 40
620.078606
 41
1.701534
 42
50.0
 43
0.0
 44
0.0
 50
0.0
 51
0.0
 71
    16
 72
  1000
 73
     1
 74
     3
 75
     0
 76
     0
 77
     0
 78
     0
281
     0
 65
     0
110
0.0
120
0.0
130
0.0
111
1.0
121
0.0
131
0.0
112
0.0
122
1.0
132
0.0
345
0
346
0
 79
     0
146
0.0
  0
ENDTAB
  0
TABLE
  2
LTYPE
  5
1091
100
AcDbSymbolTable
 70
     6
  0
LTYPE
  5
109A
100
AcDbSymbolTableRecord
100
AcDbLinetypeTableRecord
  2
ByBlock
 70
    64
  3

 72
    65
 73
     0
 40
0.0
  0
LTYPE
  5
109B
100
AcDbSymbolTableRecord
100
AcDbLinetypeTableRecord
  2
ByLayer
 70
    64
  3

 72
    65
 73
     0
 40
0.0
  0
LTYPE
  5
109C
100
AcDbSymbolTableRecord
100
AcDbLinetypeTableRecord
  2
CONTINUOUS
 70
     0
  3
Solid line
 72
    65
 73
     0
 40
0.0
  0
LTYPE
  5
109D
100
AcDbSymbolTableRecord
100
AcDbLinetypeTableRecord
  2
CENTER
 70
     0
  3
____ _ ____ _ ____ _ ____ _ ____ _ ____ _ ____
 72
    65
 73
     4
 40
0.6
 49
0.375
 74
     0
 49
-0.075
 74
     0
 49
0.075
 74
     0
 49
-0.075
 74
     0
  0
LTYPE
  5
109E
100
AcDbSymbolTableRecord
100
AcDbLinetypeTableRecord
  2
ACAD_ISO02W100
 70
     0
  3
ISO Strichlinie __ __ __ __ __ __ __ __ __ __ _
 72
    65
 73
     2
 40
15.0
 49
12.0
 74
     0
 49
-3.0
 74
     0
  0
LTYPE
  5
109F
100
AcDbSymbolTableRecord
100
AcDbLinetypeTableRecord
  2
DASHED
 70
     0
  3
_ _ _ _ _ _ _ _ _ _ _ _ _ _ _ _ _ _ _ _ _ _ _ _
 72
    65
 73
     2
 40
0.375
 49
0.25
 74
     0
 49
-0.125
 74
     0
  0
ENDTAB
  0
TABLE
  2
LAYER
  5
108F
100
AcDbSymbolTable
 70
     8
  0
LAYER
  5
10A0
100
AcDbSymbolTableRecord
100
AcDbLayerTableRecord
  2
0
 70
     0
 62
     7
  6
CONTINUOUS
290
     1
370
    -3
390
0
  0
LAYER
  5
10A1
100
AcDbSymbolTableRecord
100
AcDbLayerTableRecord
  2
90000_FRAME
 70
     0
 62
     7
  6
CONTINUOUS
290
     1
370
    -3
390
0
  0
LAYER
  5
10A2
100
AcDbSymbolTableRecord
100
AcDbLayerTableRecord
  2
91000_TIP
 70
     0
 62
     7
  6
CONTINUOUS
290
     1
370
    -3
390
0
  0
LAYER
  5
10A3
100
AcDbSymbolTableRecord
100
AcDbLayerTableRecord
  2
10000_FRONT
 70
     0
 62
     7
  6
CONTINUOUS
290
     1
370
    -3
390
0
  0
LAYER
  5
10A4
100
AcDbSymbolTableRecord
100
AcDbLayerTableRecord
  2
11000_LEFT
 70
     0
 62
     7
  6
CONTINUOUS
290
     1
370
    -3
390
0
  0
LAYER
  5
10A7
100
AcDbSymbolTableRecord
100
AcDbLayerTableRecord
  2
DEFPOINTS
 70
     0
 62
     7
  6
CONTINUOUS
290
     0
370
    -3
390
0
  0
LAYER
  5
10A8
100
AcDbSymbolTableRecord
100
AcDbLayerTableRecord
  2
10100_FRONT_DIM
 70
     0
 62
     7
  6
CONTINUOUS
290
     1
370
    -3
390
0
  0
LAYER
  5
10A9
100
AcDbSymbolTableRecord
100
AcDbLayerTableRecord
  2
11100_LEFT_DIM
 70
     0
 62
     7
  6
CONTINUOUS
290
     1
370
    -3
390
0
  0
ENDTAB
  0
TABLE
  2
STYLE
  5
1090
100
AcDbSymbolTable
 70
     2
  0
STYLE
  5
10C0
100
AcDbSymbolTableRecord
100
AcDbTextStyleTableRecord
  2
STANDARD
 70
     0
 40
0.0
 41
1.0
 50
0.0
 71
     0
 42
0.2
  3
txt.shx
  4

  0
STYLE
  5
11E1
100
AcDbSymbolTableRecord
100
AcDbTextStyleTableRecord
  2
TFONT1
 70
     0
 40
0.0
 41
1.0
 50
0.0
 71
     0
 42
0.2
  3
TXT.SHX
  4

  0
ENDTAB
  0
TABLE
  2
VIEW
  5
1092
100
AcDbSymbolTable
 70
     0
  0
ENDTAB
  0
TABLE
  2
UCS
  5
1093
100
AcDbSymbolTable
 70
     0
  0
ENDTAB
  0
TABLE
  2
APPID
  5
1095
100
AcDbSymbolTable
 70
     4
  0
APPID
  5
10BC
100
AcDbSymbolTableRecord
100
AcDbRegAppTableRecord
  2
ACAD
 70
     0
  0
APPID
  5
10BD
100
AcDbSymbolTableRecord
100
AcDbRegAppTableRecord
  2
AUSTER_ANSICHT
 70
     0
  0
APPID
  5
10BE
100
AcDbSymbolTableRecord
100
AcDbRegAppTableRecord
  2
AUSTER_FOLIE
 70
     0
  0
APPID
  5
10BF
100
AcDbSymbolTableRecord
100
AcDbRegAppTableRecord
  2
ACAECLAYERSTANDARD
 70
     0
  0
ENDTAB
  0
TABLE
  2
DIMSTYLE
  5
1096
100
AcDbSymbolTable
 70
     3
100
AcDbDimStyleTable
 71
     0
  0
DIMSTYLE
105
10CA
100
AcDbSymbolTableRecord
100
AcDbDimStyleTableRecord
  2
STANDARD
 70
     0
  3

  4

 40
1.0
 41
0.18
 42
0.0625
 43
0.38
 44
0.18
 45
0.0
 46
0.0
 47
0.0
 48
0.0
 71
     0
 72
     0
 73
     1
 74
     1
 75
     0
 76
     0
 77
     0
 78
     0
 79
     0
140
0.18
141
0.09
142
0.0
143
25.4
144
1.0
145
0.0
146
1.0
147
0.09
148
0.0
170
     0
171
     2
172
     0
173
     0
174
     0
175
     0
176
     0
177
     0
178
     0
179
     0
271
     4
272
     4
273
     2
274
     2
275
     0
276
     0
277
     2
278
    46
279
     0
280
     0
281
     0
282
     0
283
     1
284
     0
285
     0
286
     0
288
     0
289
     3
340
10C0
341
0
342
0
343
0
344
0
371
    -2
372
    -2
  0
DIMSTYLE
105
10CB
100
AcDbSymbolTableRecord
100
AcDbDimStyleTableRecord
  2
DSTYLE1
 70
     0
  3

  4

 40
1.0
 41
3.0
 42
0.0
 43
0.38
 44
1.0
 45
0.0
 46
0.0
 47
0.0
 48
0.0
 71
     0
 72
     0
 73
     0
 74
     0
 75
     0
 76
     0
 77
     1
 78
     3
 79
     0
140
2.5
141
0.09
142
0.0
143
0.03937
144
1.0
145
0.0
146
1.0
147
1.0
148
0.0
170
     0
171
     2
172
     0
173
     0
174
     0
175
     0
176
     0
177
     0
178
     0
179
     0
271
     4
272
     4
273
     2
274
     2
275
     0
276
     0
277
     2
278
    46
279
     0
280
     0
281
     0
282
     0
283
     1
284
     0
285
     0
286
     0
288
     0
289
     3
340
10C0
341
0
342
0
343
0
344
0
371
    -2
372
    -2
  0
DIMSTYLE
105
10CC
100
AcDbSymbolTableRecord
100
AcDbDimStyleTableRecord
  2
H035
 70
     0
  3

  4

 40
0.0
 41
3.5
 42
0.0
 43
3.75
 44
2.0
 45
0.0
 46
0.0
 47
0.0
 48
0.0
 71
     0
 72
     0
 73
     0
 74
     0
 75
     0
 76
     0
 77
     1
 78
     8
 79
     0
140
3.5
141
2.5
142
0.0
143
0.039
144
1.0
145
0.0
146
1.0
147
0.5
148
0.0
170
     0
171
     4
172
     1
173
     0
174
     0
175
     0
176
   256
177
     7
178
     7
179
     0
271
     4
272
     4
273
     2
274
     2
275
     0
276
     0
277
     2
278
    46
279
     0
280
     0
281
     0
282
     0
283
     1
284
     0
285
     0
286
     0
288
     0
289
     3
340
10C0
341
0
342
0
343
0
344
0
371
    -2
372
    -2
  0
ENDTAB
  0
TABLE
  2
BLOCK_RECORD
  5
10C5
100
AcDbSymbolTable
 70
     2
  0
BLOCK_RECORD
  5
10C3
100
AcDbSymbolTableRecord
100
AcDbBlockTableRecord
  2
*Model_Space
340
0
  0
BLOCK_RECORD
  5
10C4
100
AcDbSymbolTableRecord
100
AcDbBlockTableRecord
  2
*Paper_Space
340
0
  0
BLOCK_RECORD
  5
10C1
100
AcDbSymbolTableRecord
100
AcDbBlockTableRecord
  2
$MODEL_SPACE
340
0
  0
BLOCK_RECORD
  5
10C2
100
AcDbSymbolTableRecord
100
AcDbBlockTableRecord
  2
$PAPER_SPACE
340
0
  0
ENDTAB
  0
ENDSEC
  0
SECTION
  2
BLOCKS
  0
BLOCK
  5
10C6
100
AcDbEntity
  8
0
390
0
100
AcDbBlockBegin
  2
*Model_Space
 70
     0
 10
0.0
 20
0.0
 30
0.0
  3
*Model_Space
  1

  0
ENDBLK
  5
10C7
100
AcDbEntity
  8
0
390
0
100
AcDbBlockEnd
  0
BLOCK
  5
10C8
100
AcDbEntity
 67
     1
  8
0
390
0
100
AcDbBlockBegin
  2
*Paper_Space
 70
     0
 10
0.0
 20
0.0
 30
0.0
  3
*Paper_Space
  1

  0
ENDBLK
  5
10C9
100
AcDbEntity
 67
     1
  8
0
390
0
100
AcDbBlockEnd
  0
BLOCK
  5
10CD
100
AcDbEntity
  8
0
100
AcDbBlockBegin
  2
$MODEL_SPACE
 70
     0
 10
0.0
 20
0.0
 30
0.0
  3
$MODEL_SPACE
  1

  0
ENDBLK
  5
21
100
AcDbEntity
  8
0
100
AcDbBlockEnd
  0
BLOCK
  5
10CE
100
AcDbEntity
  8
0
100
AcDbBlockBegin
  2
$PAPER_SPACE
 70
     0
 10
0.0
 20
0.0
 30
0.0
  3
$PAPER_SPACE
  1

  0
ENDBLK
  5
76
100
AcDbEntity
  8
0
100
AcDbBlockEnd
  0
ENDSEC
  0
SECTION
  2
ENTITIES
  0
LINE
  5
10D4
100
AcDbEntity
  8
10000_FRONT
370
    25
390
0
  6
CONTINUOUS
 62
     7
100
AcDbLine
 10
281.150039
 20
219.4
 30
0.0
 11
304.150038
 21
219.4
 31
0.0
  0
LINE
  5
10D5
100
AcDbEntity
  8
10000_FRONT
370
    25
390
0
  6
CONTINUOUS
 62
     7
100
AcDbLine
 10
399.477438
 20
219.4
 30
0.0
 11
406.931418
 21
219.4
 31
0.0
  0
LINE
  5
10D6
100
AcDbEntity
  8
10000_FRONT
370
    25
390
0
  6
CONTINUOUS
 62
     7
100
AcDbLine
 10
329.150027
 20
219.4
 30
0.0
 11
391.475401
 21
219.4
 31
0.0
  0
LINE
  5
10D7
100
AcDbEntity
  8
10000_FRONT
370
    25
390
0
  6
CONTINUOUS
 62
     7
100
AcDbLine
 10
391.475401
 20
219.4
 30
0.0
 11
396.691397
 21
219.4
 31
0.0
  0
LINE
  5
10D8
100
AcDbEntity
  8
10000_FRONT
370
    25
390
0
  6
CONTINUOUS
 62
     7
100
AcDbLine
 10
396.691397
 20
219.4
 30
0.0
 11
399.477438
 21
219.4
 31
0.0
  0
LINE
  5
10D9
100
AcDbEntity
  8
10000_FRONT
370
    25
390
0
  6
CONTINUOUS
 62
     7
100
AcDbLine
 10
237.368578
 20
219.4
 30
0.0
 11
244.822567
 21
219.4
 31
0.0
  0
LINE
  5
10DA
100
AcDbEntity
  8
10000_FRONT
370
    25
390
0
  6
CONTINUOUS
 62
     7
100
AcDbLine
 10
447.477438
 20
219.4
 30
0.0
 11
454.931418
 21
219.4
 31
0.0
  0
LINE
  5
10DB
100
AcDbEntity
  8
10000_FRONT
370
    25
390
0
  6
CONTINUOUS
 62
     7
100
AcDbLine
 10
244.822567
 20
219.4
 30
0.0
 11
252.431689
 21
219.4
 31
0.0
  0
LINE
  5
10DC
100
AcDbEntity
  8
10000_FRONT
370
    25
390
0
  6
CONTINUOUS
 62
     7
100
AcDbLine
 10
252.431689
 20
219.4
 30
0.0
 11
256.150001
 21
219.4
 31
0.0
  0
LINE
  5
10DD
100
AcDbEntity
  8
10000_FRONT
370
    25
390
0
  6
CONTINUOUS
 62
     7
100
AcDbLine
 10
329.150038
 20
219.4
 30
0.0
 11
434.652304
 21
219.4
 31
0.0
  0
LINE
  5
10DE
100
AcDbEntity
  8
10000_FRONT
370
    25
390
0
  6
CONTINUOUS
 62
     7
100
AcDbLine
 10
434.652304
 20
219.4
 30
0.0
 11
439.868307
 21
219.4
 31
0.0
  0
LINE
  5
10DF
100
AcDbEntity
  8
10000_FRONT
370
    25
390
0
  6
CONTINUOUS
 62
     7
100
AcDbLine
 10
439.868307
 20
219.4
 30
0.0
 11
447.477438
 21
219.4
 31
0.0
  0
LINE
  5
10E0
100
AcDbEntity
  8
10000_FRONT
370
    25
390
0
  6
CONTINUOUS
 62
     7
100
AcDbLine
 10
400.098593
 20
220.0
 30
0.0
 11
432.921774
 21
220.0
 31
0.0
  0
LINE
  5
10E1
100
AcDbEntity
  8
10000_FRONT
370
    25
390
0
  6
CONTINUOUS
 62
     7
100
AcDbLine
 10
291.637148
 20
220.0
 30
0.0
 11
292.201403
 21
220.0
 31
0.0
  0
LINE
  5
10E2
100
AcDbEntity
  8
10000_FRONT
370
    25
390
0
  6
CONTINUOUS
 62
     7
100
AcDbLine
 10
281.15
 20
220.0
 30
0.0
 11
291.637148
 21
220.0
 31
0.0
  0
LINE
  5
10E3
100
AcDbEntity
  8
10000_FRONT
370
    25
390
0
  6
CONTINUOUS
 62
     7
100
AcDbLine
 10
329.150008
 20
220.0
 30
0.0
 11
384.921782
 21
220.0
 31
0.0
  0
LINE
  5
10E4
100
AcDbEntity
  8
10000_FRONT
370
    25
390
0
  6
CONTINUOUS
 62
     7
100
AcDbLine
 10
448.098593
 20
220.0
 30
0.0
 11
448.662848
 21
220.0
 31
0.0
  0
LINE
  5
10E5
100
AcDbEntity
  8
10000_FRONT
370
    25
390
0
  6
CONTINUOUS
 62
     7
100
AcDbLine
 10
460.253958
 20
220.0
 30
0.0
 11
480.921774
 21
220.0
 31
0.0
  0
LINE
  5
10E6
100
AcDbEntity
  8
10000_FRONT
370
    25
390
0
  6
CONTINUOUS
 62
     7
100
AcDbLine
 10
448.662848
 20
220.0
 30
0.0
 11
460.253958
 21
220.0
 31
0.0
  0
LINE
  5
10E7
100
AcDbEntity
  8
10000_FRONT
370
    25
390
0
  6
CONTINUOUS
 62
     7
100
AcDbLine
 10
243.637148
 20
220.0
 30
0.0
 11
244.201403
 21
220.0
 31
0.0
  0
LINE
  5
10E8
100
AcDbEntity
  8
10000_FRONT
370
    25
390
0
  6
CONTINUOUS
 62
     7
100
AcDbLine
 10
233.15
 20
220.0
 30
0.0
 11
243.637148
 21
220.0
 31
0.0
  0
LINE
  5
10E9
100
AcDbEntity
  8
10000_FRONT
370
    25
390
0
  6
CONTINUOUS
 62
     7
100
AcDbLine
 10
400.098593
 20
245.0
 30
0.0
 11
432.921774
 21
245.0
 31
0.0
  0
LINE
  5
10EA
100
AcDbEntity
  8
10000_FRONT
370
    25
390
0
  6
CONTINUOUS
 62
     7
100
AcDbLine
 10
281.15
 20
245.0
 30
0.0
 11
291.637148
 21
245.0
 31
0.0
  0
LINE
  5
10EB
100
AcDbEntity
  8
10000_FRONT
370
    25
390
0
  6
CONTINUOUS
 62
     7
100
AcDbLine
 10
291.637148
 20
245.0
 30
0.0
 11
292.201403
 21
245.0
 31
0.0
  0
LINE
  5
10EC
100
AcDbEntity
  8
10000_FRONT
370
    25
390
0
  6
CONTINUOUS
 62
     7
100
AcDbLine
 10
329.150008
 20
245.0
 30
0.0
 11
384.921782
 21
245.0
 31
0.0
  0
LINE
  5
10ED
100
AcDbEntity
  8
10000_FRONT
370
    25
390
0
  6
CONTINUOUS
 62
     7
100
AcDbLine
 10
448.098593
 20
245.0
 30
0.0
 11
448.662848
 21
245.0
 31
0.0
  0
LINE
  5
10EE
100
AcDbEntity
  8
10000_FRONT
370
    25
390
0
  6
CONTINUOUS
 62
     7
100
AcDbLine
 10
448.662848
 20
245.0
 30
0.0
 11
460.253958
 21
245.0
 31
0.0
  0
LINE
  5
10EF
100
AcDbEntity
  8
10000_FRONT
370
    25
390
0
  6
CONTINUOUS
 62
     7
100
AcDbLine
 10
460.253958
 20
245.0
 30
0.0
 11
480.921774
 21
245.0
 31
0.0
  0
LINE
  5
10F0
100
AcDbEntity
  8
10000_FRONT
370
    25
390
0
  6
CONTINUOUS
 62
     7
100
AcDbLine
 10
233.15
 20
245.0
 30
0.0
 11
243.637148
 21
245.0
 31
0.0
  0
LINE
  5
10F1
100
AcDbEntity
  8
10000_FRONT
370
    25
390
0
  6
CONTINUOUS
 62
     7
100
AcDbLine
 10
243.637148
 20
245.0
 30
0.0
 11
244.201403
 21
245.0
 31
0.0
  0
LINE
  5
10F2
100
AcDbEntity
  8
10000_FRONT
370
    25
390
0
  6
CONTINUOUS
 62
     7
100
AcDbLine
 10
281.150039
 20
245.6
 30
0.0
 11
304.150027
 21
245.6
 31
0.0
  0
LINE
  5
10F3
100
AcDbEntity
  8
10000_FRONT
370
    25
390
0
  6
CONTINUOUS
 62
     7
100
AcDbLine
 10
399.477438
 20
245.6
 30
0.0
 11
406.931418
 21
245.6
 31
0.0
  0
LINE
  5
10F4
100
AcDbEntity
  8
10000_FRONT
370
    25
390
0
  6
CONTINUOUS
 62
     7
100
AcDbLine
 10
329.150027
 20
245.6
 30
0.0
 11
391.475401
 21
245.6
 31
0.0
  0
LINE
  5
10F5
100
AcDbEntity
  8
10000_FRONT
370
    25
390
0
  6
CONTINUOUS
 62
     7
100
AcDbLine
 10
391.475401
 20
245.6
 30
0.0
 11
396.691397
 21
245.6
 31
0.0
  0
LINE
  5
10F6
100
AcDbEntity
  8
10000_FRONT
370
    25
390
0
  6
CONTINUOUS
 62
     7
100
AcDbLine
 10
396.691397
 20
245.6
 30
0.0
 11
399.477438
 21
245.6
 31
0.0
  0
LINE
  5
10F7
100
AcDbEntity
  8
10000_FRONT
370
    25
390
0
  6
CONTINUOUS
 62
     7
100
AcDbLine
 10
237.368578
 20
245.6
 30
0.0
 11
244.822567
 21
245.6
 31
0.0
  0
LINE
  5
10F8
100
AcDbEntity
  8
10000_FRONT
370
    25
390
0
  6
CONTINUOUS
 62
     7
100
AcDbLine
 10
447.477438
 20
245.6
 30
0.0
 11
454.931418
 21
245.6
 31
0.0
  0
LINE
  5
10F9
100
AcDbEntity
  8
10000_FRONT
370
    25
390
0
  6
CONTINUOUS
 62
     7
100
AcDbLine
 10
244.822567
 20
245.6
 30
0.0
 11
252.431689
 21
245.6
 31
0.0
  0
LINE
  5
10FA
100
AcDbEntity
  8
10000_FRONT
370
    25
390
0
  6
CONTINUOUS
 62
     7
100
AcDbLine
 10
252.431689
 20
245.6
 30
0.0
 11
256.150001
 21
245.6
 31
0.0
  0
LINE
  5
10FB
100
AcDbEntity
  8
10000_FRONT
370
    25
390
0
  6
CONTINUOUS
 62
     7
100
AcDbLine
 10
406.931448
 20
245.6
 30
0.0
 11
434.652304
 21
245.6
 31
0.0
  0
LINE
  5
10FC
100
AcDbEntity
  8
10000_FRONT
370
    25
390
0
  6
CONTINUOUS
 62
     7
100
AcDbLine
 10
434.652304
 20
245.6
 30
0.0
 11
439.868307
 21
245.6
 31
0.0
  0
LINE
  5
10FD
100
AcDbEntity
  8
10000_FRONT
370
    25
390
0
  6
CONTINUOUS
 62
     7
100
AcDbLine
 10
439.868307
 20
245.6
 30
0.0
 11
447.477438
 21
245.6
 31
0.0
  0
LINE
  5
10FE
100
AcDbEntity
  8
10000_FRONT
370
    25
390
0
  6
CONTINUOUS
 62
     7
100
AcDbLine
 10
406.931448
 20
395.399994
 30
0.0
 11
454.931418
 21
395.399994
 31
0.0
  0
LINE
  5
10FF
100
AcDbEntity
  8
10000_FRONT
370
    25
390
0
  6
CONTINUOUS
 62
     7
100
AcDbLine
 10
238.976275
 20
395.399994
 30
0.0
 11
243.869328
 21
395.399994
 31
0.0
  0
LINE
  5
1100
100
AcDbEntity
  8
10000_FRONT
370
    25
390
0
  6
CONTINUOUS
 62
     7
100
AcDbLine
 10
243.869328
 20
395.399994
 30
0.0
 11
256.039993
 21
395.399994
 31
0.0
  0
LINE
  5
1101
100
AcDbEntity
  8
10000_FRONT
370
    25
390
0
  6
CONTINUOUS
 62
     7
100
AcDbLine
 10
256.039993
 20
395.399994
 30
0.0
 11
388.260008
 21
395.399994
 31
0.0
  0
LINE
  5
1102
100
AcDbEntity
  8
10000_FRONT
370
    25
390
0
  6
CONTINUOUS
 62
     7
100
AcDbLine
 10
388.260008
 20
395.399994
 30
0.0
 11
400.43067
 21
395.399994
 31
0.0
  0
LINE
  5
1103
100
AcDbEntity
  8
10000_FRONT
370
    25
390
0
  6
CONTINUOUS
 62
     7
100
AcDbLine
 10
400.43067
 20
395.399994
 30
0.0
 11
406.931418
 21
395.399994
 31
0.0
  0
LINE
  5
1104
100
AcDbEntity
  8
10000_FRONT
370
    25
390
0
  6
CONTINUOUS
 62
     7
100
AcDbLine
 10
448.098593
 20
396.0
 30
0.0
 11
480.921774
 21
396.0
 31
0.0
  0
LINE
  5
1105
100
AcDbEntity
  8
10000_FRONT
370
    25
390
0
  6
CONTINUOUS
 62
     7
100
AcDbLine
 10
412.253958
 20
396.0
 30
0.0
 11
432.921774
 21
396.0
 31
0.0
  0
LINE
  5
1106
100
AcDbEntity
  8
10000_FRONT
370
    25
390
0
  6
CONTINUOUS
 62
     7
100
AcDbLine
 10
406.931418
 20
396.0
 30
0.0
 11
412.253958
 21
396.0
 31
0.0
  0
LINE
  5
1107
100
AcDbEntity
  8
10000_FRONT
370
    25
390
0
  6
CONTINUOUS
 62
     7
100
AcDbLine
 10
233.653735
 20
396.0
 30
0.0
 11
238.976273
 21
396.0
 31
0.0
  0
LINE
  5
1108
100
AcDbEntity
  8
10000_FRONT
370
    25
390
0
  6
CONTINUOUS
 62
     7
100
AcDbLine
 10
211.378222
 20
396.0
 30
0.0
 11
233.653735
 21
396.0
 31
0.0
  0
LINE
  5
1109
100
AcDbEntity
  8
10000_FRONT
370
    25
390
0
  6
CONTINUOUS
 62
     7
100
AcDbLine
 10
448.098593
 20
421.0
 30
0.0
 11
480.921774
 21
421.0
 31
0.0
  0
LINE
  5
110A
100
AcDbEntity
  8
10000_FRONT
370
    25
390
0
  6
CONTINUOUS
 62
     7
100
AcDbLine
 10
406.931418
 20
421.0
 30
0.0
 11
412.253958
 21
421.0
 31
0.0
  0
LINE
  5
110B
100
AcDbEntity
  8
10000_FRONT
370
    25
390
0
  6
CONTINUOUS
 62
     7
100
AcDbLine
 10
412.253958
 20
421.0
 30
0.0
 11
432.921774
 21
421.0
 31
0.0
  0
LINE
  5
110C
100
AcDbEntity
  8
10000_FRONT
370
    25
390
0
  6
CONTINUOUS
 62
     7
100
AcDbLine
 10
211.378222
 20
421.0
 30
0.0
 11
233.653735
 21
421.0
 31
0.0
  0
LINE
  5
110D
100
AcDbEntity
  8
10000_FRONT
370
    25
390
0
  6
CONTINUOUS
 62
     7
100
AcDbLine
 10
233.653735
 20
421.0
 30
0.0
 11
238.976273
 21
421.0
 31
0.0
  0
LINE
  5
110E
100
AcDbEntity
  8
10000_FRONT
370
    25
390
0
  6
CONTINUOUS
 62
     7
100
AcDbLine
 10
406.931448
 20
421.600006
 30
0.0
 11
454.931418
 21
421.600006
 31
0.0
  0
LINE
  5
110F
100
AcDbEntity
  8
10000_FRONT
370
    25
390
0
  6
CONTINUOUS
 62
     7
100
AcDbLine
 10
238.976275
 20
421.600006
 30
0.0
 11
243.869328
 21
421.600006
 31
0.0
  0
LINE
  5
1110
100
AcDbEntity
  8
10000_FRONT
370
    25
390
0
  6
CONTINUOUS
 62
     7
100
AcDbLine
 10
243.869328
 20
421.600006
 30
0.0
 11
256.039993
 21
421.600006
 31
0.0
  0
LINE
  5
1111
100
AcDbEntity
  8
10000_FRONT
370
    25
390
0
  6
CONTINUOUS
 62
     7
100
AcDbLine
 10
256.039993
 20
421.600006
 30
0.0
 11
388.260008
 21
421.600006
 31
0.0
  0
LINE
  5
1112
100
AcDbEntity
  8
10000_FRONT
370
    25
390
0
  6
CONTINUOUS
 62
     7
100
AcDbLine
 10
388.260008
 20
421.600006
 30
0.0
 11
400.43067
 21
421.600006
 31
0.0
  0
LINE
  5
1113
100
AcDbEntity
  8
10000_FRONT
370
    25
390
0
  6
CONTINUOUS
 62
     7
100
AcDbLine
 10
400.43067
 20
421.600006
 30
0.0
 11
406.931418
 21
421.600006
 31
0.0
  0
LINE
  5
1114
100
AcDbEntity
  8
10000_FRONT
370
    25
390
0
  6
CONTINUOUS
 62
     7
100
AcDbLine
 10
208.15
 20
186.728222
 30
0.0
 11
208.15
 21
252.77178
 31
0.0
  0
LINE
  5
1115
100
AcDbEntity
  8
10000_FRONT
370
    25
390
0
  6
CONTINUOUS
 62
     7
100
AcDbLine
 10
208.15
 20
388.228226
 30
0.0
 11
208.15
 21
454.271774
 31
0.0
  0
LINE
  5
1116
100
AcDbEntity
  8
10000_FRONT
370
    25
390
0
  6
CONTINUOUS
 62
     7
100
AcDbLine
 10
233.15
 20
186.728222
 30
0.0
 11
233.15
 21
252.77178
 31
0.0
  0
LINE
  5
1117
100
AcDbEntity
  8
10000_FRONT
370
    25
390
0
  6
CONTINUOUS
 62
     7
100
AcDbLine
 10
233.15
 20
421.0
 30
0.0
 11
233.15
 21
454.271774
 31
0.0
  0
LINE
  5
1118
100
AcDbEntity
  8
10000_FRONT
370
    25
390
0
  6
CONTINUOUS
 62
     7
100
AcDbLine
 10
233.15
 20
388.228226
 30
0.0
 11
233.15
 21
396.0
 31
0.0
  0
LINE
  5
1119
100
AcDbEntity
  8
10000_FRONT
370
    25
390
0
  6
CONTINUOUS
 62
     7
100
AcDbLine
 10
233.653735
 20
396.0
 30
0.0
 11
233.653735
 21
421.0
 31
0.0
  0
LINE
  5
111A
100
AcDbEntity
  8
10000_FRONT
370
    25
390
0
  6
CONTINUOUS
 62
     7
100
AcDbLine
 10
237.368578
 20
245.000007
 30
0.0
 11
237.368578
 21
245.6
 31
0.0
  0
LINE
  5
111B
100
AcDbEntity
  8
10000_FRONT
370
    25
390
0
  6
CONTINUOUS
 62
     7
100
AcDbLine
 10
237.368578
 20
219.4
 30
0.0
 11
237.368578
 21
220.000008
 31
0.0
  0
LINE
  5
111C
100
AcDbEntity
  8
10000_FRONT
370
    25
390
0
  6
CONTINUOUS
 62
     7
100
AcDbLine
 10
238.976275
 20
395.399994
 30
0.0
 11
238.976275
 21
421.600006
 31
0.0
  0
LINE
  5
111D
100
AcDbEntity
  8
10000_FRONT
370
    25
390
0
  6
CONTINUOUS
 62
     7
100
AcDbLine
 10
243.637148
 20
220.0
 30
0.0
 11
243.637148
 21
245.0
 31
0.0
  0
LINE
  5
111E
100
AcDbEntity
  8
10000_FRONT
370
    25
390
0
  6
CONTINUOUS
 62
     7
100
AcDbLine
 10
243.869328
 20
395.399994
 30
0.0
 11
243.869328
 21
421.600006
 31
0.0
  0
LINE
  5
111F
100
AcDbEntity
  8
10000_FRONT
370
    25
390
0
  6
CONTINUOUS
 62
     7
100
AcDbLine
 10
244.201403
 20
220.0
 30
0.0
 11
244.201403
 21
245.0
 31
0.0
  0
LINE
  5
1120
100
AcDbEntity
  8
10000_FRONT
370
    25
390
0
  6
CONTINUOUS
 62
     7
100
AcDbLine
 10
244.822567
 20
219.4
 30
0.0
 11
244.822567
 21
245.6
 31
0.0
  0
LINE
  5
1121
100
AcDbEntity
  8
10000_FRONT
370
    25
390
0
  6
CONTINUOUS
 62
     7
100
AcDbLine
 10
252.431689
 20
219.4
 30
0.0
 11
252.431689
 21
245.6
 31
0.0
  0
LINE
  5
1122
100
AcDbEntity
  8
10000_FRONT
370
    25
390
0
  6
CONTINUOUS
 62
     7
100
AcDbLine
 10
256.039993
 20
395.399994
 30
0.0
 11
256.039993
 21
421.600006
 31
0.0
  0
LINE
  5
1123
100
AcDbEntity
  8
10000_FRONT
370
    25
390
0
  6
CONTINUOUS
 62
     7
100
AcDbLine
 10
256.15
 20
186.728222
 30
0.0
 11
256.15
 21
252.77178
 31
0.0
  0
LINE
  5
1124
100
AcDbEntity
  8
10000_FRONT
370
    25
390
0
  6
CONTINUOUS
 62
     7
100
AcDbLine
 10
256.15
 20
388.228226
 30
0.0
 11
256.15
 21
395.400024
 31
0.0
  0
LINE
  5
1125
100
AcDbEntity
  8
10000_FRONT
370
    25
390
0
  6
CONTINUOUS
 62
     7
100
AcDbLine
 10
256.15
 20
421.600021
 30
0.0
 11
256.15
 21
454.271774
 31
0.0
  0
LINE
  5
1126
100
AcDbEntity
  8
10000_FRONT
370
    25
390
0
  6
CONTINUOUS
 62
     7
100
AcDbLine
 10
281.15
 20
186.728222
 30
0.0
 11
281.15
 21
252.77178
 31
0.0
  0
LINE
  5
1127
100
AcDbEntity
  8
10000_FRONT
370
    25
390
0
  6
CONTINUOUS
 62
     7
100
AcDbLine
 10
281.15
 20
421.600021
 30
0.0
 11
281.15
 21
454.271774
 31
0.0
  0
LINE
  5
1128
100
AcDbEntity
  8
10000_FRONT
370
    25
390
0
  6
CONTINUOUS
 62
     7
100
AcDbLine
 10
281.15
 20
388.228226
 30
0.0
 11
281.15
 21
395.400024
 31
0.0
  0
LINE
  5
1129
100
AcDbEntity
  8
10000_FRONT
370
    25
390
0
  6
CONTINUOUS
 62
     7
100
AcDbLine
 10
285.36858
 20
245.000007
 30
0.0
 11
285.36858
 21
245.6
 31
0.0
  0
LINE
  5
112A
100
AcDbEntity
  8
10000_FRONT
370
    25
390
0
  6
CONTINUOUS
 62
     7
100
AcDbLine
 10
285.36858
 20
219.4
 30
0.0
 11
285.36858
 21
220.000008
 31
0.0
  0
LINE
  5
112B
100
AcDbEntity
  8
10000_FRONT
370
    25
390
0
  6
CONTINUOUS
 62
     7
100
AcDbLine
 10
285.36858
 20
395.399994
 30
0.0
 11
285.36858
 21
395.40004
 31
0.0
  0
LINE
  5
112C
100
AcDbEntity
  8
10000_FRONT
370
    25
390
0
  6
CONTINUOUS
 62
     7
100
AcDbLine
 10
291.637148
 20
220.0
 30
0.0
 11
291.637148
 21
245.0
 31
0.0
  0
LINE
  5
112D
100
AcDbEntity
  8
10000_FRONT
370
    25
390
0
  6
CONTINUOUS
 62
     7
100
AcDbLine
 10
292.201403
 20
220.0
 30
0.0
 11
292.201403
 21
245.0
 31
0.0
  0
LINE
  5
112E
100
AcDbEntity
  8
10000_FRONT
370
    25
390
0
  6
CONTINUOUS
 62
     7
100
AcDbLine
 10
292.822569
 20
219.4
 30
0.0
 11
292.822569
 21
245.6
 31
0.0
  0
LINE
  5
112F
100
AcDbEntity
  8
10000_FRONT
370
    25
390
0
  6
CONTINUOUS
 62
     7
100
AcDbLine
 10
292.822569
 20
395.399994
 30
0.0
 11
292.822569
 21
395.40004
 31
0.0
  0
LINE
  5
1130
100
AcDbEntity
  8
10000_FRONT
370
    25
390
0
  6
CONTINUOUS
 62
     7
100
AcDbLine
 10
295.608603
 20
395.399994
 30
0.0
 11
295.608603
 21
395.400055
 31
0.0
  0
LINE
  5
1131
100
AcDbEntity
  8
10000_FRONT
370
    25
390
0
  6
CONTINUOUS
 62
     7
100
AcDbLine
 10
295.608605
 20
219.4
 30
0.0
 11
295.608605
 21
245.6
 31
0.0
  0
LINE
  5
1132
100
AcDbEntity
  8
10000_FRONT
370
    25
390
0
  6
CONTINUOUS
 62
     7
100
AcDbLine
 10
300.824603
 20
219.4
 30
0.0
 11
300.824603
 21
245.6
 31
0.0
  0
LINE
  5
1133
100
AcDbEntity
  8
10000_FRONT
370
    25
390
0
  6
CONTINUOUS
 62
     7
100
AcDbLine
 10
300.824603
 20
395.399994
 30
0.0
 11
300.824603
 21
395.400055
 31
0.0
  0
LINE
  5
1134
100
AcDbEntity
  8
10000_FRONT
370
    25
390
0
  6
CONTINUOUS
 62
     7
100
AcDbLine
 10
304.15
 20
388.228226
 30
0.0
 11
304.15
 21
395.400024
 31
0.0
  0
LINE
  5
1135
100
AcDbEntity
  8
10000_FRONT
370
    25
390
0
  6
CONTINUOUS
 62
     7
100
AcDbLine
 10
304.15
 20
421.600021
 30
0.0
 11
304.15
 21
454.271774
 31
0.0
  0
LINE
  5
1136
100
AcDbEntity
  8
10000_FRONT
370
    25
390
0
  6
CONTINUOUS
 62
     7
100
AcDbLine
 10
304.15
 20
186.728222
 30
0.0
 11
304.15
 21
252.77178
 31
0.0
  0
LINE
  5
1137
100
AcDbEntity
  8
10000_FRONT
370
    25
390
0
  6
CONTINUOUS
 62
     7
100
AcDbLine
 10
329.15
 20
421.600021
 30
0.0
 11
329.15
 21
454.271774
 31
0.0
  0
LINE
  5
1138
100
AcDbEntity
  8
10000_FRONT
370
    25
390
0
  6
CONTINUOUS
 62
     7
100
AcDbLine
 10
329.15
 20
388.228226
 30
0.0
 11
329.15
 21
395.400024
 31
0.0
  0
LINE
  5
1139
100
AcDbEntity
  8
10000_FRONT
370
    25
390
0
  6
CONTINUOUS
 62
     7
100
AcDbLine
 10
329.15
 20
186.728222
 30
0.0
 11
329.15
 21
252.77178
 31
0.0
  0
LINE
  5
113A
100
AcDbEntity
  8
10000_FRONT
370
    25
390
0
  6
CONTINUOUS
 62
     7
100
AcDbLine
 10
388.260008
 20
395.399994
 30
0.0
 11
388.260008
 21
421.600006
 31
0.0
  0
LINE
  5
113B
100
AcDbEntity
  8
10000_FRONT
370
    25
390
0
  6
CONTINUOUS
 62
     7
100
AcDbLine
 10
391.475401
 20
219.4
 30
0.0
 11
391.475401
 21
245.6
 31
0.0
  0
LINE
  5
113C
100
AcDbEntity
  8
10000_FRONT
370
    25
390
0
  6
CONTINUOUS
 62
     7
100
AcDbLine
 10
396.691397
 20
219.4
 30
0.0
 11
396.691397
 21
245.6
 31
0.0
  0
LINE
  5
113D
100
AcDbEntity
  8
10000_FRONT
370
    25
390
0
  6
CONTINUOUS
 62
     7
100
AcDbLine
 10
399.477438
 20
219.4
 30
0.0
 11
399.477438
 21
245.6
 31
0.0
  0
LINE
  5
113E
100
AcDbEntity
  8
10000_FRONT
370
    25
390
0
  6
CONTINUOUS
 62
     7
100
AcDbLine
 10
400.098593
 20
220.0
 30
0.0
 11
400.098593
 21
245.0
 31
0.0
  0
LINE
  5
113F
100
AcDbEntity
  8
10000_FRONT
370
    25
390
0
  6
CONTINUOUS
 62
     7
100
AcDbLine
 10
400.43067
 20
395.399994
 30
0.0
 11
400.43067
 21
421.600006
 31
0.0
  0
LINE
  5
1140
100
AcDbEntity
  8
10000_FRONT
370
    25
390
0
  6
CONTINUOUS
 62
     7
100
AcDbLine
 10
400.662848
 20
220.0
 30
0.0
 11
400.662848
 21
245.0
 31
0.0
  0
LINE
  5
1141
100
AcDbEntity
  8
10000_FRONT
370
    25
390
0
  6
CONTINUOUS
 62
     7
100
AcDbLine
 10
406.931418
 20
245.000007
 30
0.0
 11
406.931418
 21
245.6
 31
0.0
  0
LINE
  5
1142
100
AcDbEntity
  8
10000_FRONT
370
    25
390
0
  6
CONTINUOUS
 62
     7
100
AcDbLine
 10
406.931418
 20
219.4
 30
0.0
 11
406.931418
 21
220.000008
 31
0.0
  0
LINE
  5
1143
100
AcDbEntity
  8
10000_FRONT
370
    25
390
0
  6
CONTINUOUS
 62
     7
100
AcDbLine
 10
406.931418
 20
395.399994
 30
0.0
 11
406.931418
 21
421.600006
 31
0.0
  0
LINE
  5
1144
100
AcDbEntity
  8
10000_FRONT
370
    25
390
0
  6
CONTINUOUS
 62
     7
100
AcDbLine
 10
412.253958
 20
220.0
 30
0.0
 11
412.253958
 21
245.0
 31
0.0
  0
LINE
  5
1145
100
AcDbEntity
  8
10000_FRONT
370
    25
390
0
  6
CONTINUOUS
 62
     7
100
AcDbLine
 10
412.253958
 20
396.0
 30
0.0
 11
412.253958
 21
421.0
 31
0.0
  0
LINE
  5
1146
100
AcDbEntity
  8
10000_FRONT
370
    25
390
0
  6
CONTINUOUS
 62
     7
100
AcDbLine
 10
434.652304
 20
240.172559
 30
0.0
 11
434.652304
 21
245.6
 31
0.0
  0
LINE
  5
1147
100
AcDbEntity
  8
10000_FRONT
370
    25
390
0
  6
CONTINUOUS
 62
     7
100
AcDbLine
 10
434.652304
 20
219.4
 30
0.0
 11
434.652304
 21
224.827501
 31
0.0
  0
LINE
  5
1148
100
AcDbEntity
  8
10000_FRONT
370
    25
390
0
  6
CONTINUOUS
 62
     7
100
AcDbLine
 10
439.475394
 20
395.399994
 30
0.0
 11
439.475394
 21
421.600006
 31
0.0
  0
LINE
  5
1149
100
AcDbEntity
  8
10000_FRONT
370
    25
390
0
  6
CONTINUOUS
 62
     7
100
AcDbLine
 10
439.868307
 20
219.4
 30
0.0
 11
439.868307
 21
245.6
 31
0.0
  0
LINE
  5
114A
100
AcDbEntity
  8
10000_FRONT
370
    25
390
0
  6
CONTINUOUS
 62
     7
100
AcDbLine
 10
444.691397
 20
395.399994
 30
0.0
 11
444.691397
 21
421.600006
 31
0.0
  0
LINE
  5
114B
100
AcDbEntity
  8
10000_FRONT
370
    25
390
0
  6
CONTINUOUS
 62
     7
100
AcDbLine
 10
447.477423
 20
395.399994
 30
0.0
 11
447.477423
 21
421.600006
 31
0.0
  0
LINE
  5
114C
100
AcDbEntity
  8
10000_FRONT
370
    25
390
0
  6
CONTINUOUS
 62
     7
100
AcDbLine
 10
447.477438
 20
219.4
 30
0.0
 11
447.477438
 21
245.6
 31
0.0
  0
LINE
  5
114D
100
AcDbEntity
  8
10000_FRONT
370
    25
390
0
  6
CONTINUOUS
 62
     7
100
AcDbLine
 10
448.098593
 20
220.0
 30
0.0
 11
448.098593
 21
245.0
 31
0.0
  0
LINE
  5
114E
100
AcDbEntity
  8
10000_FRONT
370
    25
390
0
  6
CONTINUOUS
 62
     7
100
AcDbLine
 10
448.098593
 20
396.0
 30
0.0
 11
448.098593
 21
421.0
 31
0.0
  0
LINE
  5
114F
100
AcDbEntity
  8
10000_FRONT
370
    25
390
0
  6
CONTINUOUS
 62
     7
100
AcDbLine
 10
448.662848
 20
220.0
 30
0.0
 11
448.662848
 21
245.0
 31
0.0
  0
LINE
  5
1150
100
AcDbEntity
  8
10000_FRONT
370
    25
390
0
  6
CONTINUOUS
 62
     7
100
AcDbLine
 10
448.662848
 20
396.0
 30
0.0
 11
448.662848
 21
421.0
 31
0.0
  0
LINE
  5
1151
100
AcDbEntity
  8
10000_FRONT
370
    25
390
0
  6
CONTINUOUS
 62
     7
100
AcDbLine
 10
454.931418
 20
245.000007
 30
0.0
 11
454.931418
 21
245.6
 31
0.0
  0
LINE
  5
1152
100
AcDbEntity
  8
10000_FRONT
370
    25
390
0
  6
CONTINUOUS
 62
     7
100
AcDbLine
 10
454.931418
 20
219.4
 30
0.0
 11
454.931418
 21
220.000008
 31
0.0
  0
LINE
  5
1153
100
AcDbEntity
  8
10000_FRONT
370
    25
390
0
  6
CONTINUOUS
 62
     7
100
AcDbLine
 10
454.931418
 20
395.399994
 30
0.0
 11
454.931418
 21
396.0
 31
0.0
  0
LINE
  5
1154
100
AcDbEntity
  8
10000_FRONT
370
    25
390
0
  6
CONTINUOUS
 62
     7
100
AcDbLine
 10
454.931418
 20
421.0
 30
0.0
 11
454.931418
 21
421.600006
 31
0.0
  0
LINE
  5
1155
100
AcDbEntity
  8
10000_FRONT
370
    25
390
0
  6
CONTINUOUS
 62
     7
100
AcDbLine
 10
460.253958
 20
220.0
 30
0.0
 11
460.253958
 21
245.0
 31
0.0
  0
LINE
  5
1156
100
AcDbEntity
  8
10000_FRONT
370
    25
390
0
  6
CONTINUOUS
 62
     7
100
AcDbLine
 10
460.253958
 20
396.0
 30
0.0
 11
460.253958
 21
421.0
 31
0.0
  0
CIRCLE
  5
1157
100
AcDbEntity
  8
10000_FRONT
370
    25
390
0
  6
CONTINUOUS
 62
     7
100
AcDbCircle
 10
220.65
 20
196.5
 30
0.0
 40
5.5
  0
ARC
  5
1158
100
AcDbEntity
  8
10000_FRONT
370
    25
390
0
  6
CONTINUOUS
 62
     7
100
AcDbCircle
 10
220.65
 20
214.000001
 30
0.0
 40
30.000001
100
AcDbArc
 50
245.375681
 51
294.624319
  0
ARC
  5
1159
100
AcDbEntity
  8
10000_FRONT
370
    25
390
0
  6
CONTINUOUS
 62
     7
100
AcDbCircle
 10
220.65
 20
225.499999
 30
0.0
 40
30.000001
100
AcDbArc
 50
65.375682
 51
114.624318
  0
CIRCLE
  5
115A
100
AcDbEntity
  8
10000_FRONT
370
    25
390
0
  6
CONTINUOUS
 62
     7
100
AcDbCircle
 10
220.65
 20
236.5
 30
0.0
 40
5.5
  0
CIRCLE
  5
115B
100
AcDbEntity
  8
10000_FRONT
370
    25
390
0
  6
CONTINUOUS
 62
     7
100
AcDbCircle
 10
220.65
 20
251.5
 30
0.0
 40
2.0
  0
CIRCLE
  5
115C
100
AcDbEntity
  8
10000_FRONT
370
    25
390
0
  6
CONTINUOUS
 62
     7
100
AcDbCircle
 10
220.65
 20
389.5
 30
0.0
 40
2.0
  0
CIRCLE
  5
115D
100
AcDbEntity
  8
10000_FRONT
370
    25
390
0
  6
CONTINUOUS
 62
     7
100
AcDbCircle
 10
220.65
 20
404.5
 30
0.0
 40
5.5
  0
ARC
  5
115E
100
AcDbEntity
  8
10000_FRONT
370
    25
390
0
  6
CONTINUOUS
 62
     7
100
AcDbCircle
 10
220.65
 20
415.500001
 30
0.0
 40
30.000001
100
AcDbArc
 50
245.375678
 51
294.624322
  0
ARC
  5
115F
100
AcDbEntity
  8
10000_FRONT
370
    25
390
0
  6
CONTINUOUS
 62
     7
100
AcDbCircle
 10
220.65
 20
426.999999
 30
0.0
 40
30.000001
100
AcDbArc
 50
65.375678
 51
114.624322
  0
CIRCLE
  5
1160
100
AcDbEntity
  8
10000_FRONT
370
    25
390
0
  6
CONTINUOUS
 62
     7
100
AcDbCircle
 10
220.65
 20
444.5
 30
0.0
 40
5.5
  0
ARC
  5
1161
100
AcDbEntity
  8
10000_FRONT
370
    25
390
0
  6
CONTINUOUS
 62
     7
100
AcDbCircle
 10
238.650001
 20
408.5
 30
0.0
 40
30.000001
100
AcDbArc
 50
155.375681
 51
204.624319
  0
CIRCLE
  5
1162
100
AcDbEntity
  8
10000_FRONT
370
    25
390
0
  6
CONTINUOUS
 62
     7
100
AcDbCircle
 10
268.65
 20
196.5
 30
0.0
 40
5.5
  0
ARC
  5
1163
100
AcDbEntity
  8
10000_FRONT
370
    25
390
0
  6
CONTINUOUS
 62
     7
100
AcDbCircle
 10
268.65
 20
214.000001
 30
0.0
 40
30.000001
100
AcDbArc
 50
245.375681
 51
294.624319
  0
ARC
  5
1164
100
AcDbEntity
  8
10000_FRONT
370
    25
390
0
  6
CONTINUOUS
 62
     7
100
AcDbCircle
 10
268.65
 20
225.499999
 30
0.0
 40
30.000001
100
AcDbArc
 50
65.375682
 51
114.624318
  0
CIRCLE
  5
1165
100
AcDbEntity
  8
10000_FRONT
370
    25
390
0
  6
CONTINUOUS
 62
     7
100
AcDbCircle
 10
268.65
 20
236.5
 30
0.0
 40
5.5
  0
CIRCLE
  5
1166
100
AcDbEntity
  8
10000_FRONT
370
    25
390
0
  6
CONTINUOUS
 62
     7
100
AcDbCircle
 10
268.65
 20
251.5
 30
0.0
 40
2.0
  0
CIRCLE
  5
1167
100
AcDbEntity
  8
10000_FRONT
370
    25
390
0
  6
CONTINUOUS
 62
     7
100
AcDbCircle
 10
268.65
 20
389.5
 30
0.0
 40
2.0
  0
ARC
  5
1168
100
AcDbEntity
  8
10000_FRONT
370
    25
390
0
  6
CONTINUOUS
 62
     7
100
AcDbCircle
 10
268.65
 20
415.500001
 30
0.0
 40
30.000001
100
AcDbArc
 50
245.375678
 51
294.624322
  0
ARC
  5
1169
100
AcDbEntity
  8
10000_FRONT
370
    25
390
0
  6
CONTINUOUS
 62
     7
100
AcDbCircle
 10
268.65
 20
426.999999
 30
0.0
 40
30.000001
100
AcDbArc
 50
65.375678
 51
114.624322
  0
CIRCLE
  5
116A
100
AcDbEntity
  8
10000_FRONT
370
    25
390
0
  6
CONTINUOUS
 62
     7
100
AcDbCircle
 10
268.65
 20
444.5
 30
0.0
 40
5.5
  0
CIRCLE
  5
116B
100
AcDbEntity
  8
10000_FRONT
370
    25
390
0
  6
CONTINUOUS
 62
     7
100
AcDbCircle
 10
316.65
 20
196.5
 30
0.0
 40
5.5
  0
ARC
  5
116C
100
AcDbEntity
  8
10000_FRONT
370
    25
390
0
  6
CONTINUOUS
 62
     7
100
AcDbCircle
 10
316.65
 20
214.000001
 30
0.0
 40
30.000001
100
AcDbArc
 50
245.375681
 51
294.624319
  0
ARC
  5
116D
100
AcDbEntity
  8
10000_FRONT
370
    25
390
0
  6
CONTINUOUS
 62
     7
100
AcDbCircle
 10
316.65
 20
225.499999
 30
0.0
 40
30.000001
100
AcDbArc
 50
65.375682
 51
114.624318
  0
CIRCLE
  5
116E
100
AcDbEntity
  8
10000_FRONT
370
    25
390
0
  6
CONTINUOUS
 62
     7
100
AcDbCircle
 10
316.65
 20
236.5
 30
0.0
 40
5.5
  0
CIRCLE
  5
116F
100
AcDbEntity
  8
10000_FRONT
370
    25
390
0
  6
CONTINUOUS
 62
     7
100
AcDbCircle
 10
316.65
 20
251.5
 30
0.0
 40
2.0
  0
CIRCLE
  5
1170
100
AcDbEntity
  8
10000_FRONT
370
    25
390
0
  6
CONTINUOUS
 62
     7
100
AcDbCircle
 10
316.65
 20
389.5
 30
0.0
 40
2.0
  0
ARC
  5
1171
100
AcDbEntity
  8
10000_FRONT
370
    25
390
0
  6
CONTINUOUS
 62
     7
100
AcDbCircle
 10
316.65
 20
415.500001
 30
0.0
 40
30.000001
100
AcDbArc
 50
245.375678
 51
294.624322
  0
ARC
  5
1172
100
AcDbEntity
  8
10000_FRONT
370
    25
390
0
  6
CONTINUOUS
 62
     7
100
AcDbCircle
 10
316.65
 20
426.999999
 30
0.0
 40
30.000001
100
AcDbArc
 50
65.375678
 51
114.624322
  0
CIRCLE
  5
1173
100
AcDbEntity
  8
10000_FRONT
370
    25
390
0
  6
CONTINUOUS
 62
     7
100
AcDbCircle
 10
316.65
 20
444.5
 30
0.0
 40
5.5
  0
ARC
  5
1174
100
AcDbEntity
  8
10000_FRONT
370
    25
390
0
  6
CONTINUOUS
 62
     7
100
AcDbCircle
 10
357.649999
 20
232.5
 30
0.0
 40
30.000001
100
AcDbArc
 50
335.375684
 51
24.624316
  0
CIRCLE
  5
1175
100
AcDbEntity
  8
10000_FRONT
370
    25
390
0
  6
CONTINUOUS
 62
     7
100
AcDbCircle
 10
375.65
 20
236.5
 30
0.0
 40
5.5
  0
ARC
  5
1176
100
AcDbEntity
  8
10000_FRONT
370
    25
390
0
  6
CONTINUOUS
 62
     7
100
AcDbCircle
 10
405.649999
 20
232.5
 30
0.0
 40
30.000001
100
AcDbArc
 50
335.375678
 51
24.624322
  0
ARC
  5
1177
100
AcDbEntity
  8
10000_FRONT
370
    25
390
0
  6
CONTINUOUS
 62
     7
100
AcDbCircle
 10
405.649999
 20
408.5
 30
0.0
 40
30.000001
100
AcDbArc
 50
335.375678
 51
24.624322
  0
CIRCLE
  5
1178
100
AcDbEntity
  8
10000_FRONT
370
    25
390
0
  6
CONTINUOUS
 62
     7
100
AcDbCircle
 10
423.65
 20
236.5
 30
0.0
 40
5.5
  0
CIRCLE
  5
1179
100
AcDbEntity
  8
10000_FRONT
370
    25
390
0
  6
CONTINUOUS
 62
     7
100
AcDbCircle
 10
423.65
 20
404.5
 30
0.0
 40
5.5
  0
ARC
  5
117A
100
AcDbEntity
  8
10000_FRONT
370
    25
390
0
  6
CONTINUOUS
 62
     7
100
AcDbCircle
 10
453.649999
 20
232.5
 30
0.0
 40
30.000001
100
AcDbArc
 50
335.375678
 51
24.624322
  0
ARC
  5
117B
100
AcDbEntity
  8
10000_FRONT
370
    25
390
0
  6
CONTINUOUS
 62
     7
100
AcDbCircle
 10
453.649999
 20
408.5
 30
0.0
 40
30.000001
100
AcDbArc
 50
335.375678
 51
24.624322
  0
CIRCLE
  5
117C
100
AcDbEntity
  8
10000_FRONT
370
    25
390
0
  6
CONTINUOUS
 62
     7
100
AcDbCircle
 10
471.65
 20
236.5
 30
0.0
 40
5.5
  0
CIRCLE
  5
117D
100
AcDbEntity
  8
10000_FRONT
370
    25
390
0
  6
CONTINUOUS
 62
     7
100
AcDbCircle
 10
471.65
 20
404.5
 30
0.0
 40
5.5
  0
LINE
  5
117E
100
AcDbEntity
  8
10100_FRONT_DIM
370
    13
390
0
  6
CONTINUOUS
 62
     7
100
AcDbLine
 10
208.15
 20
252.77
 30
0.0
 11
208.15
 21
468.0
 31
0.0
  0
LINE
  5
117F
100
AcDbEntity
  8
10100_FRONT_DIM
370
    13
390
0
  6
CONTINUOUS
 62
     7
100
AcDbLine
 10
483.65
 20
468.0
 30
0.0
 11
483.65
 21
232.5
 31
0.0
  0
LINE
  5
1180
100
AcDbEntity
  8
10100_FRONT_DIM
370
    13
390
0
  6
CONTINUOUS
 62
     7
100
AcDbLine
 10
208.15
 20
467.0
 30
0.0
 11
483.65
 21
467.0
 31
0.0
  0
TEXT
  5
1181
100
AcDbEntity
  8
10100_FRONT_DIM
370
    13
390
0
  6
CONTINUOUS
 62
     7
100
AcDbText
 10
341.9
 20
468.0
 30
0.0
 40
2.0
  1
275.5
 72
     1
 11
345.9
 21
468.0
 31
0.0
100
AcDbText
  0
LINE
  5
1182
100
AcDbEntity
  8
10100_FRONT_DIM
370
    13
390
0
  6
CONTINUOUS
 62
     7
100
AcDbLine
 10
220.65
 20
184.0
 30
0.0
 11
197.15
 21
184.0
 31
0.0
  0
LINE
  5
1183
100
AcDbEntity
  8
10100_FRONT_DIM
370
    13
390
0
  6
CONTINUOUS
 62
     7
100
AcDbLine
 10
197.15
 20
457.0
 30
0.0
 11
220.65
 21
457.0
 31
0.0
  0
LINE
  5
1184
100
AcDbEntity
  8
10100_FRONT_DIM
370
    13
390
0
  6
CONTINUOUS
 62
     7
100
AcDbLine
 10
198.15
 20
184.0
 30
0.0
 11
198.15
 21
457.0
 31
0.0
  0
TEXT
  5
1185
100
AcDbEntity
  8
10100_FRONT_DIM
370
    13
390
0
  6
CONTINUOUS
 62
     7
100
AcDbText
 10
197.15
 20
317.833333
 30
0.0
 40
2.0
  1
273
 50
90.0
 72
     1
 11
197.15
 21
320.5
 31
0.0
100
AcDbText
  0
SOLID
  5
1186
100
AcDbEntity
  8
10100_FRONT_DIM
370
    13
390
0
  6
CONTINUOUS
 62
     7
100
AcDbTrace
 10
212.15
 20
467.52661
 30
0.0
 11
208.15
 21
467.0
 31
0.0
 12
212.15
 22
466.47339
 32
0.0
 13
208.15
 23
467.0
 33
0.0
  0
SOLID
  5
1187
100
AcDbEntity
  8
10100_FRONT_DIM
370
    13
390
0
  6
CONTINUOUS
 62
     7
100
AcDbTrace
 10
479.65
 20
466.47339
 30
0.0
 11
483.65
 21
467.0
 31
0.0
 12
479.65
 22
467.52661
 32
0.0
 13
483.65
 23
467.0
 33
0.0
  0
SOLID
  5
1188
100
AcDbEntity
  8
10100_FRONT_DIM
370
    13
390
0
  6
CONTINUOUS
 62
     7
100
AcDbTrace
 10
197.62339
 20
188.0
 30
0.0
 11
198.15
 21
184.0
 31
0.0
 12
198.67661
 22
188.0
 32
0.0
 13
198.15
 23
184.0
 33
0.0
  0
SOLID
  5
1189
100
AcDbEntity
  8
10100_FRONT_DIM
370
    13
390
0
  6
CONTINUOUS
 62
     7
100
AcDbTrace
 10
198.67661
 20
453.0
 30
0.0
 11
198.15
 21
457.0
 31
0.0
 12
197.62339
 22
453.0
 32
0.0
 13
198.15
 23
457.0
 33
0.0
  0
LINE
  5
118A
100
AcDbEntity
  8
11000_LEFT
370
    25
390
0
  6
CONTINUOUS
 62
     7
100
AcDbLine
 10
600.25
 20
184.0
 30
0.0
 11
606.25
 21
184.0
 31
0.0
  0
LINE
  5
118B
100
AcDbEntity
  8
11000_LEFT
370
    25
390
0
  6
CONTINUOUS
 62
     7
100
AcDbLine
 10
600.25
 20
186.728222
 30
0.0
 11
606.25
 21
186.728222
 31
0.0
  0
LINE
  5
118C
100
AcDbEntity
  8
11000_LEFT
370
    25
390
0
  6
CONTINUOUS
 62
     7
100
AcDbLine
 10
543.650002
 20
219.4
 30
0.0
 11
583.25
 21
219.4
 31
0.0
  0
LINE
  5
118D
100
AcDbEntity
  8
11000_LEFT
370
    25
390
0
  6
CONTINUOUS
 62
     7
100
AcDbLine
 10
583.25
 20
220.0
 30
0.0
 11
594.25
 21
220.0
 31
0.0
  0
LINE
  5
118E
100
AcDbEntity
  8
11000_LEFT
370
    25
390
0
  6
CONTINUOUS
 62
     7
100
AcDbLine
 10
583.25
 20
245.0
 30
0.0
 11
594.25
 21
245.0
 31
0.0
  0
LINE
  5
118F
100
AcDbEntity
  8
11000_LEFT
370
    25
390
0
  6
CONTINUOUS
 62
     7
100
AcDbLine
 10
543.650002
 20
245.6
 30
0.0
 11
583.25
 21
245.6
 31
0.0
  0
LINE
  5
1190
100
AcDbEntity
  8
11000_LEFT
370
    25
390
0
  6
CONTINUOUS
 62
     7
100
AcDbLine
 10
606.25
 20
249.5
 30
0.0
 11
612.25
 21
249.5
 31
0.0
  0
LINE
  5
1191
100
AcDbEntity
  8
11000_LEFT
370
    25
390
0
  6
CONTINUOUS
 62
     7
100
AcDbLine
 10
594.25
 20
249.5
 30
0.0
 11
600.25
 21
249.5
 31
0.0
  0
LINE
  5
1192
100
AcDbEntity
  8
11000_LEFT
370
    25
390
0
  6
CONTINUOUS
 62
     7
100
AcDbLine
 10
594.25
 20
249.5
 30
0.0
 11
600.25
 21
249.5
 31
0.0
  0
LINE
  5
1193
100
AcDbEntity
  8
11000_LEFT
370
    25
390
0
  6
CONTINUOUS
 62
     7
100
AcDbLine
 10
594.25
 20
249.5
 30
0.0
 11
600.25
 21
249.5
 31
0.0
  0
LINE
  5
1194
100
AcDbEntity
  8
11000_LEFT
370
    25
390
0
  6
CONTINUOUS
 62
     7
100
AcDbLine
 10
600.25
 20
252.77178
 30
0.0
 11
606.25
 21
252.77178
 31
0.0
  0
LINE
  5
1195
100
AcDbEntity
  8
11000_LEFT
370
    25
390
0
  6
CONTINUOUS
 62
     7
100
AcDbLine
 10
606.25
 20
253.5
 30
0.0
 11
612.25
 21
253.5
 31
0.0
  0
LINE
  5
1196
100
AcDbEntity
  8
11000_LEFT
370
    25
390
0
  6
CONTINUOUS
 62
     7
100
AcDbLine
 10
594.25
 20
253.5
 30
0.0
 11
600.25
 21
253.5
 31
0.0
  0
LINE
  5
1197
100
AcDbEntity
  8
11000_LEFT
370
    25
390
0
  6
CONTINUOUS
 62
     7
100
AcDbLine
 10
600.25
 20
255.5
 30
0.0
 11
606.25
 21
255.5
 31
0.0
  0
LINE
  5
1198
100
AcDbEntity
  8
11000_LEFT
370
    25
390
0
  6
CONTINUOUS
 62
     7
100
AcDbLine
 10
600.25
 20
385.5
 30
0.0
 11
606.25
 21
385.5
 31
0.0
  0
LINE
  5
1199
100
AcDbEntity
  8
11000_LEFT
370
    25
390
0
  6
CONTINUOUS
 62
     7
100
AcDbLine
 10
606.25
 20
387.5
 30
0.0
 11
612.25
 21
387.5
 31
0.0
  0
LINE
  5
119A
100
AcDbEntity
  8
11000_LEFT
370
    25
390
0
  6
CONTINUOUS
 62
     7
100
AcDbLine
 10
594.25
 20
387.5
 30
0.0
 11
600.25
 21
387.5
 31
0.0
  0
LINE
  5
119B
100
AcDbEntity
  8
11000_LEFT
370
    25
390
0
  6
CONTINUOUS
 62
     7
100
AcDbLine
 10
594.25
 20
387.5
 30
0.0
 11
600.25
 21
387.5
 31
0.0
  0
LINE
  5
119C
100
AcDbEntity
  8
11000_LEFT
370
    25
390
0
  6
CONTINUOUS
 62
     7
100
AcDbLine
 10
594.25
 20
387.5
 30
0.0
 11
600.25
 21
387.5
 31
0.0
  0
LINE
  5
119D
100
AcDbEntity
  8
11000_LEFT
370
    25
390
0
  6
CONTINUOUS
 62
     7
100
AcDbLine
 10
600.25
 20
388.228226
 30
0.0
 11
606.25
 21
388.228226
 31
0.0
  0
LINE
  5
119E
100
AcDbEntity
  8
11000_LEFT
370
    25
390
0
  6
CONTINUOUS
 62
     7
100
AcDbLine
 10
594.25
 20
391.5
 30
0.0
 11
600.25
 21
391.5
 31
0.0
  0
LINE
  5
119F
100
AcDbEntity
  8
11000_LEFT
370
    25
390
0
  6
CONTINUOUS
 62
     7
100
AcDbLine
 10
606.25
 20
391.5
 30
0.0
 11
612.25
 21
391.5
 31
0.0
  0
LINE
  5
11A0
100
AcDbEntity
  8
11000_LEFT
370
    25
390
0
  6
CONTINUOUS
 62
     7
100
AcDbLine
 10
561.650002
 20
395.399994
 30
0.0
 11
583.25
 21
395.399994
 31
0.0
  0
LINE
  5
11A1
100
AcDbEntity
  8
11000_LEFT
370
    25
390
0
  6
CONTINUOUS
 62
     7
100
AcDbLine
 10
611.25
 20
395.399994
 30
0.0
 11
617.250113
 21
395.399994
 31
0.0
  0
LINE
  5
11A2
100
AcDbEntity
  8
11000_LEFT
370
    25
390
0
  6
CONTINUOUS
 62
     7
100
AcDbLine
 10
617.25
 20
395.399994
 30
0.0
 11
635.51112
 21
395.399994
 31
0.0
  0
LINE
  5
11A3
100
AcDbEntity
  8
11000_LEFT
370
    25
390
0
  6
CONTINUOUS
 62
     7
100
AcDbLine
 10
635.51112
 20
395.399994
 30
0.0
 11
644.849998
 21
395.399994
 31
0.0
  0
LINE
  5
11A4
100
AcDbEntity
  8
11000_LEFT
370
    25
390
0
  6
CONTINUOUS
 62
     7
100
AcDbLine
 10
583.25
 20
396.0
 30
0.0
 11
594.25
 21
396.0
 31
0.0
  0
LINE
  5
11A5
100
AcDbEntity
  8
11000_LEFT
370
    25
390
0
  6
CONTINUOUS
 62
     7
100
AcDbLine
 10
606.25
 20
396.0
 30
0.0
 11
607.297516
 21
396.0
 31
0.0
  0
LINE
  5
11A6
100
AcDbEntity
  8
11000_LEFT
370
    25
390
0
  6
CONTINUOUS
 62
     7
100
AcDbLine
 10
616.697086
 20
396.0
 30
0.0
 11
617.25
 21
396.0
 31
0.0
  0
LINE
  5
11A7
100
AcDbEntity
  8
11000_LEFT
370
    25
390
0
  6
CONTINUOUS
 62
     7
100
AcDbLine
 10
612.25
 20
396.0
 30
0.0
 11
616.697086
 21
396.0
 31
0.0
  0
LINE
  5
11A8
100
AcDbEntity
  8
11000_LEFT
370
    25
390
0
  6
CONTINUOUS
 62
     7
100
AcDbLine
 10
606.25
 20
396.0
 30
0.0
 11
612.25
 21
396.0
 31
0.0
  0
LINE
  5
11A9
100
AcDbEntity
  8
11000_LEFT
370
    25
390
0
  6
CONTINUOUS
 62
     7
100
AcDbLine
 10
583.25
 20
421.0
 30
0.0
 11
594.25
 21
421.0
 31
0.0
  0
LINE
  5
11AA
100
AcDbEntity
  8
11000_LEFT
370
    25
390
0
  6
CONTINUOUS
 62
     7
100
AcDbLine
 10
612.25
 20
421.0
 30
0.0
 11
616.697086
 21
421.0
 31
0.0
  0
LINE
  5
11AB
100
AcDbEntity
  8
11000_LEFT
370
    25
390
0
  6
CONTINUOUS
 62
     7
100
AcDbLine
 10
616.697086
 20
421.0
 30
0.0
 11
617.25
 21
421.0
 31
0.0
  0
LINE
  5
11AC
100
AcDbEntity
  8
11000_LEFT
370
    25
390
0
  6
CONTINUOUS
 62
     7
100
AcDbLine
 10
606.25
 20
421.0
 30
0.0
 11
612.25
 21
421.0
 31
0.0
  0
LINE
  5
11AD
100
AcDbEntity
  8
11000_LEFT
370
    25
390
0
  6
CONTINUOUS
 62
     7
100
AcDbLine
 10
561.650002
 20
421.600006
 30
0.0
 11
583.25
 21
421.600006
 31
0.0
  0
LINE
  5
11AE
100
AcDbEntity
  8
11000_LEFT
370
    25
390
0
  6
CONTINUOUS
 62
     7
100
AcDbLine
 10
611.25
 20
421.600006
 30
0.0
 11
617.250113
 21
421.600006
 31
0.0
  0
LINE
  5
11AF
100
AcDbEntity
  8
11000_LEFT
370
    25
390
0
  6
CONTINUOUS
 62
     7
100
AcDbLine
 10
617.25
 20
421.600006
 30
0.0
 11
635.51112
 21
421.600006
 31
0.0
  0
LINE
  5
11B0
100
AcDbEntity
  8
11000_LEFT
370
    25
390
0
  6
CONTINUOUS
 62
     7
100
AcDbLine
 10
635.51112
 20
421.600006
 30
0.0
 11
644.849998
 21
421.600006
 31
0.0
  0
LINE
  5
11B1
100
AcDbEntity
  8
11000_LEFT
370
    25
390
0
  6
CONTINUOUS
 62
     7
100
AcDbLine
 10
600.25
 20
454.271774
 30
0.0
 11
606.25
 21
454.271774
 31
0.0
  0
LINE
  5
11B2
100
AcDbEntity
  8
11000_LEFT
370
    25
390
0
  6
CONTINUOUS
 62
     7
100
AcDbLine
 10
600.25
 20
457.0
 30
0.0
 11
606.25
 21
457.0
 31
0.0
  0
LINE
  5
11B3
100
AcDbEntity
  8
11000_LEFT
370
    25
390
0
  6
CONTINUOUS
 62
     7
100
AcDbLine
 10
543.650002
 20
219.4
 30
0.0
 11
543.650002
 21
245.6
 31
0.0
  0
LINE
  5
11B4
100
AcDbEntity
  8
11000_LEFT
370
    25
390
0
  6
CONTINUOUS
 62
     7
100
AcDbLine
 10
552.98888
 20
219.4
 30
0.0
 11
552.98888
 21
245.6
 31
0.0
  0
LINE
  5
11B5
100
AcDbEntity
  8
11000_LEFT
370
    25
390
0
  6
CONTINUOUS
 62
     7
100
AcDbLine
 10
561.650002
 20
395.399994
 30
0.0
 11
561.650002
 21
421.600006
 31
0.0
  0
LINE
  5
11B6
100
AcDbEntity
  8
11000_LEFT
370
    25
390
0
  6
CONTINUOUS
 62
     7
100
AcDbLine
 10
570.98888
 20
395.399994
 30
0.0
 11
570.98888
 21
421.600006
 31
0.0
  0
LINE
  5
11B7
100
AcDbEntity
  8
11000_LEFT
370
    25
390
0
  6
CONTINUOUS
 62
     7
100
AcDbLine
 10
572.852377
 20
395.399994
 30
0.0
 11
572.852377
 21
395.400116
 31
0.0
  0
LINE
  5
11B8
100
AcDbEntity
  8
11000_LEFT
370
    25
390
0
  6
CONTINUOUS
 62
     7
100
AcDbLine
 10
583.25
 20
219.4
 30
0.0
 11
583.25
 21
245.6
 31
0.0
  0
LINE
  5
11B9
100
AcDbEntity
  8
11000_LEFT
370
    25
390
0
  6
CONTINUOUS
 62
     7
100
AcDbLine
 10
583.25
 20
395.399994
 30
0.0
 11
583.25
 21
421.600006
 31
0.0
  0
LINE
  5
11BA
100
AcDbEntity
  8
11000_LEFT
370
    25
390
0
  6
CONTINUOUS
 62
     7
100
AcDbLine
 10
583.802915
 20
220.0
 30
0.0
 11
583.802915
 21
245.0
 31
0.0
  0
LINE
  5
11BB
100
AcDbEntity
  8
11000_LEFT
370
    25
390
0
  6
CONTINUOUS
 62
     7
100
AcDbLine
 10
583.802915
 20
396.0
 30
0.0
 11
583.802915
 21
421.0
 31
0.0
  0
LINE
  5
11BC
100
AcDbEntity
  8
11000_LEFT
370
    25
390
0
  6
CONTINUOUS
 62
     7
100
AcDbLine
 10
588.25
 20
220.0
 30
0.0
 11
588.25
 21
245.0
 31
0.0
  0
LINE
  5
11BD
100
AcDbEntity
  8
11000_LEFT
370
    25
390
0
  6
CONTINUOUS
 62
     7
100
AcDbLine
 10
588.25
 20
396.0
 30
0.0
 11
588.25
 21
421.0
 31
0.0
  0
LINE
  5
11BE
100
AcDbEntity
  8
11000_LEFT
370
    25
390
0
  6
CONTINUOUS
 62
     7
100
AcDbLine
 10
594.25
 20
249.5
 30
0.0
 11
594.25
 21
253.5
 31
0.0
  0
LINE
  5
11BF
100
AcDbEntity
  8
11000_LEFT
370
    25
390
0
  6
CONTINUOUS
 62
     7
100
AcDbLine
 10
594.25
 20
220.0
 30
0.0
 11
594.25
 21
245.0
 31
0.0
  0
LINE
  5
11C0
100
AcDbEntity
  8
11000_LEFT
370
    25
390
0
  6
CONTINUOUS
 62
     7
100
AcDbLine
 10
594.25
 20
396.0
 30
0.0
 11
594.25
 21
421.0
 31
0.0
  0
LINE
  5
11C1
100
AcDbEntity
  8
11000_LEFT
370
    25
390
0
  6
CONTINUOUS
 62
     7
100
AcDbLine
 10
594.25
 20
387.5
 30
0.0
 11
594.25
 21
391.5
 31
0.0
  0
LINE
  5
11C2
100
AcDbEntity
  8
11000_LEFT
370
    25
390
0
  6
CONTINUOUS
 62
     7
100
AcDbLine
 10
600.25
 20
184.0
 30
0.0
 11
600.25
 21
255.5
 31
0.0
  0
LINE
  5
11C3
100
AcDbEntity
  8
11000_LEFT
370
    25
390
0
  6
CONTINUOUS
 62
     7
100
AcDbLine
 10
600.25
 20
454.271774
 30
0.0
 11
600.25
 21
457.0
 31
0.0
  0
LINE
  5
11C4
100
AcDbEntity
  8
11000_LEFT
370
    25
390
0
  6
CONTINUOUS
 62
     7
100
AcDbLine
 10
600.25
 20
385.5
 30
0.0
 11
600.25
 21
388.228226
 31
0.0
  0
LINE
  5
11C5
100
AcDbEntity
  8
11000_LEFT
370
    25
390
0
  6
CONTINUOUS
 62
     7
100
AcDbLine
 10
600.25
 20
388.228226
 30
0.0
 11
600.25
 21
454.271774
 31
0.0
  0
LINE
  5
11C6
100
AcDbEntity
  8
11000_LEFT
370
    25
390
0
  6
CONTINUOUS
 62
     7
100
AcDbLine
 10
606.25
 20
184.0
 30
0.0
 11
606.25
 21
255.5
 31
0.0
  0
LINE
  5
11C7
100
AcDbEntity
  8
11000_LEFT
370
    25
390
0
  6
CONTINUOUS
 62
     7
100
AcDbLine
 10
606.25
 20
454.271774
 30
0.0
 11
606.25
 21
457.0
 31
0.0
  0
LINE
  5
11C8
100
AcDbEntity
  8
11000_LEFT
370
    25
390
0
  6
CONTINUOUS
 62
     7
100
AcDbLine
 10
606.25
 20
385.5
 30
0.0
 11
606.25
 21
388.228226
 31
0.0
  0
LINE
  5
11C9
100
AcDbEntity
  8
11000_LEFT
370
    25
390
0
  6
CONTINUOUS
 62
     7
100
AcDbLine
 10
606.25
 20
388.228226
 30
0.0
 11
606.25
 21
454.271774
 31
0.0
  0
LINE
  5
11CA
100
AcDbEntity
  8
11000_LEFT
370
    25
390
0
  6
CONTINUOUS
 62
     7
100
AcDbLine
 10
611.25
 20
421.000137
 30
0.0
 11
611.25
 21
421.600006
 31
0.0
  0
LINE
  5
11CB
100
AcDbEntity
  8
11000_LEFT
370
    25
390
0
  6
CONTINUOUS
 62
     7
100
AcDbLine
 10
611.25
 20
395.399994
 30
0.0
 11
611.25
 21
396.000137
 31
0.0
  0
LINE
  5
11CC
100
AcDbEntity
  8
11000_LEFT
370
    25
390
0
  6
CONTINUOUS
 62
     7
100
AcDbLine
 10
612.25
 20
249.5
 30
0.0
 11
612.25
 21
253.5
 31
0.0
  0
LINE
  5
11CD
100
AcDbEntity
  8
11000_LEFT
370
    25
390
0
  6
CONTINUOUS
 62
     7
100
AcDbLine
 10
612.25
 20
387.5
 30
0.0
 11
612.25
 21
391.5
 31
0.0
  0
LINE
  5
11CE
100
AcDbEntity
  8
11000_LEFT
370
    25
390
0
  6
CONTINUOUS
 62
     7
100
AcDbLine
 10
612.25
 20
396.0
 30
0.0
 11
612.25
 21
421.0
 31
0.0
  0
LINE
  5
11CF
100
AcDbEntity
  8
11000_LEFT
370
    25
390
0
  6
CONTINUOUS
 62
     7
100
AcDbLine
 10
616.697086
 20
396.0
 30
0.0
 11
616.697086
 21
421.0
 31
0.0
  0
LINE
  5
11D0
100
AcDbEntity
  8
11000_LEFT
370
    25
390
0
  6
CONTINUOUS
 62
     7
100
AcDbLine
 10
617.25
 20
395.399994
 30
0.0
 11
617.25
 21
421.600006
 31
0.0
  0
LINE
  5
11D1
100
AcDbEntity
  8
11000_LEFT
370
    25
390
0
  6
CONTINUOUS
 62
     7
100
AcDbLine
 10
635.51112
 20
395.399994
 30
0.0
 11
635.51112
 21
421.600006
 31
0.0
  0
LINE
  5
11D2
100
AcDbEntity
  8
11000_LEFT
370
    25
390
0
  6
CONTINUOUS
 62
     7
100
AcDbLine
 10
644.849998
 20
395.399994
 30
0.0
 11
644.849998
 21
421.600006
 31
0.0
  0
LINE
  5
11D3
100
AcDbEntity
  8
11100_LEFT_DIM
370
    13
390
0
  6
CONTINUOUS
 62
     7
100
AcDbLine
 10
543.65
 20
245.6
 30
0.0
 11
543.65
 21
468.0
 31
0.0
  0
LINE
  5
11D4
100
AcDbEntity
  8
11100_LEFT_DIM
370
    13
390
0
  6
CONTINUOUS
 62
     7
100
AcDbLine
 10
644.85
 20
468.0
 30
0.0
 11
644.85
 21
421.6
 31
0.0
  0
LINE
  5
11D5
100
AcDbEntity
  8
11100_LEFT_DIM
370
    13
390
0
  6
CONTINUOUS
 62
     7
100
AcDbLine
 10
543.65
 20
467.0
 30
0.0
 11
644.85
 21
467.0
 31
0.0
  0
TEXT
  5
11D6
100
AcDbEntity
  8
11100_LEFT_DIM
370
    13
390
0
  6
CONTINUOUS
 62
     7
100
AcDbText
 10
591.083333
 20
468.0
 30
0.0
 40
2.0
  1
101.2
 72
     1
 11
594.25
 21
468.0
 31
0.0
100
AcDbText
  0
SOLID
  5
11D7
100
AcDbEntity
  8
11100_LEFT_DIM
370
    13
390
0
  6
CONTINUOUS
 62
     7
100
AcDbTrace
 10
547.65
 20
467.52661
 30
0.0
 11
543.65
 21
467.0
 31
0.0
 12
547.65
 22
466.47339
 32
0.0
 13
543.65
 23
467.0
 33
0.0
  0
SOLID
  5
11D8
100
AcDbEntity
  8
11100_LEFT_DIM
370
    13
390
0
  6
CONTINUOUS
 62
     7
100
AcDbTrace
 10
640.85
 20
466.47339
 30
0.0
 11
644.85
 21
467.0
 31
0.0
 12
640.85
 22
467.52661
 32
0.0
 13
644.85
 23
467.0
 33
0.0
  0
LINE
  5
11D9
100
AcDbEntity
  8
91000_TIP
370
    13
  6
CONTINUOUS
 62
     7
100
AcDbLine
 10
492.758922
 20
42.420182
 30
0.0
 11
512.758921
 21
47.420182
 31
0.0
  0
LINE
  5
11DA
100
AcDbEntity
  8
91000_TIP
370
    13
  6
CONTINUOUS
 62
     7
100
AcDbLine
 10
490.199901
 20
37.420182
 30
0.0
 11
537.403879
 21
37.420182
 31
0.0
  0
LINE
  5
11DB
100
AcDbEntity
  8
91000_TIP
370
    13
  6
CONTINUOUS
 62
     7
100
AcDbLine
 10
492.758922
 20
32.420182
 30
0.0
 11
512.758921
 21
27.420182
 31
0.0
  0
LINE
  5
11DC
100
AcDbEntity
  8
91000_TIP
370
    13
  6
CONTINUOUS
 62
     7
100
AcDbLine
 10
492.758922
 20
42.420182
 30
0.0
 11
492.758922
 21
32.420182
 31
0.0
  0
LINE
  5
11DD
100
AcDbEntity
  8
91000_TIP
370
    13
  6
CONTINUOUS
 62
     7
100
AcDbLine
 10
512.758921
 20
47.420182
 30
0.0
 11
512.758921
 21
27.420182
 31
0.0
  0
LINE
  5
11DE
100
AcDbEntity
  8
91000_TIP
370
    13
  6
CONTINUOUS
 62
     7
100
AcDbLine
 10
525.758921
 20
25.97722
 30
0.0
 11
525.758921
 21
48.543992
 31
0.0
  0
CIRCLE
  5
11DF
100
AcDbEntity
  8
91000_TIP
370
    13
  6
CONTINUOUS
 62
     7
100
AcDbCircle
 10
525.758921
 20
37.420182
 30
0.0
 40
10.0
  0
CIRCLE
  5
11E0
100
AcDbEntity
  8
91000_TIP
370
    13
  6
CONTINUOUS
 62
     7
100
AcDbCircle
 10
525.758921
 20
37.420182
 30
0.0
 40
5.0
  0
TEXT
  5
11E2
100
AcDbEntity
  8
90000_FRAME
370
    13
  6
CONTINUOUS
 62
     7
100
AcDbText
 10
551.119081
 20
59.555408
 30
0.0
 40
4.4
  1
All dimensions are in millimeters (mm)
 41
0.961374
  7
TFONT1
 72
     5
 11
685.070501
 21
59.555408
 31
0.0
100
AcDbText
  0
TEXT
  5
11E3
100
AcDbEntity
  8
90000_FRAME
370
    13
  6
CONTINUOUS
 62
     7
100
AcDbText
 10
551.119081
 20
65.813453
 30
0.0
 40
4.4
  1
Alle Bemassungswerte sind in Millimeter (mm) angegeben.
 41
0.825144
  7
TFONT1
 72
     5
 11
727.809952
 21
65.813453
 31
0.0
100
AcDbText
  0
TEXT
  5
11E4
100
AcDbEntity
  8
90000_FRAME
370
    13
  6
CONTINUOUS
 62
     7
100
AcDbText
 10
652.896167
 20
45.406283
 30
0.0
 40
6.0
  1
3RA1963-2A
 41
1.248337
 72
     5
 11
725.299719
 21
45.406283
 31
0.0
100
AcDbText
  0
TEXT
  5
11E5
100
AcDbEntity
  8
90000_FRAME
370
    13
  6
CONTINUOUS
 62
     7
100
AcDbText
 10
736.32
 20
23.8
 30
0.0
 40
4.4
  1
Massstab/Scale: 1:2
 41
0.721782
  7
TFONT1
 72
     5
 11
789.78
 21
23.8
 31
0.0
100
AcDbText
  0
TEXT
  5
11E6
100
AcDbEntity
  8
90000_FRAME
370
    13
  6
CONTINUOUS
 62
     7
100
AcDbText
 10
652.591856
 20
23.8
 30
0.0
 40
4.4
  1
Format/Size: DIN A3
 41
0.803258
  7
TFONT1
 72
     5
 11
712.675565
 21
23.8
 31
0.0
100
AcDbText
  0
LINE
  5
11E7
100
AcDbEntity
  8
90000_FRAME
370
    13
  6
CONTINUOUS
 62
     7
100
AcDbLine
 10
820.0
 20
20.0
 30
0.0
 11
820.0
 21
56.0
 31
0.0
  0
LINE
  5
11E8
100
AcDbEntity
  8
90000_FRAME
370
    13
  6
CONTINUOUS
 62
     7
100
AcDbLine
 10
735.0
 20
20.0
 30
0.0
 11
735.0
 21
32.0
 31
0.0
  0
LINE
  5
11E9
100
AcDbEntity
  8
90000_FRAME
370
    13
  6
CONTINUOUS
 62
     7
100
AcDbLine
 10
650.0
 20
20.0
 30
0.0
 11
650.0
 21
56.0
 31
0.0
  0
LINE
  5
11EA
100
AcDbEntity
  8
90000_FRAME
370
    13
  6
CONTINUOUS
 62
     7
100
AcDbLine
 10
550.0
 20
56.0
 30
0.0
 11
820.0
 21
56.0
 31
0.0
  0
LINE
  5
11EB
100
AcDbEntity
  8
90000_FRAME
370
    13
  6
CONTINUOUS
 62
     7
100
AcDbLine
 10
650.0
 20
32.0
 30
0.0
 11
820.0
 21
32.0
 31
0.0
  0
LINE
  5
11EC
100
AcDbEntity
  8
90000_FRAME
370
    13
  6
CONTINUOUS
 62
     7
100
AcDbLine
 10
550.0
 20
20.0
 30
0.0
 11
550.0
 21
56.0
 31
0.0
  0
LINE
  5
11ED
100
AcDbEntity
  8
90000_FRAME
370
    13
  6
CONTINUOUS
 62
     7
100
AcDbLine
 10
550.0
 20
20.0
 30
0.0
 11
820.0
 21
20.0
 31
0.0
  0
LINE
  5
11EE
100
AcDbEntity
  8
90000_FRAME
370
    13
  6
CONTINUOUS
 62
     7
100
AcDbLine
 10
578.372401
 20
42.829096
 30
0.0
 11
578.372401
 21
33.322558
 31
0.0
  0
LINE
  5
11EF
100
AcDbEntity
  8
90000_FRAME
370
    13
  6
CONTINUOUS
 62
     7
100
AcDbLine
 10
581.224362
 20
42.829096
 30
0.0
 11
581.224362
 21
33.322558
 31
0.0
  0
LINE
  5
11F0
100
AcDbEntity
  8
90000_FRAME
370
    13
  6
CONTINUOUS
 62
     7
100
AcDbLine
 10
578.372401
 20
33.322558
 30
0.0
 11
581.224362
 21
33.322558
 31
0.0
  0
LINE
  5
11F1
100
AcDbEntity
  8
90000_FRAME
370
    13
  6
CONTINUOUS
 62
     7
100
AcDbLine
 10
578.372401
 20
42.829096
 30
0.0
 11
581.224362
 21
42.829096
 31
0.0
  0
LINE
  5
11F2
100
AcDbEntity
  8
90000_FRAME
370
    13
  6
CONTINUOUS
 62
     7
100
AcDbLine
 10
583.410866
 20
42.829096
 30
0.0
 11
583.410866
 21
33.322558
 31
0.0
  0
LINE
  5
11F3
100
AcDbEntity
  8
90000_FRAME
370
    13
  6
CONTINUOUS
 62
     7
100
AcDbLine
 10
583.410866
 20
33.322558
 30
0.0
 11
590.54077
 21
33.322558
 31
0.0
  0
LINE
  5
11F4
100
AcDbEntity
  8
90000_FRAME
370
    13
  6
CONTINUOUS
 62
     7
100
AcDbLine
 10
590.54077
 20
35.1288
 30
0.0
 11
586.167762
 21
35.1288
 31
0.0
  0
LINE
  5
11F5
100
AcDbEntity
  8
90000_FRAME
370
    13
  6
CONTINUOUS
 62
     7
100
AcDbLine
 10
590.54077
 20
35.1288
 30
0.0
 11
590.54077
 21
33.322558
 31
0.0
  0
LINE
  5
11F6
100
AcDbEntity
  8
90000_FRAME
370
    13
  6
CONTINUOUS
 62
     7
100
AcDbLine
 10
590.445704
 20
42.829096
 30
0.0
 11
583.410866
 21
42.829096
 31
0.0
  0
LINE
  5
11F7
100
AcDbEntity
  8
90000_FRAME
370
    13
  6
CONTINUOUS
 62
     7
100
AcDbLine
 10
590.445704
 20
41.070386
 30
0.0
 11
586.167762
 21
41.070386
 31
0.0
  0
LINE
  5
11F8
100
AcDbEntity
  8
90000_FRAME
370
    13
  6
CONTINUOUS
 62
     7
100
AcDbLine
 10
590.445704
 20
42.829096
 30
0.0
 11
590.445704
 21
41.070386
 31
0.0
  0
LINE
  5
11F9
100
AcDbEntity
  8
90000_FRAME
370
    13
  6
CONTINUOUS
 62
     7
100
AcDbLine
 10
589.875312
 20
37.362836
 30
0.0
 11
586.167762
 21
37.362836
 31
0.0
  0
LINE
  5
11FA
100
AcDbEntity
  8
90000_FRAME
370
    13
  6
CONTINUOUS
 62
     7
100
AcDbLine
 10
589.875312
 20
38.931415
 30
0.0
 11
589.875312
 21
37.362836
 31
0.0
  0
LINE
  5
11FB
100
AcDbEntity
  8
90000_FRAME
370
    13
  6
CONTINUOUS
 62
     7
100
AcDbLine
 10
589.875312
 20
38.931415
 30
0.0
 11
586.167762
 21
38.931415
 31
0.0
  0
LINE
  5
11FC
100
AcDbEntity
  8
90000_FRAME
370
    13
  6
CONTINUOUS
 62
     7
100
AcDbLine
 10
586.167762
 20
41.070386
 30
0.0
 11
586.167762
 21
38.931415
 31
0.0
  0
LINE
  5
11FD
100
AcDbEntity
  8
90000_FRAME
370
    13
  6
CONTINUOUS
 62
     7
100
AcDbLine
 10
586.167762
 20
37.362836
 30
0.0
 11
586.167762
 21
35.1288
 31
0.0
  0
LINE
  5
11FE
100
AcDbEntity
  8
90000_FRAME
370
    13
  6
CONTINUOUS
 62
     7
100
AcDbLine
 10
592.156881
 20
33.322558
 30
0.0
 11
592.156881
 21
42.829096
 31
0.0
  0
LINE
  5
11FF
100
AcDbEntity
  8
90000_FRAME
370
    13
  6
CONTINUOUS
 62
     7
100
AcDbLine
 10
592.156881
 20
33.322558
 30
0.0
 11
594.058189
 21
33.322558
 31
0.0
  0
LINE
  5
1200
100
AcDbEntity
  8
90000_FRAME
370
    13
  6
CONTINUOUS
 62
     7
100
AcDbLine
 10
603.849923
 20
42.829096
 30
0.0
 11
603.849923
 21
33.322558
 31
0.0
  0
LINE
  5
1201
100
AcDbEntity
  8
90000_FRAME
370
    13
  6
CONTINUOUS
 62
     7
100
AcDbLine
 10
603.849923
 20
33.322558
 30
0.0
 11
601.093027
 21
33.322558
 31
0.0
  0
LINE
  5
1202
100
AcDbEntity
  8
90000_FRAME
370
    13
  6
CONTINUOUS
 62
     7
100
AcDbLine
 10
596.72002
 20
33.227492
 30
0.0
 11
598.431197
 21
33.227492
 31
0.0
  0
LINE
  5
1203
100
AcDbEntity
  8
90000_FRAME
370
    13
  6
CONTINUOUS
 62
     7
100
AcDbLine
 10
596.72002
 20
33.227492
 30
0.0
 11
594.058189
 21
39.406742
 31
0.0
  0
LINE
  5
1204
100
AcDbEntity
  8
90000_FRAME
370
    13
  6
CONTINUOUS
 62
     7
100
AcDbLine
 10
594.058189
 20
33.322558
 30
0.0
 11
594.058189
 21
39.406742
 31
0.0
  0
LINE
  5
1205
100
AcDbEntity
  8
90000_FRAME
370
    13
  6
CONTINUOUS
 62
     7
100
AcDbLine
 10
601.093027
 20
39.501807
 30
0.0
 11
598.431197
 21
33.227492
 31
0.0
  0
LINE
  5
1206
100
AcDbEntity
  8
90000_FRAME
370
    13
  6
CONTINUOUS
 62
     7
100
AcDbLine
 10
595.579235
 20
42.829096
 30
0.0
 11
592.156881
 21
42.829096
 31
0.0
  0
LINE
  5
1207
100
AcDbEntity
  8
90000_FRAME
370
    13
  6
CONTINUOUS
 62
     7
100
AcDbLine
 10
603.849923
 20
42.829096
 30
0.0
 11
600.42757
 21
42.829096
 31
0.0
  0
LINE
  5
1208
100
AcDbEntity
  8
90000_FRAME
370
    13
  6
CONTINUOUS
 62
     7
100
AcDbLine
 10
595.579235
 20
42.829096
 30
0.0
 11
598.050935
 21
37.030108
 31
0.0
  0
LINE
  5
1209
100
AcDbEntity
  8
90000_FRAME
370
    13
  6
CONTINUOUS
 62
     7
100
AcDbLine
 10
600.42757
 20
42.829096
 30
0.0
 11
598.050935
 21
37.030108
 31
0.0
  0
LINE
  5
120A
100
AcDbEntity
  8
90000_FRAME
370
    13
  6
CONTINUOUS
 62
     7
100
AcDbLine
 10
601.093027
 20
39.501807
 30
0.0
 11
601.093027
 21
33.322558
 31
0.0
  0
LINE
  5
120B
100
AcDbEntity
  8
90000_FRAME
370
    13
  6
CONTINUOUS
 62
     7
100
AcDbLine
 10
606.036427
 20
42.829096
 30
0.0
 11
606.036427
 21
33.322558
 31
0.0
  0
LINE
  5
120C
100
AcDbEntity
  8
90000_FRAME
370
    13
  6
CONTINUOUS
 62
     7
100
AcDbLine
 10
606.036427
 20
33.322558
 30
0.0
 11
613.166331
 21
33.322558
 31
0.0
  0
LINE
  5
120D
100
AcDbEntity
  8
90000_FRAME
370
    13
  6
CONTINUOUS
 62
     7
100
AcDbLine
 10
613.166331
 20
35.1288
 30
0.0
 11
608.793323
 21
35.1288
 31
0.0
  0
LINE
  5
120E
100
AcDbEntity
  8
90000_FRAME
370
    13
  6
CONTINUOUS
 62
     7
100
AcDbLine
 10
613.166331
 20
35.1288
 30
0.0
 11
613.166331
 21
33.322558
 31
0.0
  0
LINE
  5
120F
100
AcDbEntity
  8
90000_FRAME
370
    13
  6
CONTINUOUS
 62
     7
100
AcDbLine
 10
613.071265
 20
42.829096
 30
0.0
 11
606.036427
 21
42.829096
 31
0.0
  0
LINE
  5
1210
100
AcDbEntity
  8
90000_FRAME
370
    13
  6
CONTINUOUS
 62
     7
100
AcDbLine
 10
613.071265
 20
41.070386
 30
0.0
 11
608.793323
 21
41.070386
 31
0.0
  0
LINE
  5
1211
100
AcDbEntity
  8
90000_FRAME
370
    13
  6
CONTINUOUS
 62
     7
100
AcDbLine
 10
613.071265
 20
42.829096
 30
0.0
 11
613.071265
 21
41.070386
 31
0.0
  0
LINE
  5
1212
100
AcDbEntity
  8
90000_FRAME
370
    13
  6
CONTINUOUS
 62
     7
100
AcDbLine
 10
612.500873
 20
37.362836
 30
0.0
 11
608.793323
 21
37.362836
 31
0.0
  0
LINE
  5
1213
100
AcDbEntity
  8
90000_FRAME
370
    13
  6
CONTINUOUS
 62
     7
100
AcDbLine
 10
612.500873
 20
38.931415
 30
0.0
 11
612.500873
 21
37.362836
 31
0.0
  0
LINE
  5
1214
100
AcDbEntity
  8
90000_FRAME
370
    13
  6
CONTINUOUS
 62
     7
100
AcDbLine
 10
612.500873
 20
38.931415
 30
0.0
 11
608.793323
 21
38.931415
 31
0.0
  0
LINE
  5
1215
100
AcDbEntity
  8
90000_FRAME
370
    13
  6
CONTINUOUS
 62
     7
100
AcDbLine
 10
608.793323
 20
41.070386
 30
0.0
 11
608.793323
 21
38.931415
 31
0.0
  0
LINE
  5
1216
100
AcDbEntity
  8
90000_FRAME
370
    13
  6
CONTINUOUS
 62
     7
100
AcDbLine
 10
608.793323
 20
37.362836
 30
0.0
 11
608.793323
 21
35.1288
 31
0.0
  0
LINE
  5
1217
100
AcDbEntity
  8
90000_FRAME
370
    13
  6
CONTINUOUS
 62
     7
100
AcDbLine
 10
614.73491
 20
33.322558
 30
0.0
 11
614.73491
 21
42.829096
 31
0.0
  0
LINE
  5
1218
100
AcDbEntity
  8
90000_FRAME
370
    13
  6
CONTINUOUS
 62
     7
100
AcDbLine
 10
623.100663
 20
42.829096
 30
0.0
 11
623.100663
 21
33.322558
 31
0.0
  0
LINE
  5
1219
100
AcDbEntity
  8
90000_FRAME
370
    13
  6
CONTINUOUS
 62
     7
100
AcDbLine
 10
614.73491
 20
33.322558
 30
0.0
 11
616.636217
 21
33.322558
 31
0.0
  0
LINE
  5
121A
100
AcDbEntity
  8
90000_FRAME
370
    13
  6
CONTINUOUS
 62
     7
100
AcDbLine
 10
623.100663
 20
42.829096
 30
0.0
 11
621.199355
 21
42.829096
 31
0.0
  0
LINE
  5
121B
100
AcDbEntity
  8
90000_FRAME
370
    13
  6
CONTINUOUS
 62
     7
100
AcDbLine
 10
617.824534
 20
42.829096
 30
0.0
 11
614.73491
 21
42.829096
 31
0.0
  0
LINE
  5
121C
100
AcDbEntity
  8
90000_FRAME
370
    13
  6
CONTINUOUS
 62
     7
100
AcDbLine
 10
623.100663
 20
33.322558
 30
0.0
 11
620.058571
 21
33.322558
 31
0.0
  0
LINE
  5
121D
100
AcDbEntity
  8
90000_FRAME
370
    13
  6
CONTINUOUS
 62
     7
100
AcDbLine
 10
620.058571
 20
33.322558
 30
0.0
 11
616.636217
 21
39.406742
 31
0.0
  0
LINE
  5
121E
100
AcDbEntity
  8
90000_FRAME
370
    13
  6
CONTINUOUS
 62
     7
100
AcDbLine
 10
617.824534
 20
42.829096
 30
0.0
 11
621.199355
 21
36.935042
 31
0.0
  0
LINE
  5
121F
100
AcDbEntity
  8
90000_FRAME
370
    13
  6
CONTINUOUS
 62
     7
100
AcDbLine
 10
621.199355
 20
42.829096
 30
0.0
 11
621.199355
 21
36.935042
 31
0.0
  0
LINE
  5
1220
100
AcDbEntity
  8
90000_FRAME
370
    13
  6
CONTINUOUS
 62
     7
100
AcDbLine
 10
616.636217
 20
33.322558
 30
0.0
 11
616.636217
 21
39.406742
 31
0.0
  0
LINE
  5
1221
100
AcDbEntity
  8
90000_FRAME
370
    13
  6
CONTINUOUS
 62
     7
100
AcDbLine
 10
624.716775
 20
33.512688
 30
0.0
 11
624.716775
 21
35.413996
 31
0.0
  0
LINE
  5
1222
100
AcDbEntity
  8
90000_FRAME
370
    13
  6
CONTINUOUS
 62
     7
100
AcDbLine
 10
631.371351
 20
40.832723
 30
0.0
 11
631.371351
 21
42.73403
 31
0.0
  0
ARC
  5
1223
100
AcDbEntity
  8
90000_FRAME
370
    13
  6
CONTINUOUS
 62
     7
100
AcDbCircle
 10
628.126057
 20
37.236875
 30
0.0
 40
2.223239
100
AcDbArc
 50
277.709996
 51
295.688493
  0
ARC
  5
1224
100
AcDbEntity
  8
90000_FRAME
370
    13
  6
CONTINUOUS
 62
     7
100
AcDbCircle
 10
628.694677
 20
35.787223
 30
0.0
 40
0.680338
100
AcDbArc
 50
305.503221
 51
72.46529
  0
ARC
  5
1225
100
AcDbEntity
  8
90000_FRAME
370
    13
  6
CONTINUOUS
 62
     7
100
AcDbCircle
 10
627.562689
 20
42.590637
 30
0.0
 40
9.513589
100
AcDbArc
 50
252.59392
 51
280.98166
  0
ARC
  5
1226
100
AcDbEntity
  8
90000_FRAME
370
    13
  6
CONTINUOUS
 62
     7
100
AcDbCircle
 10
628.47236
 20
37.35461
 30
0.0
 40
4.201453
100
AcDbArc
 50
282.405836
 51
311.864443
  0
ARC
  5
1227
100
AcDbEntity
  8
90000_FRAME
370
    13
  6
CONTINUOUS
 62
     7
100
AcDbCircle
 10
627.925231
 20
40.571293
 30
0.0
 40
0.605925
100
AcDbArc
 50
154.440035
 51
221.82017
  0
ARC
  5
1228
100
AcDbEntity
  8
90000_FRAME
370
    13
  6
CONTINUOUS
 62
     7
100
AcDbCircle
 10
628.083674
 20
40.412851
 30
0.0
 40
0.820618
100
AcDbArc
 50
102.828783
 51
149.225964
  0
ARC
  5
1229
100
AcDbEntity
  8
90000_FRAME
370
    13
  6
CONTINUOUS
 62
     7
100
AcDbCircle
 10
628.917727
 20
36.92818
 30
0.0
 40
4.403673
100
AcDbArc
 50
84.040006
 51
103.342766
  0
ARC
  5
122A
100
AcDbEntity
  8
90000_FRAME
370
    13
  6
CONTINUOUS
 62
     7
100
AcDbCircle
 10
628.2358
 20
32.093452
 30
0.0
 40
9.284747
100
AcDbArc
 50
70.262586
 51
82.952419
  0
ARC
  5
122B
100
AcDbEntity
  8
90000_FRAME
370
    13
  6
CONTINUOUS
 62
     7
100
AcDbCircle
 10
627.207763
 20
41.436698
 30
0.0
 40
6.517512
100
AcDbArc
 50
247.530021
 51
280.757952
  0
ARC
  5
122C
100
AcDbEntity
  8
90000_FRAME
370
    13
  6
CONTINUOUS
 62
     7
100
AcDbCircle
 10
614.43783
 20
4.933658
 30
0.0
 40
34.663217
100
AcDbArc
 50
65.341467
 51
67.399777
  0
ARC
  5
122D
100
AcDbEntity
  8
90000_FRAME
370
    13
  6
CONTINUOUS
 62
     7
100
AcDbCircle
 10
636.029555
 20
56.518511
 30
0.0
 40
21.258328
100
AcDbArc
 50
242.86201
 51
247.104203
  0
ARC
  5
122E
100
AcDbEntity
  8
90000_FRAME
370
    13
  6
CONTINUOUS
 62
     7
100
AcDbCircle
 10
628.319753
 20
41.450648
 30
0.0
 40
4.332583
100
AcDbArc
 50
227.311928
 51
242.704032
  0
ARC
  5
122F
100
AcDbEntity
  8
90000_FRAME
370
    13
  6
CONTINUOUS
 62
     7
100
AcDbCircle
 10
627.111691
 20
40.039292
 30
0.0
 40
2.477043
100
AcDbArc
 50
194.795219
 51
225.717655
  0
ARC
  5
1230
100
AcDbEntity
  8
90000_FRAME
370
    13
  6
CONTINUOUS
 62
     7
100
AcDbCircle
 10
627.236007
 20
40.119732
 30
0.0
 40
2.618184
100
AcDbArc
 50
164.197486
 51
195.802514
  0
ARC
  5
1231
100
AcDbEntity
  8
90000_FRAME
370
    13
  6
CONTINUOUS
 62
     7
100
AcDbCircle
 10
628.350055
 20
38.343198
 30
0.0
 40
4.73385
100
AcDbArc
 50
86.221802
 51
120.42726
  0
ARC
  5
1232
100
AcDbEntity
  8
90000_FRAME
370
    13
  6
CONTINUOUS
 62
     7
100
AcDbCircle
 10
627.812341
 20
24.950862
 30
0.0
 40
18.13581
100
AcDbArc
 50
78.682705
 51
87.31476
  0
ARC
  5
1233
100
AcDbEntity
  8
90000_FRAME
370
    13
  6
CONTINUOUS
 62
     7
100
AcDbCircle
 10
626.900203
 20
40.334748
 30
0.0
 40
2.239495
100
AcDbArc
 50
142.813918
 51
167.152295
  0
ARC
  5
1234
100
AcDbEntity
  8
90000_FRAME
370
    13
  6
CONTINUOUS
 62
     7
100
AcDbCircle
 10
627.590821
 20
39.721585
 30
0.0
 40
3.161093
100
AcDbArc
 50
121.214095
 51
141.525477
  0
ARC
  5
1235
100
AcDbEntity
  8
90000_FRAME
370
    13
  6
CONTINUOUS
 62
     7
100
AcDbCircle
 10
628.74517
 20
41.343699
 30
0.0
 40
1.732255
100
AcDbArc
 50
222.776039
 51
239.036243
  0
ARC
  5
1236
100
AcDbEntity
  8
90000_FRAME
370
    13
  6
CONTINUOUS
 62
     7
100
AcDbCircle
 10
623.731751
 20
26.683155
 30
0.0
 40
13.717547
100
AcDbArc
 50
59.902027
 51
68.203648
  0
ARC
  5
1237
100
AcDbEntity
  8
90000_FRAME
370
    13
  6
CONTINUOUS
 62
     7
100
AcDbCircle
 10
630.54874
 20
44.534928
 30
0.0
 40
5.397482
100
AcDbArc
 50
240.0482
 51
251.377967
  0
ARC
  5
1238
100
AcDbEntity
  8
90000_FRAME
370
    13
  6
CONTINUOUS
 62
     7
100
AcDbCircle
 10
629.217826
 20
36.221131
 30
0.0
 40
2.866895
100
AcDbArc
 50
315.890455
 51
333.522926
  0
ARC
  5
1239
100
AcDbEntity
  8
90000_FRAME
370
    13
  6
CONTINUOUS
 62
     7
100
AcDbCircle
 10
629.227102
 20
36.114316
 30
0.0
 40
2.812457
100
AcDbArc
 50
335.386797
 51
24.391512
  0
ARC
  5
123A
100
AcDbEntity
  8
90000_FRAME
370
    13
  6
CONTINUOUS
 62
     7
100
AcDbCircle
 10
629.082692
 20
35.958603
 30
0.0
 40
3.009405
100
AcDbArc
 50
25.956292
 51
59.483483
  0
LINE
  5
123B
100
AcDbEntity
  8
90000_FRAME
370
    13
  6
CONTINUOUS
 62
     7
100
AcDbLine
 10
569.531321
 20
33.512688
 30
0.0
 11
569.531321
 21
35.413996
 31
0.0
  0
LINE
  5
123C
100
AcDbEntity
  8
90000_FRAME
370
    13
  6
CONTINUOUS
 62
     7
100
AcDbLine
 10
576.185897
 20
40.832723
 30
0.0
 11
576.185897
 21
42.73403
 31
0.0
  0
ARC
  5
123D
100
AcDbEntity
  8
90000_FRAME
370
    13
  6
CONTINUOUS
 62
     7
100
AcDbCircle
 10
572.940603
 20
37.236875
 30
0.0
 40
2.223239
100
AcDbArc
 50
277.709996
 51
295.688493
  0
ARC
  5
123E
100
AcDbEntity
  8
90000_FRAME
370
    13
  6
CONTINUOUS
 62
     7
100
AcDbCircle
 10
573.509223
 20
35.787223
 30
0.0
 40
0.680338
100
AcDbArc
 50
305.503221
 51
72.46529
  0
ARC
  5
123F
100
AcDbEntity
  8
90000_FRAME
370
    13
  6
CONTINUOUS
 62
     7
100
AcDbCircle
 10
572.377235
 20
42.590637
 30
0.0
 40
9.513589
100
AcDbArc
 50
252.59392
 51
280.98166
  0
ARC
  5
1240
100
AcDbEntity
  8
90000_FRAME
370
    13
  6
CONTINUOUS
 62
     7
100
AcDbCircle
 10
573.286906
 20
37.35461
 30
0.0
 40
4.201453
100
AcDbArc
 50
282.405836
 51
311.864443
  0
ARC
  5
1241
100
AcDbEntity
  8
90000_FRAME
370
    13
  6
CONTINUOUS
 62
     7
100
AcDbCircle
 10
572.739777
 20
40.571293
 30
0.0
 40
0.605925
100
AcDbArc
 50
154.440035
 51
221.82017
  0
ARC
  5
1242
100
AcDbEntity
  8
90000_FRAME
370
    13
  6
CONTINUOUS
 62
     7
100
AcDbCircle
 10
572.898219
 20
40.412851
 30
0.0
 40
0.820618
100
AcDbArc
 50
102.828783
 51
149.225964
  0
ARC
  5
1243
100
AcDbEntity
  8
90000_FRAME
370
    13
  6
CONTINUOUS
 62
     7
100
AcDbCircle
 10
573.732273
 20
36.92818
 30
0.0
 40
4.403673
100
AcDbArc
 50
84.040006
 51
103.342766
  0
ARC
  5
1244
100
AcDbEntity
  8
90000_FRAME
370
    13
  6
CONTINUOUS
 62
     7
100
AcDbCircle
 10
573.050345
 20
32.093452
 30
0.0
 40
9.284747
100
AcDbArc
 50
70.262586
 51
82.952419
  0
ARC
  5
1245
100
AcDbEntity
  8
90000_FRAME
370
    13
  6
CONTINUOUS
 62
     7
100
AcDbCircle
 10
572.022309
 20
41.436698
 30
0.0
 40
6.517512
100
AcDbArc
 50
247.530021
 51
280.757952
  0
ARC
  5
1246
100
AcDbEntity
  8
90000_FRAME
370
    13
  6
CONTINUOUS
 62
     7
100
AcDbCircle
 10
559.252376
 20
4.933658
 30
0.0
 40
34.663217
100
AcDbArc
 50
65.341467
 51
67.399777
  0
ARC
  5
1247
100
AcDbEntity
  8
90000_FRAME
370
    13
  6
CONTINUOUS
 62
     7
100
AcDbCircle
 10
580.844101
 20
56.518511
 30
0.0
 40
21.258328
100
AcDbArc
 50
242.86201
 51
247.104203
  0
ARC
  5
1248
100
AcDbEntity
  8
90000_FRAME
370
    13
  6
CONTINUOUS
 62
     7
100
AcDbCircle
 10
573.134298
 20
41.450648
 30
0.0
 40
4.332583
100
AcDbArc
 50
227.311928
 51
242.704032
  0
ARC
  5
1249
100
AcDbEntity
  8
90000_FRAME
370
    13
  6
CONTINUOUS
 62
     7
100
AcDbCircle
 10
571.926237
 20
40.039292
 30
0.0
 40
2.477043
100
AcDbArc
 50
194.795219
 51
225.717655
  0
ARC
  5
124A
100
AcDbEntity
  8
90000_FRAME
370
    13
  6
CONTINUOUS
 62
     7
100
AcDbCircle
 10
573.164601
 20
38.343198
 30
0.0
 40
4.73385
100
AcDbArc
 50
86.221802
 51
120.42726
  0
ARC
  5
124B
100
AcDbEntity
  8
90000_FRAME
370
    13
  6
CONTINUOUS
 62
     7
100
AcDbCircle
 10
572.626887
 20
24.950862
 30
0.0
 40
18.13581
100
AcDbArc
 50
78.682705
 51
87.31476
  0
ARC
  5
124C
100
AcDbEntity
  8
90000_FRAME
370
    13
  6
CONTINUOUS
 62
     7
100
AcDbCircle
 10
572.405367
 20
39.721585
 30
0.0
 40
3.161093
100
AcDbArc
 50
121.214095
 51
141.525477
  0
ARC
  5
124D
100
AcDbEntity
  8
90000_FRAME
370
    13
  6
CONTINUOUS
 62
     7
100
AcDbCircle
 10
573.559716
 20
41.343699
 30
0.0
 40
1.732255
100
AcDbArc
 50
222.776039
 51
239.036243
  0
ARC
  5
124E
100
AcDbEntity
  8
90000_FRAME
370
    13
  6
CONTINUOUS
 62
     7
100
AcDbCircle
 10
568.546297
 20
26.683155
 30
0.0
 40
13.717547
100
AcDbArc
 50
59.902027
 51
68.203648
  0
ARC
  5
124F
100
AcDbEntity
  8
90000_FRAME
370
    13
  6
CONTINUOUS
 62
     7
100
AcDbCircle
 10
575.363286
 20
44.534928
 30
0.0
 40
5.397482
100
AcDbArc
 50
240.0482
 51
251.377967
  0
ARC
  5
1250
100
AcDbEntity
  8
90000_FRAME
370
    13
  6
CONTINUOUS
 62
     7
100
AcDbCircle
 10
574.032372
 20
36.221131
 30
0.0
 40
2.866895
100
AcDbArc
 50
315.890455
 51
333.522926
  0
ARC
  5
1251
100
AcDbEntity
  8
90000_FRAME
370
    13
  6
CONTINUOUS
 62
     7
100
AcDbCircle
 10
574.041648
 20
36.114316
 30
0.0
 40
2.812457
100
AcDbArc
 50
335.386797
 51
24.391512
  0
ARC
  5
1252
100
AcDbEntity
  8
90000_FRAME
370
    13
  6
CONTINUOUS
 62
     7
100
AcDbCircle
 10
573.897238
 20
35.958603
 30
0.0
 40
3.009405
100
AcDbArc
 50
25.956292
 51
59.483483
  0
LINE
  5
1253
100
AcDbEntity
  8
90000_FRAME
370
    13
  6
CONTINUOUS
 62
     7
100
AcDbLine
 10
569.914978
 20
41.667485
 30
0.0
 11
570.463109
 21
42.215631
 31
0.0
  0
ARC
  5
1254
100
AcDbEntity
  8
90000_FRAME
370
    13
  6
CONTINUOUS
 62
     7
100
AcDbCircle
 10
572.050553
 20
40.119732
 30
0.0
 40
2.618184
100
AcDbArc
 50
164.197486
 51
195.802514
  0
ARC
  5
1255
100
AcDbEntity
  8
90000_FRAME
370
    13
  6
CONTINUOUS
 62
     7
100
AcDbCircle
 10
571.714749
 20
40.334748
 30
0.0
 40
2.239495
100
AcDbArc
 50
142.813918
 51
167.152295
  0
LINE
  5
1256
100
AcDbEntity
  8
90000_FRAME
370
    13
  6
CONTINUOUS
 62
     7
100
AcDbLine
 10
830.0
 20
10.0
 30
0.0
 11
830.0
 21
584.0
 31
0.0
  0
LINE
  5
1257
100
AcDbEntity
  8
90000_FRAME
370
    13
  6
CONTINUOUS
 62
     7
100
AcDbLine
 10
10.0
 20
10.0
 30
0.0
 11
10.0
 21
584.0
 31
0.0
  0
LINE
  5
1258
100
AcDbEntity
  8
90000_FRAME
370
    13
  6
CONTINUOUS
 62
     7
100
AcDbLine
 10
840.0
 20
0.0
 30
0.0
 11
840.0
 21
594.0
 31
0.0
  0
LINE
  5
1259
100
AcDbEntity
  8
90000_FRAME
370
    13
  6
CONTINUOUS
 62
     7
100
AcDbLine
 10
0.0
 20
0.0
 30
0.0
 11
0.0
 21
594.0
 31
0.0
  0
LINE
  5
125A
100
AcDbEntity
  8
90000_FRAME
370
    13
  6
CONTINUOUS
 62
     7
100
AcDbLine
 10
830.0
 20
584.0
 30
0.0
 11
10.0
 21
584.0
 31
0.0
  0
LINE
  5
125B
100
AcDbEntity
  8
90000_FRAME
370
    13
  6
CONTINUOUS
 62
     7
100
AcDbLine
 10
840.0
 20
594.0
 30
0.0
 11
0.0
 21
594.0
 31
0.0
  0
LINE
  5
125C
100
AcDbEntity
  8
90000_FRAME
370
    13
  6
CONTINUOUS
 62
     7
100
AcDbLine
 10
830.0
 20
10.0
 30
0.0
 11
10.0
 21
10.0
 31
0.0
  0
LINE
  5
125D
100
AcDbEntity
  8
90000_FRAME
370
    13
  6
CONTINUOUS
 62
     7
100
AcDbLine
 10
840.0
 20
0.0
 30
0.0
 11
0.0
 21
0.0
 31
0.0
  0
ENDSEC
  0
SECTION
  2
OBJECTS
  0
DICTIONARY
  5
10CF
100
AcDbDictionary
280
     0
281
     1
  3
ACAD_GROUP
350
10D0
  3
ACAD_MLINESTYLE
350
10D1
  0
DICTIONARY
  5
10D0
102
{ACAD_REACTORS
330
10CF
102
}
100
AcDbDictionary
280
     0
281
     1
  0
DICTIONARY
  5
10D1
102
{ACAD_REACTORS
330
10CF
102
}
100
AcDbDictionary
280
     0
281
     1
  3
Standard
350
10D2
  0
MLINESTYLE
  5
10D2
102
{ACAD_REACTORS
330
10D1
102
}
100
AcDbMlineStyle
  2
Standard
 70
     0
  3

 62
     0
 51
90.0
 52
90.0
 71
     2
 49
0.5
 62
   256
  6
ByLayer
 49
-0.5
 62
   256
  6
ByLayer
  0
ENDSEC
  0
EOF
