  0
SECTION
  2
HEADER
  9
$ACADVER
  1
AC1015
  9
$ACADMAINTVER
 70
     6
  9
$DWGCODEPAGE
  3
ANSI_1252
  9
$INSBASE
 10
0.0
 20
0.0
 30
0.0
  9
$EXTMIN
 10
69.395417
 20
287.976483
 30
-1.0
  9
$EXTMAX
 10
1026.514554
 20
492.804657
 30
0.7
  9
$LIMMIN
 10
0.0
 20
0.0
  9
$LIMMAX
 10
12.0
 20
9.0
  9
$ORTHOMODE
 70
     0
  9
$REGENMODE
 70
     1
  9
$FILLMODE
 70
     1
  9
$QTEXTMODE
 70
     0
  9
$MIRRTEXT
 70
     0
  9
$LTSCALE
 40
5.0
  9
$ATTMODE
 70
     1
  9
$TEXTSIZE
 40
0.2
  9
$TRACEWID
 40
0.05
  9
$TEXTSTYLE
  7
STANDARD
  9
$CLAYER
  8
0
  9
$CELTYPE
  6
ByLayer
  9
$CECOLOR
 62
   256
  9
$CELTSCALE
 40
1.0
  9
$DISPSILH
 70
     0
  9
$DIMSCALE
 40
1.0
  9
$DIMASZ
 40
0.18
  9
$DIMEXO
 40
0.0625
  9
$DIMDLI
 40
0.38
  9
$DIMRND
 40
0.0
  9
$DIMDLE
 40
0.0
  9
$DIMEXE
 40
0.18
  9
$DIMTP
 40
0.0
  9
$DIMTM
 40
0.0
  9
$DIMTXT
 40
0.18
  9
$DIMCEN
 40
0.09
  9
$DIMTSZ
 40
0.0
  9
$DIMTOL
 70
     0
  9
$DIMLIM
 70
     0
  9
$DIMTIH
 70
     1
  9
$DIMTOH
 70
     1
  9
$DIMSE1
 70
     0
  9
$DIMSE2
 70
     0
  9
$DIMTAD
 70
     0
  9
$DIMZIN
 70
     0
  9
$DIMBLK
  1

  9
$DIMASO
 70
     1
  9
$DIMSHO
 70
     1
  9
$DIMPOST
  1

  9
$DIMAPOST
  1

  9
$DIMALT
 70
     0
  9
$DIMALTD
 70
     2
  9
$DIMALTF
 40
25.4
  9
$DIMLFAC
 40
1.0
  9
$DIMTOFL
 70
     0
  9
$DIMTVP
 40
0.0
  9
$DIMTIX
 70
     0
  9
$DIMSOXD
 70
     0
  9
$DIMSAH
 70
     0
  9
$DIMBLK1
  1

  9
$DIMBLK2
  1

  9
$DIMSTYLE
  2
STANDARD
  9
$DIMCLRD
 70
     0
  9
$DIMCLRE
 70
     0
  9
$DIMCLRT
 70
     0
  9
$DIMTFAC
 40
1.0
  9
$DIMGAP
 40
0.09
  9
$DIMJUST
 70
     0
  9
$DIMSD1
 70
     0
  9
$DIMSD2
 70
     0
  9
$DIMTOLJ
 70
     1
  9
$DIMTZIN
 70
     0
  9
$DIMALTZ
 70
     0
  9
$DIMALTTZ
 70
     0
  9
$DIMUPT
 70
     0
  9
$DIMDEC
 70
     4
  9
$DIMTDEC
 70
     4
  9
$DIMALTU
 70
     2
  9
$DIMALTTD
 70
     2
  9
$DIMTXSTY
  7
STANDARD
  9
$DIMAUNIT
 70
     0
  9
$DIMADEC
 70
     0
  9
$DIMALTRND
 40
0.0
  9
$DIMAZIN
 70
     0
  9
$DIMDSEP
 70
     0
  9
$DIMATFIT
 70
     3
  9
$DIMFRAC
 70
     0
  9
$DIMLDRBLK
  1

  9
$DIMLUNIT
 70
     2
  9
$DIMLWD
 70
     0
  9
$DIMLWE
 70
     0
  9
$DIMTMOVE
 70
     0
  9
$LUNITS
 70
     2
  9
$LUPREC
 70
     4
  9
$SKETCHINC
 40
0.1
  9
$FILLETRAD
 40
0.0
  9
$AUNITS
 70
     0
  9
$AUPREC
 70
     0
  9
$MENU
  1
.
  9
$ELEVATION
 40
0.0
  9
$PELEVATION
 40
0.0
  9
$THICKNESS
 40
0.0
  9
$LIMCHECK
 70
     0
  9
$CHAMFERA
 40
0.0
  9
$CHAMFERB
 40
0.0
  9
$CHAMFERC
 40
0.0
  9
$CHAMFERD
 40
0.0
  9
$SKPOLY
 70
     0
  9
$TDCREATE
 40
2453353.758792454
  9
$TDUCREATE
 40
0.000000000
  9
$TDUPDATE
 40
0.000000000
  9
$TDUUPDATE
 40
2447892.958333334
  9
$TDINDWG
 40
78332576.0667047050
  9
$TDUSRTIMER
 40
0.0000000000
  9
$USRTIMER
 70
     1
  9
$ANGBASE
 50
0.0
  9
$ANGDIR
 70
     0
  9
$PDMODE
 70
     0
  9
$PDSIZE
 40
0.0
  9
$PLINEWID
 40
0.0
  9
$SPLFRAME
 70
     0
  9
$SPLINETYPE
 70
     6
  9
$SPLINESEGS
 70
     8
  9
$HANDSEED
  5
175A
  9
$SURFTAB1
 70
     6
  9
$SURFTAB2
 70
     6
  9
$SURFTYPE
 70
     6
  9
$SURFU
 70
     6
  9
$SURFV
 70
     6
  9
$UCSBASE
  2

  9
$UCSNAME
  2

  9
$UCSORG
 10
0.0
 20
0.0
 30
0.0
  9
$UCSXDIR
 10
1.0
 20
0.0
 30
0.0
  9
$UCSYDIR
 10
0.0
 20
1.0
 30
0.0
  9
$UCSORTHOREF
  2

  9
$UCSORTHOVIEW
 70
     0
  9
$UCSORGTOP
 10
0.0
 20
0.0
 30
0.0
  9
$UCSORGBOTTOM
 10
0.0
 20
0.0
 30
0.0
  9
$UCSORGLEFT
 10
0.0
 20
0.0
 30
0.0
  9
$UCSORGRIGHT
 10
0.0
 20
0.0
 30
0.0
  9
$UCSORGFRONT
 10
0.0
 20
0.0
 30
0.0
  9
$UCSORGBACK
 10
0.0
 20
0.0
 30
0.0
  9
$PUCSBASE
  2

  9
$PUCSNAME
  2

  9
$PUCSORG
 10
0.0
 20
0.0
 30
0.0
  9
$PUCSXDIR
 10
1.0
 20
0.0
 30
0.0
  9
$PUCSYDIR
 10
0.0
 20
1.0
 30
0.0
  9
$PUCSORTHOREF
  2

  9
$PUCSORTHOVIEW
 70
     0
  9
$PUCSORGTOP
 10
0.0
 20
0.0
 30
0.0
  9
$PUCSORGBOTTOM
 10
0.0
 20
0.0
 30
0.0
  9
$PUCSORGLEFT
 10
0.0
 20
0.0
 30
0.0
  9
$PUCSORGRIGHT
 10
0.0
 20
0.0
 30
0.0
  9
$PUCSORGFRONT
 10
0.0
 20
0.0
 30
0.0
  9
$PUCSORGBACK
 10
0.0
 20
0.0
 30
0.0
  9
$USERI1
 70
     0
  9
$USERI2
 70
     0
  9
$USERI3
 70
     0
  9
$USERI4
 70
     0
  9
$USERI5
 70
     0
  9
$USERR1
 40
0.0
  9
$USERR2
 40
0.0
  9
$USERR3
 40
0.0
  9
$USERR4
 40
0.0
  9
$USERR5
 40
0.0
  9
$WORLDVIEW
 70
     1
  9
$SHADEDGE
 70
     3
  9
$SHADEDIF
 70
    70
  9
$TILEMODE
 70
     1
  9
$MAXACTVP
 70
    64
  9
$PINSBASE
 10
0.0
 20
0.0
 30
0.0
  9
$PLIMCHECK
 70
     0
  9
$PEXTMIN
 10
0.0
 20
0.0
 30
0.0
  9
$PEXTMAX
 10
0.0
 20
0.0
 30
0.0
  9
$PLIMMIN
 10
0.0
 20
0.0
  9
$PLIMMAX
 10
0.0
 20
0.0
  9
$UNITMODE
 70
     0
  9
$VISRETAIN
 70
     1
  9
$PLINEGEN
 70
     0
  9
$PSLTSCALE
 70
     1
  9
$TREEDEPTH
 70
  3020
  9
$CMLSTYLE
  2
Standard
  9
$CMLJUST
 70
     0
  9
$CMLSCALE
 40
1.0
  9
$PROXYGRAPHICS
 70
     0
  9
$MEASUREMENT
 70
     0
  9
$CELWEIGHT
370
     0
  9
$ENDCAPS
280
     0
  9
$JOINSTYLE
280
     0
  9
$LWDISPLAY
290
     0
  9
$INSUNITS
 70
     0
  9
$HYPERLINKBASE
  1

  9
$STYLESHEET
  1

  9
$XEDIT
290
     1
  9
$CEPSNTYPE
380
     0
  9
$PSTYLEMODE
290
     1
  9
$FINGERPRINTGUID
  2

  9
$VERSIONGUID
  2

  9
$EXTNAMES
290
     1
  9
$PSVPSCALE
 40
0.0
  0
ENDSEC
  0
SECTION
  2
CLASSES
  0
CLASS
  1
LWPOLYLINE
  2
AcDbPolyline
  3
AutoCAD 2000
 90
        0
280
     0
281
     1
  0
CLASS
  1
IMAGE
  2
AcDbRasterImage
  3
ISM
 90
      127
280
     0
281
     1
  0
CLASS
  1
OLE2FRAME
  2
AcDbOle2Frame
  3
AutoCAD 2000
 90
        0
280
     0
281
     1
  0
CLASS
  1
HATCH
  2
AcDbHatch
  3
AutoCAD 2000
 90
        0
280
     0
281
     1
  0
CLASS
  1
DICTIONARYVAR
  2
AcDbDictionaryVar
  3
AutoCAD 2000
 90
        0
280
     0
281
     0
  0
CLASS
  1
RASTERVARIABLES
  2
AcDbRasterVariables
  3
ISM
 90
        0
280
     0
281
     0
  0
CLASS
  1
IMAGEDEF
  2
AcDbRasterImageDef
  3
ISM
 90
        0
280
     0
281
     0
  0
CLASS
  1
IMAGEDEF_REACTOR
  2
AcDbRasterImageDefReactor
  3
ISM
 90
        1
280
     0
281
     0
  0
CLASS
  1
IDBUFFER
  2
AcDbIdBuffer
  3
AutoCAD 2000
 90
        0
280
     0
281
     0
  0
CLASS
  1
SPATIAL_FILTER
  2
AcDbSpatialFilter
  3
AutoCAD 2000
 90
        0
280
     0
281
     0
  0
CLASS
  1
XRECORD
  2
AcDbXrecord
  3
AutoCAD 2000
 90
        0
280
     0
281
     0
  0
CLASS
  1
SORTENTSTABLE
  2
AcDbSortentsTable
  3
AutoCAD 2000
 90
        0
280
     0
281
     0
  0
CLASS
  1
LAYER_INDEX
  2
AcDbLayerIndex
  3
AutoCAD 2000
 90
        0
280
     0
281
     0
  0
CLASS
  1
SPATIAL_INDEX
  2
AcDbSpatialIndex
  3
AutoCAD 2000
 90
        0
280
     0
281
     0
  0
CLASS
  1
OBJECT_PTR
  2
CAseDLPNTableRecord
  3
"ASE-LPNTableRecord"
 90
        1
280
     0
281
     0
  0
CLASS
  1
LAYOUT
  2
AcDbLayout
  3
AutoCAD 2000
 90
        0
280
     0
281
     0
  0
CLASS
  1
PLOTSETTINGS
  2
AcDbPlotSettings
  3
AutoCAD 2000
 90
        0
280
     0
281
     0
  0
CLASS
  1
ACDBDICTIONARYWDFLT
  2
AcDbDictionaryWithDefault
  3
AutoCAD 2000
 90
        0
280
     0
281
     0
  0
CLASS
  1
ACDBPLACEHOLDER
  2
AcDbPlaceHolder
  3
AutoCAD 2000
 90
        0
280
     0
281
     0
  0
CLASS
  1
VBA_PROJECT
  2
AcDbVbaProject
  3
acadvba
 90
        0
280
     0
281
     0
  0
CLASS
  1
WIPEOUT
  2
AcDbWipeout
  3
WipeOut|AutoCAD Express Tool|expresstools@autodesk.com
 90
      127
280
     0
281
     1
  0
CLASS
  1
WIPEOUTVARIABLES
  2
AcDbWipeoutVariables
  3
WipeOut|AutoCAD Express Tool|expresstools@autodesk.com
 90
        0
280
     0
281
     0
  0
CLASS
  1
RTEXT
  2
RText
  3
RText|AutoCAD Express Tool|expresstools@autodesk.com
 90
        0
280
     0
281
     1
  0
CLASS
  1
ARCALIGNEDTEXT
  2
AcDbArcAlignedText
  3
ATEXT|AutoCAD Express Tool|expresstools@autodesk.com
 90
        0
280
     0
281
     1
  0
ENDSEC
  0
SECTION
  2
TABLES
  0
TABLE
  2
VPORT
  5
1094
100
AcDbSymbolTable
 70
     1
  0
VPORT
  5
10BB
100
AcDbSymbolTableRecord
100
AcDbViewportTableRecord
  2
*ACTIVE
 70
     0
 10
0.0
 20
0.0
 11
1.0
 21
1.0
 12
450.328833
 22
266.374849
 13
0.0
 23
0.0
 14
0.5
 24
0.5
 15
0.5
 25
0.5
 16
0.0
 26
0.0
 36
1.0
 17
0.0
 27
0.0
 37
0.0
 40
620.078606
 41
1.701534
 42
50.0
 43
0.0
 44
0.0
 50
0.0
 51
0.0
 71
    16
 72
  1000
 73
     1
 74
     3
 75
     0
 76
     0
 77
     0
 78
     0
281
     0
 65
     0
110
0.0
120
0.0
130
0.0
111
1.0
121
0.0
131
0.0
112
0.0
122
1.0
132
0.0
345
0
346
0
 79
     0
146
0.0
  0
ENDTAB
  0
TABLE
  2
LTYPE
  5
1091
100
AcDbSymbolTable
 70
     6
  0
LTYPE
  5
109A
100
AcDbSymbolTableRecord
100
AcDbLinetypeTableRecord
  2
ByBlock
 70
    64
  3

 72
    65
 73
     0
 40
0.0
  0
LTYPE
  5
109B
100
AcDbSymbolTableRecord
100
AcDbLinetypeTableRecord
  2
ByLayer
 70
    64
  3

 72
    65
 73
     0
 40
0.0
  0
LTYPE
  5
109C
100
AcDbSymbolTableRecord
100
AcDbLinetypeTableRecord
  2
CONTINUOUS
 70
     0
  3
Solid line
 72
    65
 73
     0
 40
0.0
  0
LTYPE
  5
109D
100
AcDbSymbolTableRecord
100
AcDbLinetypeTableRecord
  2
CENTER
 70
     0
  3
____ _ ____ _ ____ _ ____ _ ____ _ ____ _ ____
 72
    65
 73
     4
 40
0.6
 49
0.375
 74
     0
 49
-0.075
 74
     0
 49
0.075
 74
     0
 49
-0.075
 74
     0
  0
LTYPE
  5
109E
100
AcDbSymbolTableRecord
100
AcDbLinetypeTableRecord
  2
ACAD_ISO02W100
 70
     0
  3
ISO Strichlinie __ __ __ __ __ __ __ __ __ __ _
 72
    65
 73
     2
 40
15.0
 49
12.0
 74
     0
 49
-3.0
 74
     0
  0
LTYPE
  5
109F
100
AcDbSymbolTableRecord
100
AcDbLinetypeTableRecord
  2
DASHED
 70
     0
  3
_ _ _ _ _ _ _ _ _ _ _ _ _ _ _ _ _ _ _ _ _ _ _ _
 72
    65
 73
     2
 40
0.375
 49
0.25
 74
     0
 49
-0.125
 74
     0
  0
ENDTAB
  0
TABLE
  2
LAYER
  5
108F
100
AcDbSymbolTable
 70
     5
  0
LAYER
  5
10A0
100
AcDbSymbolTableRecord
100
AcDbLayerTableRecord
  2
0
 70
     0
 62
     7
  6
CONTINUOUS
290
     1
370
    -3
390
0
  0
LAYER
  5
10A1
100
AcDbSymbolTableRecord
100
AcDbLayerTableRecord
  2
90000_FRAME
 70
     0
 62
     7
  6
CONTINUOUS
290
     1
370
    -3
390
0
  0
LAYER
  5
10A2
100
AcDbSymbolTableRecord
100
AcDbLayerTableRecord
  2
91000_TIP
 70
     0
 62
     7
  6
CONTINUOUS
290
     1
370
    -3
390
0
  0
LAYER
  5
10A3
100
AcDbSymbolTableRecord
100
AcDbLayerTableRecord
  2
10000_FRONT
 70
     0
 62
     7
  6
CONTINUOUS
290
     1
370
    -3
390
0
  0
LAYER
  5
10A7
100
AcDbSymbolTableRecord
100
AcDbLayerTableRecord
  2
DEFPOINTS
 70
     0
 62
     7
  6
CONTINUOUS
290
     0
370
    -3
390
0
  0
ENDTAB
  0
TABLE
  2
STYLE
  5
1090
100
AcDbSymbolTable
 70
     1
  0
STYLE
  5
10C0
100
AcDbSymbolTableRecord
100
AcDbTextStyleTableRecord
  2
STANDARD
 70
     0
 40
0.0
 41
1.0
 50
0.0
 71
     0
 42
0.2
  3
txt.shx
  4

  0
ENDTAB
  0
TABLE
  2
VIEW
  5
1092
100
AcDbSymbolTable
 70
     0
  0
ENDTAB
  0
TABLE
  2
UCS
  5
1093
100
AcDbSymbolTable
 70
     0
  0
ENDTAB
  0
TABLE
  2
APPID
  5
1095
100
AcDbSymbolTable
 70
     4
  0
APPID
  5
10BC
100
AcDbSymbolTableRecord
100
AcDbRegAppTableRecord
  2
ACAD
 70
     0
  0
APPID
  5
10BD
100
AcDbSymbolTableRecord
100
AcDbRegAppTableRecord
  2
AUSTER_ANSICHT
 70
     0
  0
APPID
  5
10BE
100
AcDbSymbolTableRecord
100
AcDbRegAppTableRecord
  2
AUSTER_FOLIE
 70
     0
  0
APPID
  5
10BF
100
AcDbSymbolTableRecord
100
AcDbRegAppTableRecord
  2
ACAECLAYERSTANDARD
 70
     0
  0
ENDTAB
  0
TABLE
  2
DIMSTYLE
  5
1096
100
AcDbSymbolTable
 70
     3
100
AcDbDimStyleTable
 71
     0
  0
DIMSTYLE
105
10CA
100
AcDbSymbolTableRecord
100
AcDbDimStyleTableRecord
  2
STANDARD
 70
     0
  3

  4

 40
1.0
 41
0.18
 42
0.0625
 43
0.38
 44
0.18
 45
0.0
 46
0.0
 47
0.0
 48
0.0
 71
     0
 72
     0
 73
     1
 74
     1
 75
     0
 76
     0
 77
     0
 78
     0
 79
     0
140
0.18
141
0.09
142
0.0
143
25.4
144
1.0
145
0.0
146
1.0
147
0.09
148
0.0
170
     0
171
     2
172
     0
173
     0
174
     0
175
     0
176
     0
177
     0
178
     0
179
     0
271
     4
272
     4
273
     2
274
     2
275
     0
276
     0
277
     2
278
    46
279
     0
280
     0
281
     0
282
     0
283
     1
284
     0
285
     0
286
     0
288
     0
289
     3
340
10C0
341
0
342
0
343
0
344
0
371
    -2
372
    -2
  0
DIMSTYLE
105
10CB
100
AcDbSymbolTableRecord
100
AcDbDimStyleTableRecord
  2
DSTYLE1
 70
     0
  3

  4

 40
1.0
 41
3.0
 42
0.0
 43
0.38
 44
1.0
 45
0.0
 46
0.0
 47
0.0
 48
0.0
 71
     0
 72
     0
 73
     0
 74
     0
 75
     0
 76
     0
 77
     1
 78
     3
 79
     0
140
2.5
141
0.09
142
0.0
143
0.03937
144
1.0
145
0.0
146
1.0
147
1.0
148
0.0
170
     0
171
     2
172
     0
173
     0
174
     0
175
     0
176
     0
177
     0
178
     0
179
     0
271
     4
272
     4
273
     2
274
     2
275
     0
276
     0
277
     2
278
    46
279
     0
280
     0
281
     0
282
     0
283
     1
284
     0
285
     0
286
     0
288
     0
289
     3
340
10C0
341
0
342
0
343
0
344
0
371
    -2
372
    -2
  0
DIMSTYLE
105
10CC
100
AcDbSymbolTableRecord
100
AcDbDimStyleTableRecord
  2
H035
 70
     0
  3

  4

 40
0.0
 41
3.5
 42
0.0
 43
3.75
 44
2.0
 45
0.0
 46
0.0
 47
0.0
 48
0.0
 71
     0
 72
     0
 73
     0
 74
     0
 75
     0
 76
     0
 77
     1
 78
     8
 79
     0
140
3.5
141
2.5
142
0.0
143
0.039
144
1.0
145
0.0
146
1.0
147
0.5
148
0.0
170
     0
171
     4
172
     1
173
     0
174
     0
175
     0
176
   256
177
     7
178
     7
179
     0
271
     4
272
     4
273
     2
274
     2
275
     0
276
     0
277
     2
278
    46
279
     0
280
     0
281
     0
282
     0
283
     1
284
     0
285
     0
286
     0
288
     0
289
     3
340
10C0
341
0
342
0
343
0
344
0
371
    -2
372
    -2
  0
ENDTAB
  0
TABLE
  2
BLOCK_RECORD
  5
10C5
100
AcDbSymbolTable
 70
     2
  0
BLOCK_RECORD
  5
10C3
100
AcDbSymbolTableRecord
100
AcDbBlockTableRecord
  2
*Model_Space
340
0
  0
BLOCK_RECORD
  5
10C4
100
AcDbSymbolTableRecord
100
AcDbBlockTableRecord
  2
*Paper_Space
340
0
  0
BLOCK_RECORD
  5
10C1
100
AcDbSymbolTableRecord
100
AcDbBlockTableRecord
  2
$MODEL_SPACE
340
0
  0
BLOCK_RECORD
  5
10C2
100
AcDbSymbolTableRecord
100
AcDbBlockTableRecord
  2
$PAPER_SPACE
340
0
  0
ENDTAB
  0
ENDSEC
  0
SECTION
  2
BLOCKS
  0
BLOCK
  5
10C6
100
AcDbEntity
  8
0
390
0
100
AcDbBlockBegin
  2
*Model_Space
 70
     0
 10
0.0
 20
0.0
 30
0.0
  3
*Model_Space
  1

  0
ENDBLK
  5
10C7
100
AcDbEntity
  8
0
390
0
100
AcDbBlockEnd
  0
BLOCK
  5
10C8
100
AcDbEntity
 67
     1
  8
0
390
0
100
AcDbBlockBegin
  2
*Paper_Space
 70
     0
 10
0.0
 20
0.0
 30
0.0
  3
*Paper_Space
  1

  0
ENDBLK
  5
10C9
100
AcDbEntity
 67
     1
  8
0
390
0
100
AcDbBlockEnd
  0
BLOCK
  5
10CD
100
AcDbEntity
  8
0
100
AcDbBlockBegin
  2
$MODEL_SPACE
 70
     0
 10
0.0
 20
0.0
 30
0.0
  3
$MODEL_SPACE
  1

  0
ENDBLK
  5
21
100
AcDbEntity
  8
0
100
AcDbBlockEnd
  0
BLOCK
  5
10CE
100
AcDbEntity
  8
0
100
AcDbBlockBegin
  2
$PAPER_SPACE
 70
     0
 10
0.0
 20
0.0
 30
0.0
  3
$PAPER_SPACE
  1

  0
ENDBLK
  5
76
100
AcDbEntity
  8
0
100
AcDbBlockEnd
  0
ENDSEC
  0
SECTION
  2
ENTITIES
  0
LINE
  5
10D4
100
AcDbEntity
  8
10000_FRONT
370
    50
390
0
  6
CONTINUOUS
 62
     7
100
AcDbLine
 10
109.699999
 20
157.009216
 30
0.0
 11
109.699998
 21
173.150009
 31
0.0
  0
LINE
  5
10D5
100
AcDbEntity
  8
10000_FRONT
370
    50
390
0
  6
CONTINUOUS
 62
     7
100
AcDbLine
 10
82.500248
 20
192.694119
 30
0.0
 11
82.5
 21
192.764427
 31
0.0
  0
LINE
  5
10D6
100
AcDbEntity
  8
10000_FRONT
370
    50
390
0
  6
CONTINUOUS
 62
     7
100
AcDbLine
 10
127.500082
 20
134.335457
 30
0.0
 11
127.499752
 21
134.405758
 31
0.0
  0
LINE
  5
10D7
100
AcDbEntity
  8
10000_FRONT
370
    50
390
0
  6
CONTINUOUS
 62
     7
100
AcDbLine
 10
82.50119
 20
192.624279
 30
0.0
 11
82.500248
 21
192.694119
 31
0.0
  0
LINE
  5
10D8
100
AcDbEntity
  8
10000_FRONT
370
    50
390
0
  6
CONTINUOUS
 62
     7
100
AcDbLine
 10
127.499752
 20
134.405758
 30
0.0
 11
127.49881
 21
134.475597
 31
0.0
  0
LINE
  5
10D9
100
AcDbEntity
  8
10000_FRONT
370
    50
390
0
  6
CONTINUOUS
 62
     7
100
AcDbLine
 10
108.9
 20
135.474998
 30
0.0
 11
108.898386
 21
135.558846
 31
0.0
  0
LINE
  5
10DA
100
AcDbEntity
  8
10000_FRONT
370
    50
390
0
  6
CONTINUOUS
 62
     7
100
AcDbLine
 10
100.3
 20
135.474998
 30
0.0
 11
100.298386
 21
135.558846
 31
0.0
  0
LINE
  5
10DB
100
AcDbEntity
  8
10000_FRONT
370
    50
390
0
  6
CONTINUOUS
 62
     7
100
AcDbLine
 10
91.7
 20
135.474998
 30
0.0
 11
91.698386
 21
135.558846
 31
0.0
  0
LINE
  5
10DC
100
AcDbEntity
  8
10000_FRONT
370
    50
390
0
  6
CONTINUOUS
 62
     7
100
AcDbLine
 10
118.301615
 20
191.541144
 30
0.0
 11
118.3
 21
191.625
 31
0.0
  0
LINE
  5
10DD
100
AcDbEntity
  8
10000_FRONT
370
    50
390
0
  6
CONTINUOUS
 62
     7
100
AcDbLine
 10
109.701615
 20
191.541144
 30
0.0
 11
109.7
 21
191.625
 31
0.0
  0
LINE
  5
10DE
100
AcDbEntity
  8
10000_FRONT
370
    50
390
0
  6
CONTINUOUS
 62
     7
100
AcDbLine
 10
101.101615
 20
191.541144
 30
0.0
 11
101.1
 21
191.625
 31
0.0
  0
LINE
  5
10DF
100
AcDbEntity
  8
10000_FRONT
370
    50
390
0
  6
CONTINUOUS
 62
     7
100
AcDbLine
 10
83.901615
 20
191.541144
 30
0.0
 11
83.9
 21
191.625
 31
0.0
  0
LINE
  5
10E0
100
AcDbEntity
  8
10000_FRONT
370
    50
390
0
  6
CONTINUOUS
 62
     7
100
AcDbLine
 10
92.501615
 20
191.541144
 30
0.0
 11
92.5
 21
191.625
 31
0.0
  0
LINE
  5
10E1
100
AcDbEntity
  8
10000_FRONT
370
    50
390
0
  6
CONTINUOUS
 62
     7
100
AcDbLine
 10
126.1
 20
135.474998
 30
0.0
 11
126.098385
 21
135.558846
 31
0.0
  0
LINE
  5
10E2
100
AcDbEntity
  8
10000_FRONT
370
    50
390
0
  6
CONTINUOUS
 62
     7
100
AcDbLine
 10
117.5
 20
135.474998
 30
0.0
 11
117.498385
 21
135.558846
 31
0.0
  0
LINE
  5
10E3
100
AcDbEntity
  8
10000_FRONT
370
    50
390
0
  6
CONTINUOUS
 62
     7
100
AcDbLine
 10
117.5
 20
192.875
 30
0.0
 11
117.497928
 21
192.970023
 31
0.0
  0
LINE
  5
10E4
100
AcDbEntity
  8
10000_FRONT
370
    50
390
0
  6
CONTINUOUS
 62
     7
100
AcDbLine
 10
108.9
 20
192.875
 30
0.0
 11
108.897928
 21
192.970023
 31
0.0
  0
LINE
  5
10E5
100
AcDbEntity
  8
10000_FRONT
370
    50
390
0
  6
CONTINUOUS
 62
     7
100
AcDbLine
 10
100.3
 20
192.875
 30
0.0
 11
100.297928
 21
192.970023
 31
0.0
  0
LINE
  5
10E6
100
AcDbEntity
  8
10000_FRONT
370
    50
390
0
  6
CONTINUOUS
 62
     7
100
AcDbLine
 10
118.302073
 20
134.129959
 30
0.0
 11
118.3
 21
134.224998
 31
0.0
  0
LINE
  5
10E7
100
AcDbEntity
  8
10000_FRONT
370
    50
390
0
  6
CONTINUOUS
 62
     7
100
AcDbLine
 10
109.702073
 20
134.129959
 30
0.0
 11
109.7
 21
134.224998
 31
0.0
  0
LINE
  5
10E8
100
AcDbEntity
  8
10000_FRONT
370
    50
390
0
  6
CONTINUOUS
 62
     7
100
AcDbLine
 10
101.102073
 20
134.129959
 30
0.0
 11
101.1
 21
134.224998
 31
0.0
  0
LINE
  5
10E9
100
AcDbEntity
  8
10000_FRONT
370
    50
390
0
  6
CONTINUOUS
 62
     7
100
AcDbLine
 10
92.502073
 20
134.129959
 30
0.0
 11
92.5
 21
134.224998
 31
0.0
  0
LINE
  5
10EA
100
AcDbEntity
  8
10000_FRONT
370
    50
390
0
  6
CONTINUOUS
 62
     7
100
AcDbLine
 10
83.902073
 20
134.129959
 30
0.0
 11
83.9
 21
134.224998
 31
0.0
  0
LINE
  5
10EB
100
AcDbEntity
  8
10000_FRONT
370
    50
390
0
  6
CONTINUOUS
 62
     7
100
AcDbLine
 10
126.1
 20
192.875
 30
0.0
 11
126.097927
 21
192.970023
 31
0.0
  0
LINE
  5
10EC
100
AcDbEntity
  8
10000_FRONT
370
    50
390
0
  6
CONTINUOUS
 62
     7
100
AcDbLine
 10
91.7
 20
192.875
 30
0.0
 11
91.697927
 21
192.970023
 31
0.0
  0
LINE
  5
10ED
100
AcDbEntity
  8
10000_FRONT
370
    50
390
0
  6
CONTINUOUS
 62
     7
100
AcDbLine
 10
127.49881
 20
134.475597
 30
0.0
 11
127.497274
 21
134.544914
 31
0.0
  0
LINE
  5
10EE
100
AcDbEntity
  8
10000_FRONT
370
    50
390
0
  6
CONTINUOUS
 62
     7
100
AcDbLine
 10
82.502726
 20
192.554964
 30
0.0
 11
82.50119
 21
192.624279
 31
0.0
  0
LINE
  5
10EF
100
AcDbEntity
  8
10000_FRONT
370
    50
390
0
  6
CONTINUOUS
 62
     7
100
AcDbLine
 10
127.5
 20
197.75
 30
0.0
 11
127.499271
 21
197.776416
 31
0.0
  0
LINE
  5
10F0
100
AcDbEntity
  8
10000_FRONT
370
    50
390
0
  6
CONTINUOUS
 62
     7
100
AcDbLine
 10
127.497274
 20
134.544914
 30
0.0
 11
127.495161
 21
134.613636
 31
0.0
  0
LINE
  5
10F1
100
AcDbEntity
  8
10000_FRONT
370
    50
390
0
  6
CONTINUOUS
 62
     7
100
AcDbLine
 10
82.504839
 20
192.486242
 30
0.0
 11
82.502726
 21
192.554964
 31
0.0
  0
LINE
  5
10F2
100
AcDbEntity
  8
10000_FRONT
370
    50
390
0
  6
CONTINUOUS
 62
     7
100
AcDbLine
 10
127.495161
 20
134.613636
 30
0.0
 11
127.492487
 21
134.681698
 31
0.0
  0
LINE
  5
10F3
100
AcDbEntity
  8
10000_FRONT
370
    50
390
0
  6
CONTINUOUS
 62
     7
100
AcDbLine
 10
82.507513
 20
192.41818
 30
0.0
 11
82.504839
 21
192.486242
 31
0.0
  0
LINE
  5
10F4
100
AcDbEntity
  8
10000_FRONT
370
    50
390
0
  6
CONTINUOUS
 62
     7
100
AcDbLine
 10
82.501553
 20
129.211189
 30
0.0
 11
82.5
 21
129.25
 31
0.0
  0
LINE
  5
10F5
100
AcDbEntity
  8
10000_FRONT
370
    50
390
0
  6
CONTINUOUS
 62
     7
100
AcDbLine
 10
82.510738
 20
192.350686
 30
0.0
 11
82.507513
 21
192.41818
 31
0.0
  0
LINE
  5
10F6
100
AcDbEntity
  8
10000_FRONT
370
    50
390
0
  6
CONTINUOUS
 62
     7
100
AcDbLine
 10
127.492487
 20
134.681698
 30
0.0
 11
127.489262
 21
134.749191
 31
0.0
  0
LINE
  5
10F7
100
AcDbEntity
  8
10000_FRONT
370
    50
390
0
  6
CONTINUOUS
 62
     7
100
AcDbLine
 10
127.489262
 20
134.749191
 30
0.0
 11
127.485405
 21
134.817509
 31
0.0
  0
LINE
  5
10F8
100
AcDbEntity
  8
10000_FRONT
370
    50
390
0
  6
CONTINUOUS
 62
     7
100
AcDbLine
 10
82.514595
 20
192.282369
 30
0.0
 11
82.510738
 21
192.350686
 31
0.0
  0
LINE
  5
10F9
100
AcDbEntity
  8
10000_FRONT
370
    50
390
0
  6
CONTINUOUS
 62
     7
100
AcDbLine
 10
126.098385
 20
135.558846
 30
0.0
 11
126.093493
 21
135.643612
 31
0.0
  0
LINE
  5
10FA
100
AcDbEntity
  8
10000_FRONT
370
    50
390
0
  6
CONTINUOUS
 62
     7
100
AcDbLine
 10
117.498385
 20
135.558846
 30
0.0
 11
117.493493
 21
135.643612
 31
0.0
  0
LINE
  5
10FB
100
AcDbEntity
  8
10000_FRONT
370
    50
390
0
  6
CONTINUOUS
 62
     7
100
AcDbLine
 10
118.306508
 20
191.456365
 30
0.0
 11
118.301615
 21
191.541144
 31
0.0
  0
LINE
  5
10FC
100
AcDbEntity
  8
10000_FRONT
370
    50
390
0
  6
CONTINUOUS
 62
     7
100
AcDbLine
 10
101.106508
 20
191.456365
 30
0.0
 11
101.101615
 21
191.541144
 31
0.0
  0
LINE
  5
10FD
100
AcDbEntity
  8
10000_FRONT
370
    50
390
0
  6
CONTINUOUS
 62
     7
100
AcDbLine
 10
108.898386
 20
135.558846
 30
0.0
 11
108.893493
 21
135.643612
 31
0.0
  0
LINE
  5
10FE
100
AcDbEntity
  8
10000_FRONT
370
    50
390
0
  6
CONTINUOUS
 62
     7
100
AcDbLine
 10
100.298386
 20
135.558846
 30
0.0
 11
100.293493
 21
135.643612
 31
0.0
  0
LINE
  5
10FF
100
AcDbEntity
  8
10000_FRONT
370
    50
390
0
  6
CONTINUOUS
 62
     7
100
AcDbLine
 10
91.698386
 20
135.558846
 30
0.0
 11
91.693493
 21
135.643612
 31
0.0
  0
LINE
  5
1100
100
AcDbEntity
  8
10000_FRONT
370
    50
390
0
  6
CONTINUOUS
 62
     7
100
AcDbLine
 10
109.706509
 20
191.456365
 30
0.0
 11
109.701615
 21
191.541144
 31
0.0
  0
LINE
  5
1101
100
AcDbEntity
  8
10000_FRONT
370
    50
390
0
  6
CONTINUOUS
 62
     7
100
AcDbLine
 10
83.906509
 20
191.456365
 30
0.0
 11
83.901615
 21
191.541144
 31
0.0
  0
LINE
  5
1102
100
AcDbEntity
  8
10000_FRONT
370
    50
390
0
  6
CONTINUOUS
 62
     7
100
AcDbLine
 10
92.506509
 20
191.456365
 30
0.0
 11
92.501615
 21
191.541144
 31
0.0
  0
LINE
  5
1103
100
AcDbEntity
  8
10000_FRONT
370
    50
390
0
  6
CONTINUOUS
 62
     7
100
AcDbLine
 10
91.697927
 20
192.970023
 30
0.0
 11
91.691643
 21
193.066145
 31
0.0
  0
LINE
  5
1104
100
AcDbEntity
  8
10000_FRONT
370
    50
390
0
  6
CONTINUOUS
 62
     7
100
AcDbLine
 10
126.097927
 20
192.970023
 30
0.0
 11
126.091642
 21
193.066145
 31
0.0
  0
LINE
  5
1105
100
AcDbEntity
  8
10000_FRONT
370
    50
390
0
  6
CONTINUOUS
 62
     7
100
AcDbLine
 10
117.497928
 20
192.970023
 30
0.0
 11
117.491643
 21
193.066145
 31
0.0
  0
LINE
  5
1106
100
AcDbEntity
  8
10000_FRONT
370
    50
390
0
  6
CONTINUOUS
 62
     7
100
AcDbLine
 10
108.897928
 20
192.970023
 30
0.0
 11
108.891643
 21
193.066145
 31
0.0
  0
LINE
  5
1107
100
AcDbEntity
  8
10000_FRONT
370
    50
390
0
  6
CONTINUOUS
 62
     7
100
AcDbLine
 10
100.297928
 20
192.970023
 30
0.0
 11
100.291643
 21
193.066145
 31
0.0
  0
LINE
  5
1108
100
AcDbEntity
  8
10000_FRONT
370
    50
390
0
  6
CONTINUOUS
 62
     7
100
AcDbLine
 10
118.30836
 20
134.033821
 30
0.0
 11
118.302073
 21
134.129959
 31
0.0
  0
LINE
  5
1109
100
AcDbEntity
  8
10000_FRONT
370
    50
390
0
  6
CONTINUOUS
 62
     7
100
AcDbLine
 10
109.708361
 20
134.033821
 30
0.0
 11
109.702073
 21
134.129959
 31
0.0
  0
LINE
  5
110A
100
AcDbEntity
  8
10000_FRONT
370
    50
390
0
  6
CONTINUOUS
 62
     7
100
AcDbLine
 10
101.108361
 20
134.033821
 30
0.0
 11
101.102073
 21
134.129959
 31
0.0
  0
LINE
  5
110B
100
AcDbEntity
  8
10000_FRONT
370
    50
390
0
  6
CONTINUOUS
 62
     7
100
AcDbLine
 10
92.508361
 20
134.033821
 30
0.0
 11
92.502073
 21
134.129959
 31
0.0
  0
LINE
  5
110C
100
AcDbEntity
  8
10000_FRONT
370
    50
390
0
  6
CONTINUOUS
 62
     7
100
AcDbLine
 10
83.908361
 20
134.033821
 30
0.0
 11
83.902073
 21
134.129959
 31
0.0
  0
LINE
  5
110D
100
AcDbEntity
  8
10000_FRONT
370
    50
390
0
  6
CONTINUOUS
 62
     7
100
AcDbLine
 10
82.519133
 20
192.213002
 30
0.0
 11
82.514595
 21
192.282369
 31
0.0
  0
LINE
  5
110E
100
AcDbEntity
  8
10000_FRONT
370
    50
390
0
  6
CONTINUOUS
 62
     7
100
AcDbLine
 10
127.485405
 20
134.817509
 30
0.0
 11
127.480867
 21
134.886875
 31
0.0
  0
LINE
  5
110F
100
AcDbEntity
  8
10000_FRONT
370
    50
390
0
  6
CONTINUOUS
 62
     7
100
AcDbLine
 10
127.480867
 20
134.886875
 30
0.0
 11
127.475616
 21
134.95715
 31
0.0
  0
LINE
  5
1110
100
AcDbEntity
  8
10000_FRONT
370
    50
390
0
  6
CONTINUOUS
 62
     7
100
AcDbLine
 10
82.524384
 20
192.142729
 30
0.0
 11
82.519133
 21
192.213002
 31
0.0
  0
LINE
  5
1111
100
AcDbEntity
  8
10000_FRONT
370
    50
390
0
  6
CONTINUOUS
 62
     7
100
AcDbLine
 10
127.499271
 20
197.776416
 30
0.0
 11
127.497103
 21
197.802922
 31
0.0
  0
LINE
  5
1112
100
AcDbEntity
  8
10000_FRONT
370
    50
390
0
  6
CONTINUOUS
 62
     7
100
AcDbLine
 10
82.530378
 20
192.071692
 30
0.0
 11
82.524384
 21
192.142729
 31
0.0
  0
LINE
  5
1113
100
AcDbEntity
  8
10000_FRONT
370
    50
390
0
  6
CONTINUOUS
 62
     7
100
AcDbLine
 10
127.475616
 20
134.95715
 30
0.0
 11
127.469622
 21
135.028183
 31
0.0
  0
LINE
  5
1114
100
AcDbEntity
  8
10000_FRONT
370
    50
390
0
  6
CONTINUOUS
 62
     7
100
AcDbLine
 10
127.469622
 20
135.028183
 30
0.0
 11
127.462849
 21
135.099842
 31
0.0
  0
LINE
  5
1115
100
AcDbEntity
  8
10000_FRONT
370
    50
390
0
  6
CONTINUOUS
 62
     7
100
AcDbLine
 10
82.537151
 20
192.000036
 30
0.0
 11
82.530378
 21
192.071692
 31
0.0
  0
LINE
  5
1116
100
AcDbEntity
  8
10000_FRONT
370
    50
390
0
  6
CONTINUOUS
 62
     7
100
AcDbLine
 10
126.093493
 20
135.643612
 30
0.0
 11
126.085249
 21
135.729038
 31
0.0
  0
LINE
  5
1117
100
AcDbEntity
  8
10000_FRONT
370
    50
390
0
  6
CONTINUOUS
 62
     7
100
AcDbLine
 10
117.493493
 20
135.643612
 30
0.0
 11
117.485249
 21
135.729038
 31
0.0
  0
LINE
  5
1118
100
AcDbEntity
  8
10000_FRONT
370
    50
390
0
  6
CONTINUOUS
 62
     7
100
AcDbLine
 10
108.893493
 20
135.643612
 30
0.0
 11
108.885248
 21
135.729038
 31
0.0
  0
LINE
  5
1119
100
AcDbEntity
  8
10000_FRONT
370
    50
390
0
  6
CONTINUOUS
 62
     7
100
AcDbLine
 10
100.293493
 20
135.643612
 30
0.0
 11
100.285248
 21
135.729038
 31
0.0
  0
LINE
  5
111A
100
AcDbEntity
  8
10000_FRONT
370
    50
390
0
  6
CONTINUOUS
 62
     7
100
AcDbLine
 10
91.693493
 20
135.643612
 30
0.0
 11
91.685248
 21
135.729038
 31
0.0
  0
LINE
  5
111B
100
AcDbEntity
  8
10000_FRONT
370
    50
390
0
  6
CONTINUOUS
 62
     7
100
AcDbLine
 10
118.314755
 20
191.370927
 30
0.0
 11
118.306508
 21
191.456365
 31
0.0
  0
LINE
  5
111C
100
AcDbEntity
  8
10000_FRONT
370
    50
390
0
  6
CONTINUOUS
 62
     7
100
AcDbLine
 10
109.714756
 20
191.370927
 30
0.0
 11
109.706509
 21
191.456365
 31
0.0
  0
LINE
  5
111D
100
AcDbEntity
  8
10000_FRONT
370
    50
390
0
  6
CONTINUOUS
 62
     7
100
AcDbLine
 10
92.514756
 20
191.370927
 30
0.0
 11
92.506509
 21
191.456365
 31
0.0
  0
LINE
  5
111E
100
AcDbEntity
  8
10000_FRONT
370
    50
390
0
  6
CONTINUOUS
 62
     7
100
AcDbLine
 10
101.114756
 20
191.370927
 30
0.0
 11
101.106508
 21
191.456365
 31
0.0
  0
LINE
  5
111F
100
AcDbEntity
  8
10000_FRONT
370
    50
390
0
  6
CONTINUOUS
 62
     7
100
AcDbLine
 10
83.914757
 20
191.370927
 30
0.0
 11
83.906509
 21
191.456365
 31
0.0
  0
LINE
  5
1120
100
AcDbEntity
  8
10000_FRONT
370
    50
390
0
  6
CONTINUOUS
 62
     7
100
AcDbLine
 10
82.544735
 20
191.927902
 30
0.0
 11
82.537151
 21
192.000036
 31
0.0
  0
LINE
  5
1121
100
AcDbEntity
  8
10000_FRONT
370
    50
390
0
  6
CONTINUOUS
 62
     7
100
AcDbLine
 10
127.462849
 20
135.099842
 30
0.0
 11
127.455265
 21
135.171974
 31
0.0
  0
LINE
  5
1122
100
AcDbEntity
  8
10000_FRONT
370
    50
390
0
  6
CONTINUOUS
 62
     7
100
AcDbLine
 10
126.091642
 20
193.066145
 30
0.0
 11
126.081041
 21
193.162983
 31
0.0
  0
LINE
  5
1123
100
AcDbEntity
  8
10000_FRONT
370
    50
390
0
  6
CONTINUOUS
 62
     7
100
AcDbLine
 10
117.491643
 20
193.066145
 30
0.0
 11
117.481041
 21
193.162983
 31
0.0
  0
LINE
  5
1124
100
AcDbEntity
  8
10000_FRONT
370
    50
390
0
  6
CONTINUOUS
 62
     7
100
AcDbLine
 10
108.891643
 20
193.066145
 30
0.0
 11
108.881041
 21
193.162983
 31
0.0
  0
LINE
  5
1125
100
AcDbEntity
  8
10000_FRONT
370
    50
390
0
  6
CONTINUOUS
 62
     7
100
AcDbLine
 10
100.291643
 20
193.066145
 30
0.0
 11
100.281041
 21
193.162983
 31
0.0
  0
LINE
  5
1126
100
AcDbEntity
  8
10000_FRONT
370
    50
390
0
  6
CONTINUOUS
 62
     7
100
AcDbLine
 10
91.691643
 20
193.066145
 30
0.0
 11
91.681041
 21
193.162983
 31
0.0
  0
LINE
  5
1127
100
AcDbEntity
  8
10000_FRONT
370
    50
390
0
  6
CONTINUOUS
 62
     7
100
AcDbLine
 10
109.718966
 20
133.936966
 30
0.0
 11
109.708361
 21
134.033821
 31
0.0
  0
LINE
  5
1128
100
AcDbEntity
  8
10000_FRONT
370
    50
390
0
  6
CONTINUOUS
 62
     7
100
AcDbLine
 10
101.118966
 20
133.936966
 30
0.0
 11
101.108361
 21
134.033821
 31
0.0
  0
LINE
  5
1129
100
AcDbEntity
  8
10000_FRONT
370
    50
390
0
  6
CONTINUOUS
 62
     7
100
AcDbLine
 10
83.918966
 20
133.936966
 30
0.0
 11
83.908361
 21
134.033821
 31
0.0
  0
LINE
  5
112A
100
AcDbEntity
  8
10000_FRONT
370
    50
390
0
  6
CONTINUOUS
 62
     7
100
AcDbLine
 10
118.318966
 20
133.936966
 30
0.0
 11
118.30836
 21
134.033821
 31
0.0
  0
LINE
  5
112B
100
AcDbEntity
  8
10000_FRONT
370
    50
390
0
  6
CONTINUOUS
 62
     7
100
AcDbLine
 10
92.518967
 20
133.936966
 30
0.0
 11
92.508361
 21
134.033821
 31
0.0
  0
LINE
  5
112C
100
AcDbEntity
  8
10000_FRONT
370
    50
390
0
  6
CONTINUOUS
 62
     7
100
AcDbLine
 10
127.455265
 20
135.171974
 30
0.0
 11
127.446842
 21
135.244442
 31
0.0
  0
LINE
  5
112D
100
AcDbEntity
  8
10000_FRONT
370
    50
390
0
  6
CONTINUOUS
 62
     7
100
AcDbLine
 10
82.553158
 20
191.855434
 30
0.0
 11
82.544735
 21
191.927902
 31
0.0
  0
LINE
  5
112E
100
AcDbEntity
  8
10000_FRONT
370
    50
390
0
  6
CONTINUOUS
 62
     7
100
AcDbLine
 10
82.506094
 20
129.172867
 30
0.0
 11
82.501553
 21
129.211189
 31
0.0
  0
LINE
  5
112F
100
AcDbEntity
  8
10000_FRONT
370
    50
390
0
  6
CONTINUOUS
 62
     7
100
AcDbLine
 10
127.446842
 20
135.244442
 30
0.0
 11
127.437544
 21
135.317101
 31
0.0
  0
LINE
  5
1130
100
AcDbEntity
  8
10000_FRONT
370
    50
390
0
  6
CONTINUOUS
 62
     7
100
AcDbLine
 10
82.562456
 20
191.782776
 30
0.0
 11
82.553158
 21
191.855434
 31
0.0
  0
LINE
  5
1131
100
AcDbEntity
  8
10000_FRONT
370
    50
390
0
  6
CONTINUOUS
 62
     7
100
AcDbLine
 10
127.497103
 20
197.802922
 30
0.0
 11
127.493523
 21
197.829385
 31
0.0
  0
LINE
  5
1132
100
AcDbEntity
  8
10000_FRONT
370
    50
390
0
  6
CONTINUOUS
 62
     7
100
AcDbLine
 10
117.485249
 20
135.729038
 30
0.0
 11
117.473577
 21
135.814854
 31
0.0
  0
LINE
  5
1133
100
AcDbEntity
  8
10000_FRONT
370
    50
390
0
  6
CONTINUOUS
 62
     7
100
AcDbLine
 10
108.885248
 20
135.729038
 30
0.0
 11
108.873576
 21
135.814854
 31
0.0
  0
LINE
  5
1134
100
AcDbEntity
  8
10000_FRONT
370
    50
390
0
  6
CONTINUOUS
 62
     7
100
AcDbLine
 10
100.285248
 20
135.729038
 30
0.0
 11
100.273576
 21
135.814854
 31
0.0
  0
LINE
  5
1135
100
AcDbEntity
  8
10000_FRONT
370
    50
390
0
  6
CONTINUOUS
 62
     7
100
AcDbLine
 10
91.685248
 20
135.729038
 30
0.0
 11
91.673576
 21
135.814854
 31
0.0
  0
LINE
  5
1136
100
AcDbEntity
  8
10000_FRONT
370
    50
390
0
  6
CONTINUOUS
 62
     7
100
AcDbLine
 10
126.085249
 20
135.729038
 30
0.0
 11
126.073576
 21
135.814854
 31
0.0
  0
LINE
  5
1137
100
AcDbEntity
  8
10000_FRONT
370
    50
390
0
  6
CONTINUOUS
 62
     7
100
AcDbLine
 10
109.726431
 20
191.285099
 30
0.0
 11
109.714756
 21
191.370927
 31
0.0
  0
LINE
  5
1138
100
AcDbEntity
  8
10000_FRONT
370
    50
390
0
  6
CONTINUOUS
 62
     7
100
AcDbLine
 10
101.126431
 20
191.285099
 30
0.0
 11
101.114756
 21
191.370927
 31
0.0
  0
LINE
  5
1139
100
AcDbEntity
  8
10000_FRONT
370
    50
390
0
  6
CONTINUOUS
 62
     7
100
AcDbLine
 10
83.926432
 20
191.285099
 30
0.0
 11
83.914757
 21
191.370927
 31
0.0
  0
LINE
  5
113A
100
AcDbEntity
  8
10000_FRONT
370
    50
390
0
  6
CONTINUOUS
 62
     7
100
AcDbLine
 10
92.526431
 20
191.285099
 30
0.0
 11
92.514756
 21
191.370927
 31
0.0
  0
LINE
  5
113B
100
AcDbEntity
  8
10000_FRONT
370
    50
390
0
  6
CONTINUOUS
 62
     7
100
AcDbLine
 10
118.326431
 20
191.285099
 30
0.0
 11
118.314755
 21
191.370927
 31
0.0
  0
LINE
  5
113C
100
AcDbEntity
  8
10000_FRONT
370
    50
390
0
  6
CONTINUOUS
 62
     7
100
AcDbLine
 10
127.437544
 20
135.317101
 30
0.0
 11
127.42734
 21
135.389809
 31
0.0
  0
LINE
  5
113D
100
AcDbEntity
  8
10000_FRONT
370
    50
390
0
  6
CONTINUOUS
 62
     7
100
AcDbLine
 10
82.57266
 20
191.71007
 30
0.0
 11
82.562456
 21
191.782776
 31
0.0
  0
LINE
  5
113E
100
AcDbEntity
  8
10000_FRONT
370
    50
390
0
  6
CONTINUOUS
 62
     7
100
AcDbLine
 10
82.583801
 20
191.637459
 30
0.0
 11
82.57266
 21
191.71007
 31
0.0
  0
LINE
  5
113F
100
AcDbEntity
  8
10000_FRONT
370
    50
390
0
  6
CONTINUOUS
 62
     7
100
AcDbLine
 10
127.42734
 20
135.389809
 30
0.0
 11
127.416199
 21
135.462418
 31
0.0
  0
LINE
  5
1140
100
AcDbEntity
  8
10000_FRONT
370
    50
390
0
  6
CONTINUOUS
 62
     7
100
AcDbLine
 10
126.081041
 20
193.162983
 30
0.0
 11
126.066019
 21
193.260154
 31
0.0
  0
LINE
  5
1141
100
AcDbEntity
  8
10000_FRONT
370
    50
390
0
  6
CONTINUOUS
 62
     7
100
AcDbLine
 10
117.481041
 20
193.162983
 30
0.0
 11
117.466019
 21
193.260154
 31
0.0
  0
LINE
  5
1142
100
AcDbEntity
  8
10000_FRONT
370
    50
390
0
  6
CONTINUOUS
 62
     7
100
AcDbLine
 10
108.881041
 20
193.162983
 30
0.0
 11
108.866019
 21
193.260154
 31
0.0
  0
LINE
  5
1143
100
AcDbEntity
  8
10000_FRONT
370
    50
390
0
  6
CONTINUOUS
 62
     7
100
AcDbLine
 10
100.281041
 20
193.162983
 30
0.0
 11
100.266019
 21
193.260154
 31
0.0
  0
LINE
  5
1144
100
AcDbEntity
  8
10000_FRONT
370
    50
390
0
  6
CONTINUOUS
 62
     7
100
AcDbLine
 10
91.681041
 20
193.162983
 30
0.0
 11
91.666018
 21
193.260154
 31
0.0
  0
LINE
  5
1145
100
AcDbEntity
  8
10000_FRONT
370
    50
390
0
  6
CONTINUOUS
 62
     7
100
AcDbLine
 10
92.533994
 20
133.839775
 30
0.0
 11
92.518967
 21
133.936966
 31
0.0
  0
LINE
  5
1146
100
AcDbEntity
  8
10000_FRONT
370
    50
390
0
  6
CONTINUOUS
 62
     7
100
AcDbLine
 10
118.333994
 20
133.839775
 30
0.0
 11
118.318966
 21
133.936966
 31
0.0
  0
LINE
  5
1147
100
AcDbEntity
  8
10000_FRONT
370
    50
390
0
  6
CONTINUOUS
 62
     7
100
AcDbLine
 10
109.733994
 20
133.839775
 30
0.0
 11
109.718966
 21
133.936966
 31
0.0
  0
LINE
  5
1148
100
AcDbEntity
  8
10000_FRONT
370
    50
390
0
  6
CONTINUOUS
 62
     7
100
AcDbLine
 10
101.133994
 20
133.839775
 30
0.0
 11
101.118966
 21
133.936966
 31
0.0
  0
LINE
  5
1149
100
AcDbEntity
  8
10000_FRONT
370
    50
390
0
  6
CONTINUOUS
 62
     7
100
AcDbLine
 10
83.933994
 20
133.839775
 30
0.0
 11
83.918966
 21
133.936966
 31
0.0
  0
LINE
  5
114A
100
AcDbEntity
  8
10000_FRONT
370
    50
390
0
  6
CONTINUOUS
 62
     7
100
AcDbLine
 10
82.595911
 20
191.565101
 30
0.0
 11
82.583801
 21
191.637459
 31
0.0
  0
LINE
  5
114B
100
AcDbEntity
  8
10000_FRONT
370
    50
390
0
  6
CONTINUOUS
 62
     7
100
AcDbLine
 10
127.416199
 20
135.462418
 30
0.0
 11
127.404089
 21
135.534775
 31
0.0
  0
LINE
  5
114C
100
AcDbEntity
  8
10000_FRONT
370
    50
390
0
  6
CONTINUOUS
 62
     7
100
AcDbLine
 10
126.073576
 20
135.814854
 30
0.0
 11
126.058403
 21
135.900791
 31
0.0
  0
LINE
  5
114D
100
AcDbEntity
  8
10000_FRONT
370
    50
390
0
  6
CONTINUOUS
 62
     7
100
AcDbLine
 10
117.473577
 20
135.814854
 30
0.0
 11
117.458403
 21
135.900791
 31
0.0
  0
LINE
  5
114E
100
AcDbEntity
  8
10000_FRONT
370
    50
390
0
  6
CONTINUOUS
 62
     7
100
AcDbLine
 10
108.873576
 20
135.814854
 30
0.0
 11
108.858402
 21
135.900791
 31
0.0
  0
LINE
  5
114F
100
AcDbEntity
  8
10000_FRONT
370
    50
390
0
  6
CONTINUOUS
 62
     7
100
AcDbLine
 10
100.273576
 20
135.814854
 30
0.0
 11
100.258402
 21
135.900791
 31
0.0
  0
LINE
  5
1150
100
AcDbEntity
  8
10000_FRONT
370
    50
390
0
  6
CONTINUOUS
 62
     7
100
AcDbLine
 10
91.673576
 20
135.814854
 30
0.0
 11
91.658402
 21
135.900791
 31
0.0
  0
LINE
  5
1151
100
AcDbEntity
  8
10000_FRONT
370
    50
390
0
  6
CONTINUOUS
 62
     7
100
AcDbLine
 10
118.341609
 20
191.199148
 30
0.0
 11
118.326431
 21
191.285099
 31
0.0
  0
LINE
  5
1152
100
AcDbEntity
  8
10000_FRONT
370
    50
390
0
  6
CONTINUOUS
 62
     7
100
AcDbLine
 10
101.141609
 20
191.199148
 30
0.0
 11
101.126431
 21
191.285099
 31
0.0
  0
LINE
  5
1153
100
AcDbEntity
  8
10000_FRONT
370
    50
390
0
  6
CONTINUOUS
 62
     7
100
AcDbLine
 10
83.94161
 20
191.199148
 30
0.0
 11
83.926432
 21
191.285099
 31
0.0
  0
LINE
  5
1154
100
AcDbEntity
  8
10000_FRONT
370
    50
390
0
  6
CONTINUOUS
 62
     7
100
AcDbLine
 10
109.74161
 20
191.199148
 30
0.0
 11
109.726431
 21
191.285099
 31
0.0
  0
LINE
  5
1155
100
AcDbEntity
  8
10000_FRONT
370
    50
390
0
  6
CONTINUOUS
 62
     7
100
AcDbLine
 10
92.54161
 20
191.199148
 30
0.0
 11
92.526431
 21
191.285099
 31
0.0
  0
LINE
  5
1156
100
AcDbEntity
  8
10000_FRONT
370
    50
390
0
  6
CONTINUOUS
 62
     7
100
AcDbLine
 10
127.404089
 20
135.534775
 30
0.0
 11
127.390947
 21
135.606731
 31
0.0
  0
LINE
  5
1157
100
AcDbEntity
  8
10000_FRONT
370
    50
390
0
  6
CONTINUOUS
 62
     7
100
AcDbLine
 10
82.609053
 20
191.493146
 30
0.0
 11
82.595911
 21
191.565101
 31
0.0
  0
LINE
  5
1158
100
AcDbEntity
  8
10000_FRONT
370
    50
390
0
  6
CONTINUOUS
 62
     7
100
AcDbLine
 10
127.493523
 20
197.829385
 30
0.0
 11
127.488558
 21
197.855674
 31
0.0
  0
LINE
  5
1159
100
AcDbEntity
  8
10000_FRONT
370
    50
390
0
  6
CONTINUOUS
 62
     7
100
AcDbLine
 10
82.513456
 20
129.135345
 30
0.0
 11
82.506094
 21
129.172867
 31
0.0
  0
LINE
  5
115A
100
AcDbEntity
  8
10000_FRONT
370
    50
390
0
  6
CONTINUOUS
 62
     7
100
AcDbLine
 10
82.623299
 20
191.421737
 30
0.0
 11
82.609053
 21
191.493146
 31
0.0
  0
LINE
  5
115B
100
AcDbEntity
  8
10000_FRONT
370
    50
390
0
  6
CONTINUOUS
 62
     7
100
AcDbLine
 10
127.390947
 20
135.606731
 30
0.0
 11
127.376701
 21
135.678139
 31
0.0
  0
LINE
  5
115C
100
AcDbEntity
  8
10000_FRONT
370
    50
390
0
  6
CONTINUOUS
 62
     7
100
AcDbLine
 10
91.666018
 20
193.260154
 30
0.0
 11
91.64648
 21
193.357276
 31
0.0
  0
LINE
  5
115D
100
AcDbEntity
  8
10000_FRONT
370
    50
390
0
  6
CONTINUOUS
 62
     7
100
AcDbLine
 10
126.066019
 20
193.260154
 30
0.0
 11
126.04648
 21
193.357276
 31
0.0
  0
LINE
  5
115E
100
AcDbEntity
  8
10000_FRONT
370
    50
390
0
  6
CONTINUOUS
 62
     7
100
AcDbLine
 10
117.466019
 20
193.260154
 30
0.0
 11
117.44648
 21
193.357276
 31
0.0
  0
LINE
  5
115F
100
AcDbEntity
  8
10000_FRONT
370
    50
390
0
  6
CONTINUOUS
 62
     7
100
AcDbLine
 10
108.866019
 20
193.260154
 30
0.0
 11
108.84648
 21
193.357276
 31
0.0
  0
LINE
  5
1160
100
AcDbEntity
  8
10000_FRONT
370
    50
390
0
  6
CONTINUOUS
 62
     7
100
AcDbLine
 10
100.266019
 20
193.260154
 30
0.0
 11
100.24648
 21
193.357276
 31
0.0
  0
LINE
  5
1161
100
AcDbEntity
  8
10000_FRONT
370
    50
390
0
  6
CONTINUOUS
 62
     7
100
AcDbLine
 10
118.35354
 20
133.742638
 30
0.0
 11
118.333994
 21
133.839775
 31
0.0
  0
LINE
  5
1162
100
AcDbEntity
  8
10000_FRONT
370
    50
390
0
  6
CONTINUOUS
 62
     7
100
AcDbLine
 10
109.75354
 20
133.742638
 30
0.0
 11
109.733994
 21
133.839775
 31
0.0
  0
LINE
  5
1163
100
AcDbEntity
  8
10000_FRONT
370
    50
390
0
  6
CONTINUOUS
 62
     7
100
AcDbLine
 10
101.15354
 20
133.742638
 30
0.0
 11
101.133994
 21
133.839775
 31
0.0
  0
LINE
  5
1164
100
AcDbEntity
  8
10000_FRONT
370
    50
390
0
  6
CONTINUOUS
 62
     7
100
AcDbLine
 10
92.55354
 20
133.742638
 30
0.0
 11
92.533994
 21
133.839775
 31
0.0
  0
LINE
  5
1165
100
AcDbEntity
  8
10000_FRONT
370
    50
390
0
  6
CONTINUOUS
 62
     7
100
AcDbLine
 10
83.953541
 20
133.742638
 30
0.0
 11
83.933994
 21
133.839775
 31
0.0
  0
LINE
  5
1166
100
AcDbEntity
  8
10000_FRONT
370
    50
390
0
  6
CONTINUOUS
 62
     7
100
AcDbLine
 10
127.376701
 20
135.678139
 30
0.0
 11
127.361271
 21
135.748863
 31
0.0
  0
LINE
  5
1167
100
AcDbEntity
  8
10000_FRONT
370
    50
390
0
  6
CONTINUOUS
 62
     7
100
AcDbLine
 10
82.638729
 20
191.351013
 30
0.0
 11
82.623299
 21
191.421737
 31
0.0
  0
LINE
  5
1168
100
AcDbEntity
  8
10000_FRONT
370
    50
390
0
  6
CONTINUOUS
 62
     7
100
AcDbLine
 10
126.058403
 20
135.900791
 30
0.0
 11
126.039675
 21
135.986591
 31
0.0
  0
LINE
  5
1169
100
AcDbEntity
  8
10000_FRONT
370
    50
390
0
  6
CONTINUOUS
 62
     7
100
AcDbLine
 10
108.858402
 20
135.900791
 30
0.0
 11
108.839674
 21
135.986591
 31
0.0
  0
LINE
  5
116A
100
AcDbEntity
  8
10000_FRONT
370
    50
390
0
  6
CONTINUOUS
 62
     7
100
AcDbLine
 10
100.258402
 20
135.900791
 30
0.0
 11
100.239674
 21
135.986591
 31
0.0
  0
LINE
  5
116B
100
AcDbEntity
  8
10000_FRONT
370
    50
390
0
  6
CONTINUOUS
 62
     7
100
AcDbLine
 10
91.658402
 20
135.900791
 30
0.0
 11
91.639674
 21
135.986591
 31
0.0
  0
LINE
  5
116C
100
AcDbEntity
  8
10000_FRONT
370
    50
390
0
  6
CONTINUOUS
 62
     7
100
AcDbLine
 10
117.458403
 20
135.900791
 30
0.0
 11
117.439674
 21
135.986591
 31
0.0
  0
LINE
  5
116D
100
AcDbEntity
  8
10000_FRONT
370
    50
390
0
  6
CONTINUOUS
 62
     7
100
AcDbLine
 10
83.960342
 20
191.113336
 30
0.0
 11
83.94161
 21
191.199148
 31
0.0
  0
LINE
  5
116E
100
AcDbEntity
  8
10000_FRONT
370
    50
390
0
  6
CONTINUOUS
 62
     7
100
AcDbLine
 10
109.760343
 20
191.113336
 30
0.0
 11
109.74161
 21
191.199148
 31
0.0
  0
LINE
  5
116F
100
AcDbEntity
  8
10000_FRONT
370
    50
390
0
  6
CONTINUOUS
 62
     7
100
AcDbLine
 10
92.560343
 20
191.113336
 30
0.0
 11
92.54161
 21
191.199148
 31
0.0
  0
LINE
  5
1170
100
AcDbEntity
  8
10000_FRONT
370
    50
390
0
  6
CONTINUOUS
 62
     7
100
AcDbLine
 10
118.360343
 20
191.113336
 30
0.0
 11
118.341609
 21
191.199148
 31
0.0
  0
LINE
  5
1171
100
AcDbEntity
  8
10000_FRONT
370
    50
390
0
  6
CONTINUOUS
 62
     7
100
AcDbLine
 10
101.160343
 20
191.113336
 30
0.0
 11
101.141609
 21
191.199148
 31
0.0
  0
LINE
  5
1172
100
AcDbEntity
  8
10000_FRONT
370
    50
390
0
  6
CONTINUOUS
 62
     7
100
AcDbLine
 10
127.361271
 20
135.748863
 30
0.0
 11
127.34458
 21
135.818764
 31
0.0
  0
LINE
  5
1173
100
AcDbEntity
  8
10000_FRONT
370
    50
390
0
  6
CONTINUOUS
 62
     7
100
AcDbLine
 10
82.65542
 20
191.281115
 30
0.0
 11
82.638729
 21
191.351013
 31
0.0
  0
LINE
  5
1174
100
AcDbEntity
  8
10000_FRONT
370
    50
390
0
  6
CONTINUOUS
 62
     7
100
AcDbLine
 10
127.488558
 20
197.855674
 30
0.0
 11
127.482233
 21
197.881657
 31
0.0
  0
LINE
  5
1175
100
AcDbEntity
  8
10000_FRONT
370
    50
390
0
  6
CONTINUOUS
 62
     7
100
AcDbLine
 10
126.04648
 20
193.357276
 30
0.0
 11
126.022415
 21
193.453985
 31
0.0
  0
LINE
  5
1176
100
AcDbEntity
  8
10000_FRONT
370
    50
390
0
  6
CONTINUOUS
 62
     7
100
AcDbLine
 10
117.44648
 20
193.357276
 30
0.0
 11
117.422415
 21
193.453985
 31
0.0
  0
LINE
  5
1177
100
AcDbEntity
  8
10000_FRONT
370
    50
390
0
  6
CONTINUOUS
 62
     7
100
AcDbLine
 10
91.64648
 20
193.357276
 30
0.0
 11
91.622415
 21
193.453985
 31
0.0
  0
LINE
  5
1178
100
AcDbEntity
  8
10000_FRONT
370
    50
390
0
  6
CONTINUOUS
 62
     7
100
AcDbLine
 10
108.84648
 20
193.357276
 30
0.0
 11
108.822414
 21
193.453985
 31
0.0
  0
LINE
  5
1179
100
AcDbEntity
  8
10000_FRONT
370
    50
390
0
  6
CONTINUOUS
 62
     7
100
AcDbLine
 10
100.24648
 20
193.357276
 30
0.0
 11
100.222414
 21
193.453985
 31
0.0
  0
LINE
  5
117A
100
AcDbEntity
  8
10000_FRONT
370
    50
390
0
  6
CONTINUOUS
 62
     7
100
AcDbLine
 10
101.177614
 20
133.645912
 30
0.0
 11
101.15354
 21
133.742638
 31
0.0
  0
LINE
  5
117B
100
AcDbEntity
  8
10000_FRONT
370
    50
390
0
  6
CONTINUOUS
 62
     7
100
AcDbLine
 10
83.977615
 20
133.645912
 30
0.0
 11
83.953541
 21
133.742638
 31
0.0
  0
LINE
  5
117C
100
AcDbEntity
  8
10000_FRONT
370
    50
390
0
  6
CONTINUOUS
 62
     7
100
AcDbLine
 10
118.377615
 20
133.645912
 30
0.0
 11
118.35354
 21
133.742638
 31
0.0
  0
LINE
  5
117D
100
AcDbEntity
  8
10000_FRONT
370
    50
390
0
  6
CONTINUOUS
 62
     7
100
AcDbLine
 10
109.777615
 20
133.645912
 30
0.0
 11
109.75354
 21
133.742638
 31
0.0
  0
LINE
  5
117E
100
AcDbEntity
  8
10000_FRONT
370
    50
390
0
  6
CONTINUOUS
 62
     7
100
AcDbLine
 10
92.577615
 20
133.645912
 30
0.0
 11
92.55354
 21
133.742638
 31
0.0
  0
LINE
  5
117F
100
AcDbEntity
  8
10000_FRONT
370
    50
390
0
  6
CONTINUOUS
 62
     7
100
AcDbLine
 10
117.439674
 20
135.986591
 30
0.0
 11
117.417414
 21
136.072002
 31
0.0
  0
LINE
  5
1180
100
AcDbEntity
  8
10000_FRONT
370
    50
390
0
  6
CONTINUOUS
 62
     7
100
AcDbLine
 10
91.639674
 20
135.986591
 30
0.0
 11
91.617414
 21
136.072002
 31
0.0
  0
LINE
  5
1181
100
AcDbEntity
  8
10000_FRONT
370
    50
390
0
  6
CONTINUOUS
 62
     7
100
AcDbLine
 10
126.039675
 20
135.986591
 30
0.0
 11
126.017414
 21
136.072002
 31
0.0
  0
LINE
  5
1182
100
AcDbEntity
  8
10000_FRONT
370
    50
390
0
  6
CONTINUOUS
 62
     7
100
AcDbLine
 10
108.839674
 20
135.986591
 30
0.0
 11
108.817413
 21
136.072002
 31
0.0
  0
LINE
  5
1183
100
AcDbEntity
  8
10000_FRONT
370
    50
390
0
  6
CONTINUOUS
 62
     7
100
AcDbLine
 10
100.239674
 20
135.986591
 30
0.0
 11
100.217413
 21
136.072002
 31
0.0
  0
LINE
  5
1184
100
AcDbEntity
  8
10000_FRONT
370
    50
390
0
  6
CONTINUOUS
 62
     7
100
AcDbLine
 10
118.38261
 20
191.027914
 30
0.0
 11
118.360343
 21
191.113336
 31
0.0
  0
LINE
  5
1185
100
AcDbEntity
  8
10000_FRONT
370
    50
390
0
  6
CONTINUOUS
 62
     7
100
AcDbLine
 10
109.78261
 20
191.027914
 30
0.0
 11
109.760343
 21
191.113336
 31
0.0
  0
LINE
  5
1186
100
AcDbEntity
  8
10000_FRONT
370
    50
390
0
  6
CONTINUOUS
 62
     7
100
AcDbLine
 10
101.18261
 20
191.027914
 30
0.0
 11
101.160343
 21
191.113336
 31
0.0
  0
LINE
  5
1187
100
AcDbEntity
  8
10000_FRONT
370
    50
390
0
  6
CONTINUOUS
 62
     7
100
AcDbLine
 10
92.58261
 20
191.027914
 30
0.0
 11
92.560343
 21
191.113336
 31
0.0
  0
LINE
  5
1188
100
AcDbEntity
  8
10000_FRONT
370
    50
390
0
  6
CONTINUOUS
 62
     7
100
AcDbLine
 10
83.982611
 20
191.027914
 30
0.0
 11
83.960342
 21
191.113336
 31
0.0
  0
LINE
  5
1189
100
AcDbEntity
  8
10000_FRONT
370
    50
390
0
  6
CONTINUOUS
 62
     7
100
AcDbLine
 10
82.673405
 20
191.212174
 30
0.0
 11
82.65542
 21
191.281115
 31
0.0
  0
LINE
  5
118A
100
AcDbEntity
  8
10000_FRONT
370
    50
390
0
  6
CONTINUOUS
 62
     7
100
AcDbLine
 10
127.34458
 20
135.818764
 30
0.0
 11
127.326595
 21
135.887703
 31
0.0
  0
LINE
  5
118B
100
AcDbEntity
  8
10000_FRONT
370
    50
390
0
  6
CONTINUOUS
 62
     7
100
AcDbLine
 10
107.850003
 20
156.076206
 30
0.0
 11
107.600003
 21
157.00922
 31
0.0
  0
LINE
  5
118C
100
AcDbEntity
  8
10000_FRONT
370
    50
390
0
  6
CONTINUOUS
 62
     7
100
AcDbLine
 10
82.523468
 20
129.098915
 30
0.0
 11
82.513456
 21
129.135345
 31
0.0
  0
LINE
  5
118D
100
AcDbEntity
  8
10000_FRONT
370
    50
390
0
  6
CONTINUOUS
 62
     7
100
AcDbLine
 10
82.692856
 20
191.144355
 30
0.0
 11
82.673405
 21
191.212174
 31
0.0
  0
LINE
  5
118E
100
AcDbEntity
  8
10000_FRONT
370
    50
390
0
  6
CONTINUOUS
 62
     7
100
AcDbLine
 10
127.326595
 20
135.887703
 30
0.0
 11
127.307144
 21
135.955521
 31
0.0
  0
LINE
  5
118F
100
AcDbEntity
  8
10000_FRONT
370
    50
390
0
  6
CONTINUOUS
 62
     7
100
AcDbLine
 10
108.822414
 20
193.453985
 30
0.0
 11
108.79391
 21
193.549939
 31
0.0
  0
LINE
  5
1190
100
AcDbEntity
  8
10000_FRONT
370
    50
390
0
  6
CONTINUOUS
 62
     7
100
AcDbLine
 10
100.222414
 20
193.453985
 30
0.0
 11
100.19391
 21
193.549939
 31
0.0
  0
LINE
  5
1191
100
AcDbEntity
  8
10000_FRONT
370
    50
390
0
  6
CONTINUOUS
 62
     7
100
AcDbLine
 10
126.022415
 20
193.453985
 30
0.0
 11
125.99391
 21
193.549939
 31
0.0
  0
LINE
  5
1192
100
AcDbEntity
  8
10000_FRONT
370
    50
390
0
  6
CONTINUOUS
 62
     7
100
AcDbLine
 10
117.422415
 20
193.453985
 30
0.0
 11
117.393909
 21
193.549939
 31
0.0
  0
LINE
  5
1193
100
AcDbEntity
  8
10000_FRONT
370
    50
390
0
  6
CONTINUOUS
 62
     7
100
AcDbLine
 10
91.622415
 20
193.453985
 30
0.0
 11
91.593909
 21
193.549939
 31
0.0
  0
LINE
  5
1194
100
AcDbEntity
  8
10000_FRONT
370
    50
390
0
  6
CONTINUOUS
 62
     7
100
AcDbLine
 10
118.40613
 20
133.549942
 30
0.0
 11
118.377615
 21
133.645912
 31
0.0
  0
LINE
  5
1195
100
AcDbEntity
  8
10000_FRONT
370
    50
390
0
  6
CONTINUOUS
 62
     7
100
AcDbLine
 10
109.80613
 20
133.549942
 30
0.0
 11
109.777615
 21
133.645912
 31
0.0
  0
LINE
  5
1196
100
AcDbEntity
  8
10000_FRONT
370
    50
390
0
  6
CONTINUOUS
 62
     7
100
AcDbLine
 10
92.60613
 20
133.549942
 30
0.0
 11
92.577615
 21
133.645912
 31
0.0
  0
LINE
  5
1197
100
AcDbEntity
  8
10000_FRONT
370
    50
390
0
  6
CONTINUOUS
 62
     7
100
AcDbLine
 10
84.00613
 20
133.549942
 30
0.0
 11
83.977615
 21
133.645912
 31
0.0
  0
LINE
  5
1198
100
AcDbEntity
  8
10000_FRONT
370
    50
390
0
  6
CONTINUOUS
 62
     7
100
AcDbLine
 10
101.20613
 20
133.549942
 30
0.0
 11
101.177614
 21
133.645912
 31
0.0
  0
LINE
  5
1199
100
AcDbEntity
  8
10000_FRONT
370
    50
390
0
  6
CONTINUOUS
 62
     7
100
AcDbLine
 10
127.482233
 20
197.881657
 30
0.0
 11
127.474577
 21
197.907201
 31
0.0
  0
LINE
  5
119A
100
AcDbEntity
  8
10000_FRONT
370
    50
390
0
  6
CONTINUOUS
 62
     7
100
AcDbLine
 10
126.017414
 20
136.072002
 30
0.0
 11
125.991659
 21
136.15678
 31
0.0
  0
LINE
  5
119B
100
AcDbEntity
  8
10000_FRONT
370
    50
390
0
  6
CONTINUOUS
 62
     7
100
AcDbLine
 10
117.417414
 20
136.072002
 30
0.0
 11
117.391659
 21
136.15678
 31
0.0
  0
LINE
  5
119C
100
AcDbEntity
  8
10000_FRONT
370
    50
390
0
  6
CONTINUOUS
 62
     7
100
AcDbLine
 10
108.817413
 20
136.072002
 30
0.0
 11
108.791658
 21
136.15678
 31
0.0
  0
LINE
  5
119D
100
AcDbEntity
  8
10000_FRONT
370
    50
390
0
  6
CONTINUOUS
 62
     7
100
AcDbLine
 10
100.217413
 20
136.072002
 30
0.0
 11
100.191658
 21
136.15678
 31
0.0
  0
LINE
  5
119E
100
AcDbEntity
  8
10000_FRONT
370
    50
390
0
  6
CONTINUOUS
 62
     7
100
AcDbLine
 10
91.617414
 20
136.072002
 30
0.0
 11
91.591659
 21
136.15678
 31
0.0
  0
LINE
  5
119F
100
AcDbEntity
  8
10000_FRONT
370
    50
390
0
  6
CONTINUOUS
 62
     7
100
AcDbLine
 10
84.008371
 20
190.943128
 30
0.0
 11
83.982611
 21
191.027914
 31
0.0
  0
LINE
  5
11A0
100
AcDbEntity
  8
10000_FRONT
370
    50
390
0
  6
CONTINUOUS
 62
     7
100
AcDbLine
 10
118.408372
 20
190.943128
 30
0.0
 11
118.38261
 21
191.027914
 31
0.0
  0
LINE
  5
11A1
100
AcDbEntity
  8
10000_FRONT
370
    50
390
0
  6
CONTINUOUS
 62
     7
100
AcDbLine
 10
109.808372
 20
190.943128
 30
0.0
 11
109.78261
 21
191.027914
 31
0.0
  0
LINE
  5
11A2
100
AcDbEntity
  8
10000_FRONT
370
    50
390
0
  6
CONTINUOUS
 62
     7
100
AcDbLine
 10
101.208372
 20
190.943128
 30
0.0
 11
101.18261
 21
191.027914
 31
0.0
  0
LINE
  5
11A3
100
AcDbEntity
  8
10000_FRONT
370
    50
390
0
  6
CONTINUOUS
 62
     7
100
AcDbLine
 10
92.608372
 20
190.943128
 30
0.0
 11
92.58261
 21
191.027914
 31
0.0
  0
LINE
  5
11A4
100
AcDbEntity
  8
10000_FRONT
370
    50
390
0
  6
CONTINUOUS
 62
     7
100
AcDbLine
 10
127.307144
 20
135.955521
 30
0.0
 11
127.285877
 21
136.022015
 31
0.0
  0
LINE
  5
11A5
100
AcDbEntity
  8
10000_FRONT
370
    50
390
0
  6
CONTINUOUS
 62
     7
100
AcDbLine
 10
82.714123
 20
191.077863
 30
0.0
 11
82.692856
 21
191.144355
 31
0.0
  0
LINE
  5
11A6
100
AcDbEntity
  8
10000_FRONT
370
    50
390
0
  6
CONTINUOUS
 62
     7
100
AcDbLine
 10
84.662746
 20
148.029999
 30
0.0
 11
84.564938
 21
148.325836
 31
0.0
  0
LINE
  5
11A7
100
AcDbEntity
  8
10000_FRONT
370
    50
390
0
  6
CONTINUOUS
 62
     7
100
AcDbLine
 10
114.678727
 20
175.582125
 30
0.0
 11
114.539
 21
176.004749
 31
0.0
  0
LINE
  5
11A8
100
AcDbEntity
  8
10000_FRONT
370
    50
390
0
  6
CONTINUOUS
 62
     7
100
AcDbLine
 10
114.86975
 20
175.611439
 30
0.0
 11
114.735
 21
176.011312
 31
0.0
  0
LINE
  5
11A9
100
AcDbEntity
  8
10000_FRONT
370
    50
390
0
  6
CONTINUOUS
 62
     7
100
AcDbLine
 10
84.523403
 20
148.023876
 30
0.0
 11
84.46043
 21
148.207626
 31
0.0
  0
LINE
  5
11AA
100
AcDbEntity
  8
10000_FRONT
370
    50
390
0
  6
CONTINUOUS
 62
     7
100
AcDbLine
 10
125.991659
 20
136.15678
 30
0.0
 11
125.962448
 21
136.240669
 31
0.0
  0
LINE
  5
11AB
100
AcDbEntity
  8
10000_FRONT
370
    50
390
0
  6
CONTINUOUS
 62
     7
100
AcDbLine
 10
108.791658
 20
136.15678
 30
0.0
 11
108.762447
 21
136.240669
 31
0.0
  0
LINE
  5
11AC
100
AcDbEntity
  8
10000_FRONT
370
    50
390
0
  6
CONTINUOUS
 62
     7
100
AcDbLine
 10
100.191658
 20
136.15678
 30
0.0
 11
100.162447
 21
136.240669
 31
0.0
  0
LINE
  5
11AD
100
AcDbEntity
  8
10000_FRONT
370
    50
390
0
  6
CONTINUOUS
 62
     7
100
AcDbLine
 10
91.591659
 20
136.15678
 30
0.0
 11
91.562448
 21
136.240669
 31
0.0
  0
LINE
  5
11AE
100
AcDbEntity
  8
10000_FRONT
370
    50
390
0
  6
CONTINUOUS
 62
     7
100
AcDbLine
 10
117.391659
 20
136.15678
 30
0.0
 11
117.362447
 21
136.240669
 31
0.0
  0
LINE
  5
11AF
100
AcDbEntity
  8
10000_FRONT
370
    50
390
0
  6
CONTINUOUS
 62
     7
100
AcDbLine
 10
109.837591
 20
190.859226
 30
0.0
 11
109.808372
 21
190.943128
 31
0.0
  0
LINE
  5
11B0
100
AcDbEntity
  8
10000_FRONT
370
    50
390
0
  6
CONTINUOUS
 62
     7
100
AcDbLine
 10
101.237591
 20
190.859226
 30
0.0
 11
101.208372
 21
190.943128
 31
0.0
  0
LINE
  5
11B1
100
AcDbEntity
  8
10000_FRONT
370
    50
390
0
  6
CONTINUOUS
 62
     7
100
AcDbLine
 10
92.637591
 20
190.859226
 30
0.0
 11
92.608372
 21
190.943128
 31
0.0
  0
LINE
  5
11B2
100
AcDbEntity
  8
10000_FRONT
370
    50
390
0
  6
CONTINUOUS
 62
     7
100
AcDbLine
 10
118.437592
 20
190.859226
 30
0.0
 11
118.408372
 21
190.943128
 31
0.0
  0
LINE
  5
11B3
100
AcDbEntity
  8
10000_FRONT
370
    50
390
0
  6
CONTINUOUS
 62
     7
100
AcDbLine
 10
84.037592
 20
190.859226
 30
0.0
 11
84.008371
 21
190.943128
 31
0.0
  0
LINE
  5
11B4
100
AcDbEntity
  8
10000_FRONT
370
    50
390
0
  6
CONTINUOUS
 62
     7
100
AcDbLine
 10
82.535963
 20
129.063866
 30
0.0
 11
82.523468
 21
129.098915
 31
0.0
  0
LINE
  5
11B5
100
AcDbEntity
  8
10000_FRONT
370
    50
390
0
  6
CONTINUOUS
 62
     7
100
AcDbLine
 10
127.474577
 20
197.907201
 30
0.0
 11
127.465618
 21
197.932175
 31
0.0
  0
LINE
  5
11B6
100
AcDbEntity
  8
10000_FRONT
370
    50
390
0
  6
CONTINUOUS
 62
     7
100
AcDbLine
 10
82.737551
 20
191.012902
 30
0.0
 11
82.714123
 21
191.077863
 31
0.0
  0
LINE
  5
11B7
100
AcDbEntity
  8
10000_FRONT
370
    50
390
0
  6
CONTINUOUS
 62
     7
100
AcDbLine
 10
127.285877
 20
136.022015
 30
0.0
 11
127.262449
 21
136.086975
 31
0.0
  0
LINE
  5
11B8
100
AcDbEntity
  8
10000_FRONT
370
    50
390
0
  6
CONTINUOUS
 62
     7
100
AcDbLine
 10
117.362447
 20
136.240669
 30
0.0
 11
117.329818
 21
136.323433
 31
0.0
  0
LINE
  5
11B9
100
AcDbEntity
  8
10000_FRONT
370
    50
390
0
  6
CONTINUOUS
 62
     7
100
AcDbLine
 10
108.762447
 20
136.240669
 30
0.0
 11
108.729818
 21
136.323433
 31
0.0
  0
LINE
  5
11BA
100
AcDbEntity
  8
10000_FRONT
370
    50
390
0
  6
CONTINUOUS
 62
     7
100
AcDbLine
 10
100.162447
 20
136.240669
 30
0.0
 11
100.129818
 21
136.323433
 31
0.0
  0
LINE
  5
11BB
100
AcDbEntity
  8
10000_FRONT
370
    50
390
0
  6
CONTINUOUS
 62
     7
100
AcDbLine
 10
91.562448
 20
136.240669
 30
0.0
 11
91.529818
 21
136.323433
 31
0.0
  0
LINE
  5
11BC
100
AcDbEntity
  8
10000_FRONT
370
    50
390
0
  6
CONTINUOUS
 62
     7
100
AcDbLine
 10
125.962448
 20
136.240669
 30
0.0
 11
125.929817
 21
136.323433
 31
0.0
  0
LINE
  5
11BD
100
AcDbEntity
  8
10000_FRONT
370
    50
390
0
  6
CONTINUOUS
 62
     7
100
AcDbLine
 10
118.470229
 20
190.776453
 30
0.0
 11
118.437592
 21
190.859226
 31
0.0
  0
LINE
  5
11BE
100
AcDbEntity
  8
10000_FRONT
370
    50
390
0
  6
CONTINUOUS
 62
     7
100
AcDbLine
 10
84.07023
 20
190.776453
 30
0.0
 11
84.037592
 21
190.859226
 31
0.0
  0
LINE
  5
11BF
100
AcDbEntity
  8
10000_FRONT
370
    50
390
0
  6
CONTINUOUS
 62
     7
100
AcDbLine
 10
109.87023
 20
190.776453
 30
0.0
 11
109.837591
 21
190.859226
 31
0.0
  0
LINE
  5
11C0
100
AcDbEntity
  8
10000_FRONT
370
    50
390
0
  6
CONTINUOUS
 62
     7
100
AcDbLine
 10
101.27023
 20
190.776453
 30
0.0
 11
101.237591
 21
190.859226
 31
0.0
  0
LINE
  5
11C1
100
AcDbEntity
  8
10000_FRONT
370
    50
390
0
  6
CONTINUOUS
 62
     7
100
AcDbLine
 10
92.67023
 20
190.776453
 30
0.0
 11
92.637591
 21
190.859226
 31
0.0
  0
LINE
  5
11C2
100
AcDbEntity
  8
10000_FRONT
370
    50
390
0
  6
CONTINUOUS
 62
     7
100
AcDbLine
 10
127.262449
 20
136.086975
 30
0.0
 11
127.236513
 21
136.1502
 31
0.0
  0
LINE
  5
11C3
100
AcDbEntity
  8
10000_FRONT
370
    50
390
0
  6
CONTINUOUS
 62
     7
100
AcDbLine
 10
82.763487
 20
190.949678
 30
0.0
 11
82.737551
 21
191.012902
 31
0.0
  0
LINE
  5
11C4
100
AcDbEntity
  8
10000_FRONT
370
    50
390
0
  6
CONTINUOUS
 62
     7
100
AcDbLine
 10
90.836318
 20
176.281765
 30
0.0
 11
90.290038
 21
177.579565
 31
0.0
  0
LINE
  5
11C5
100
AcDbEntity
  8
10000_FRONT
370
    50
390
0
  6
CONTINUOUS
 62
     7
100
AcDbLine
 10
127.465618
 20
197.932175
 30
0.0
 11
127.455383
 21
197.95645
 31
0.0
  0
LINE
  5
11C6
100
AcDbEntity
  8
10000_FRONT
370
    50
390
0
  6
CONTINUOUS
 62
     7
100
AcDbLine
 10
90.529228
 20
175.450001
 30
0.0
 11
89.935111
 21
176.852736
 31
0.0
  0
LINE
  5
11C7
100
AcDbEntity
  8
10000_FRONT
370
    50
390
0
  6
CONTINUOUS
 62
     7
100
AcDbLine
 10
125.929817
 20
136.323433
 30
0.0
 11
125.893829
 21
136.404861
 31
0.0
  0
LINE
  5
11C8
100
AcDbEntity
  8
10000_FRONT
370
    50
390
0
  6
CONTINUOUS
 62
     7
100
AcDbLine
 10
108.729818
 20
136.323433
 30
0.0
 11
108.69383
 21
136.404861
 31
0.0
  0
LINE
  5
11C9
100
AcDbEntity
  8
10000_FRONT
370
    50
390
0
  6
CONTINUOUS
 62
     7
100
AcDbLine
 10
117.329818
 20
136.323433
 30
0.0
 11
117.293816
 21
136.404854
 31
0.0
  0
LINE
  5
11CA
100
AcDbEntity
  8
10000_FRONT
370
    50
390
0
  6
CONTINUOUS
 62
     7
100
AcDbLine
 10
100.129818
 20
136.323433
 30
0.0
 11
100.093815
 21
136.404854
 31
0.0
  0
LINE
  5
11CB
100
AcDbEntity
  8
10000_FRONT
370
    50
390
0
  6
CONTINUOUS
 62
     7
100
AcDbLine
 10
91.529818
 20
136.323433
 30
0.0
 11
91.493815
 21
136.404854
 31
0.0
  0
LINE
  5
11CC
100
AcDbEntity
  8
10000_FRONT
370
    50
390
0
  6
CONTINUOUS
 62
     7
100
AcDbLine
 10
84.106241
 20
190.695023
 30
0.0
 11
84.07023
 21
190.776453
 31
0.0
  0
LINE
  5
11CD
100
AcDbEntity
  8
10000_FRONT
370
    50
390
0
  6
CONTINUOUS
 62
     7
100
AcDbLine
 10
109.906242
 20
190.695023
 30
0.0
 11
109.87023
 21
190.776453
 31
0.0
  0
LINE
  5
11CE
100
AcDbEntity
  8
10000_FRONT
370
    50
390
0
  6
CONTINUOUS
 62
     7
100
AcDbLine
 10
101.306242
 20
190.695023
 30
0.0
 11
101.27023
 21
190.776453
 31
0.0
  0
LINE
  5
11CF
100
AcDbEntity
  8
10000_FRONT
370
    50
390
0
  6
CONTINUOUS
 62
     7
100
AcDbLine
 10
92.706242
 20
190.695023
 30
0.0
 11
92.67023
 21
190.776453
 31
0.0
  0
LINE
  5
11D0
100
AcDbEntity
  8
10000_FRONT
370
    50
390
0
  6
CONTINUOUS
 62
     7
100
AcDbLine
 10
118.506242
 20
190.695023
 30
0.0
 11
118.470229
 21
190.776453
 31
0.0
  0
LINE
  5
11D1
100
AcDbEntity
  8
10000_FRONT
370
    50
390
0
  6
CONTINUOUS
 62
     7
100
AcDbLine
 10
82.550764
 20
129.030495
 30
0.0
 11
82.535963
 21
129.063866
 31
0.0
  0
LINE
  5
11D2
100
AcDbEntity
  8
10000_FRONT
370
    50
390
0
  6
CONTINUOUS
 62
     7
100
AcDbLine
 10
82.793198
 20
190.886708
 30
0.0
 11
82.763487
 21
190.949678
 31
0.0
  0
LINE
  5
11D3
100
AcDbEntity
  8
10000_FRONT
370
    50
390
0
  6
CONTINUOUS
 62
     7
100
AcDbLine
 10
127.236513
 20
136.1502
 30
0.0
 11
127.206802
 21
136.213169
 31
0.0
  0
LINE
  5
11D4
100
AcDbEntity
  8
10000_FRONT
370
    50
390
0
  6
CONTINUOUS
 62
     7
100
AcDbLine
 10
108.3765
 20
176.019188
 30
0.0
 11
108.23907
 21
176.304001
 31
0.0
  0
LINE
  5
11D5
100
AcDbEntity
  8
10000_FRONT
370
    50
390
0
  6
CONTINUOUS
 62
     7
100
AcDbLine
 10
119.3765
 20
176.019188
 30
0.0
 11
119.23907
 21
176.304001
 31
0.0
  0
LINE
  5
11D6
100
AcDbEntity
  8
10000_FRONT
370
    50
390
0
  6
CONTINUOUS
 62
     7
100
AcDbLine
 10
86.311701
 20
148.992542
 30
0.0
 11
86.214428
 21
149.193138
 31
0.0
  0
LINE
  5
11D7
100
AcDbEntity
  8
10000_FRONT
370
    50
390
0
  6
CONTINUOUS
 62
     7
100
AcDbLine
 10
112.3765
 20
177.525063
 30
0.0
 11
112.237539
 21
177.811625
 31
0.0
  0
LINE
  5
11D8
100
AcDbEntity
  8
10000_FRONT
370
    50
390
0
  6
CONTINUOUS
 62
     7
100
AcDbLine
 10
127.455383
 20
197.95645
 30
0.0
 11
127.443949
 21
197.979932
 31
0.0
  0
LINE
  5
11D9
100
AcDbEntity
  8
10000_FRONT
370
    50
390
0
  6
CONTINUOUS
 62
     7
100
AcDbLine
 10
83.471624
 20
147.625443
 30
0.0
 11
83.405973
 21
147.759583
 31
0.0
  0
LINE
  5
11DA
100
AcDbEntity
  8
10000_FRONT
370
    50
390
0
  6
CONTINUOUS
 62
     7
100
AcDbLine
 10
89.672717
 20
148.991627
 30
0.0
 11
89.573569
 21
149.192524
 31
0.0
  0
LINE
  5
11DB
100
AcDbEntity
  8
10000_FRONT
370
    50
390
0
  6
CONTINUOUS
 62
     7
100
AcDbLine
 10
89.532034
 20
148.983051
 30
0.0
 11
89.442264
 21
149.164043
 31
0.0
  0
LINE
  5
11DC
100
AcDbEntity
  8
10000_FRONT
370
    50
390
0
  6
CONTINUOUS
 62
     7
100
AcDbLine
 10
83.373816
 20
147.532955
 30
0.0
 11
83.261269
 21
147.759583
 31
0.0
  0
LINE
  5
11DD
100
AcDbEntity
  8
10000_FRONT
370
    50
390
0
  6
CONTINUOUS
 62
     7
100
AcDbLine
 10
106.538234
 20
177.085814
 30
0.0
 11
106.396594
 21
177.370625
 31
0.0
  0
LINE
  5
11DE
100
AcDbEntity
  8
10000_FRONT
370
    50
390
0
  6
CONTINUOUS
 62
     7
100
AcDbLine
 10
117.538234
 20
177.085814
 30
0.0
 11
117.396594
 21
177.370625
 31
0.0
  0
LINE
  5
11DF
100
AcDbEntity
  8
10000_FRONT
370
    50
390
0
  6
CONTINUOUS
 62
     7
100
AcDbLine
 10
106.725813
 20
177.130875
 30
0.0
 11
106.595656
 21
177.389
 31
0.0
  0
LINE
  5
11E0
100
AcDbEntity
  8
10000_FRONT
370
    50
390
0
  6
CONTINUOUS
 62
     7
100
AcDbLine
 10
117.725813
 20
177.130875
 30
0.0
 11
117.595656
 21
177.389
 31
0.0
  0
LINE
  5
11E1
100
AcDbEntity
  8
10000_FRONT
370
    50
390
0
  6
CONTINUOUS
 62
     7
100
AcDbLine
 10
108.1805
 20
175.998625
 30
0.0
 11
108.046516
 21
176.262875
 31
0.0
  0
LINE
  5
11E2
100
AcDbEntity
  8
10000_FRONT
370
    50
390
0
  6
CONTINUOUS
 62
     7
100
AcDbLine
 10
119.1805
 20
175.998625
 30
0.0
 11
119.046516
 21
176.262875
 31
0.0
  0
LINE
  5
11E3
100
AcDbEntity
  8
10000_FRONT
370
    50
390
0
  6
CONTINUOUS
 62
     7
100
AcDbLine
 10
86.1745
 20
148.982437
 30
0.0
 11
86.083391
 21
149.16098
 31
0.0
  0
LINE
  5
11E4
100
AcDbEntity
  8
10000_FRONT
370
    50
390
0
  6
CONTINUOUS
 62
     7
100
AcDbLine
 10
112.1805
 20
177.510626
 30
0.0
 11
112.050344
 21
177.765688
 31
0.0
  0
LINE
  5
11E5
100
AcDbEntity
  8
10000_FRONT
370
    50
390
0
  6
CONTINUOUS
 62
     7
100
AcDbLine
 10
82.567621
 20
128.999008
 30
0.0
 11
82.550764
 21
129.030495
 31
0.0
  0
LINE
  5
11E6
100
AcDbEntity
  8
10000_FRONT
370
    50
390
0
  6
CONTINUOUS
 62
     7
100
AcDbLine
 10
127.443949
 20
197.979932
 30
0.0
 11
127.431427
 21
198.002557
 31
0.0
  0
LINE
  5
11E7
100
AcDbEntity
  8
10000_FRONT
370
    50
390
0
  6
CONTINUOUS
 62
     7
100
AcDbLine
 10
95.781494
 20
175.450001
 30
0.0
 11
95.017629
 21
176.800268
 31
0.0
  0
LINE
  5
11E8
100
AcDbEntity
  8
10000_FRONT
370
    50
390
0
  6
CONTINUOUS
 62
     7
100
AcDbLine
 10
127.206802
 20
136.213169
 30
0.0
 11
127.170437
 21
136.276905
 31
0.0
  0
LINE
  5
11E9
100
AcDbEntity
  8
10000_FRONT
370
    50
390
0
  6
CONTINUOUS
 62
     7
100
AcDbLine
 10
82.829563
 20
190.822973
 30
0.0
 11
82.793198
 21
190.886708
 31
0.0
  0
LINE
  5
11EA
100
AcDbEntity
  8
10000_FRONT
370
    50
390
0
  6
CONTINUOUS
 62
     7
100
AcDbLine
 10
96.040746
 20
176.246271
 30
0.0
 11
95.275337
 21
177.579565
 31
0.0
  0
LINE
  5
11EB
100
AcDbEntity
  8
10000_FRONT
370
    50
390
0
  6
CONTINUOUS
 62
     7
100
AcDbLine
 10
112.401383
 20
175.156
 30
0.0
 11
111.580633
 21
176.528
 31
0.0
  0
LINE
  5
11EC
100
AcDbEntity
  8
10000_FRONT
370
    50
390
0
  6
CONTINUOUS
 62
     7
100
AcDbLine
 10
112.189305
 20
175.156
 30
0.0
 11
111.368555
 21
176.528
 31
0.0
  0
LINE
  5
11ED
100
AcDbEntity
  8
10000_FRONT
370
    50
390
0
  6
CONTINUOUS
 62
     7
100
AcDbLine
 10
86.329119
 20
147.334202
 30
0.0
 11
85.754593
 21
148.294601
 31
0.0
  0
LINE
  5
11EE
100
AcDbEntity
  8
10000_FRONT
370
    50
390
0
  6
CONTINUOUS
 62
     7
100
AcDbLine
 10
86.180664
 20
147.334202
 30
0.0
 11
85.606138
 21
148.294601
 31
0.0
  0
LINE
  5
11EF
100
AcDbEntity
  8
10000_FRONT
370
    50
390
0
  6
CONTINUOUS
 62
     7
100
AcDbLine
 10
127.431427
 20
198.002557
 30
0.0
 11
127.417933
 21
198.024263
 31
0.0
  0
LINE
  5
11F0
100
AcDbEntity
  8
10000_FRONT
370
    50
390
0
  6
CONTINUOUS
 62
     7
100
AcDbLine
 10
82.586197
 20
128.969521
 30
0.0
 11
82.567621
 21
128.999008
 31
0.0
  0
LINE
  5
11F1
100
AcDbEntity
  8
10000_FRONT
370
    50
390
0
  6
CONTINUOUS
 62
     7
100
AcDbLine
 10
84.46043
 20
148.207626
 30
0.0
 11
84.37468
 21
148.33778
 31
0.0
  0
LINE
  5
11F2
100
AcDbEntity
  8
10000_FRONT
370
    50
390
0
  6
CONTINUOUS
 62
     7
100
AcDbLine
 10
127.417933
 20
198.024263
 30
0.0
 11
127.40358
 21
198.044982
 31
0.0
  0
LINE
  5
11F3
100
AcDbEntity
  8
10000_FRONT
370
    50
390
0
  6
CONTINUOUS
 62
     7
100
AcDbLine
 10
82.606152
 20
128.942131
 30
0.0
 11
82.586197
 21
128.969521
 31
0.0
  0
LINE
  5
11F4
100
AcDbEntity
  8
10000_FRONT
370
    50
390
0
  6
CONTINUOUS
 62
     7
100
AcDbLine
 10
127.170437
 20
136.276905
 30
0.0
 11
127.126732
 21
136.334999
 31
0.0
  0
LINE
  5
11F5
100
AcDbEntity
  8
10000_FRONT
370
    50
390
0
  6
CONTINUOUS
 62
     7
100
AcDbLine
 10
82.873268
 20
190.764879
 30
0.0
 11
82.829563
 21
190.822973
 31
0.0
  0
LINE
  5
11F6
100
AcDbEntity
  8
10000_FRONT
370
    50
390
0
  6
CONTINUOUS
 62
     7
100
AcDbLine
 10
127.40358
 20
198.044982
 30
0.0
 11
127.388479
 21
198.064653
 31
0.0
  0
LINE
  5
11F7
100
AcDbEntity
  8
10000_FRONT
370
    50
390
0
  6
CONTINUOUS
 62
     7
100
AcDbLine
 10
82.627144
 20
128.916946
 30
0.0
 11
82.606152
 21
128.942131
 31
0.0
  0
LINE
  5
11F8
100
AcDbEntity
  8
10000_FRONT
370
    50
390
0
  6
CONTINUOUS
 62
     7
100
AcDbLine
 10
127.388479
 20
198.064653
 30
0.0
 11
127.372746
 21
198.083209
 31
0.0
  0
LINE
  5
11F9
100
AcDbEntity
  8
10000_FRONT
370
    50
390
0
  6
CONTINUOUS
 62
     7
100
AcDbLine
 10
127.372746
 20
198.083209
 30
0.0
 11
127.356495
 21
198.100586
 31
0.0
  0
LINE
  5
11FA
100
AcDbEntity
  8
10000_FRONT
370
    50
390
0
  6
CONTINUOUS
 62
     7
100
AcDbLine
 10
82.648836
 20
128.894081
 30
0.0
 11
82.627144
 21
128.916946
 31
0.0
  0
LINE
  5
11FB
100
AcDbEntity
  8
10000_FRONT
370
    50
390
0
  6
CONTINUOUS
 62
     7
100
AcDbLine
 10
114.994547
 20
175.485001
 30
0.0
 11
114.86975
 21
175.611439
 31
0.0
  0
LINE
  5
11FC
100
AcDbEntity
  8
10000_FRONT
370
    50
390
0
  6
CONTINUOUS
 62
     7
100
AcDbLine
 10
108.420523
 20
177.624374
 30
0.0
 11
108.090539
 21
177.956438
 31
0.0
  0
LINE
  5
11FD
100
AcDbEntity
  8
10000_FRONT
370
    50
390
0
  6
CONTINUOUS
 62
     7
100
AcDbLine
 10
119.420523
 20
177.624374
 30
0.0
 11
119.090539
 21
177.956438
 31
0.0
  0
LINE
  5
11FE
100
AcDbEntity
  8
10000_FRONT
370
    50
390
0
  6
CONTINUOUS
 62
     7
100
AcDbLine
 10
108.23907
 20
176.304001
 30
0.0
 11
107.956555
 21
176.5875
 31
0.0
  0
LINE
  5
11FF
100
AcDbEntity
  8
10000_FRONT
370
    50
390
0
  6
CONTINUOUS
 62
     7
100
AcDbLine
 10
119.23907
 20
176.304001
 30
0.0
 11
118.956555
 21
176.5875
 31
0.0
  0
LINE
  5
1200
100
AcDbEntity
  8
10000_FRONT
370
    50
390
0
  6
CONTINUOUS
 62
     7
100
AcDbLine
 10
106.683703
 20
176.940125
 30
0.0
 11
106.538234
 21
177.085814
 31
0.0
  0
LINE
  5
1201
100
AcDbEntity
  8
10000_FRONT
370
    50
390
0
  6
CONTINUOUS
 62
     7
100
AcDbLine
 10
117.683703
 20
176.940125
 30
0.0
 11
117.538234
 21
177.085814
 31
0.0
  0
LINE
  5
1202
100
AcDbEntity
  8
10000_FRONT
370
    50
390
0
  6
CONTINUOUS
 62
     7
100
AcDbLine
 10
108.046516
 20
176.262875
 30
0.0
 11
107.918273
 21
176.391064
 31
0.0
  0
LINE
  5
1203
100
AcDbEntity
  8
10000_FRONT
370
    50
390
0
  6
CONTINUOUS
 62
     7
100
AcDbLine
 10
119.046516
 20
176.262875
 30
0.0
 11
118.918273
 21
176.391064
 31
0.0
  0
LINE
  5
1204
100
AcDbEntity
  8
10000_FRONT
370
    50
390
0
  6
CONTINUOUS
 62
     7
100
AcDbLine
 10
84.564938
 20
148.325836
 30
0.0
 11
84.36396
 21
148.526432
 31
0.0
  0
LINE
  5
1205
100
AcDbEntity
  8
10000_FRONT
370
    50
390
0
  6
CONTINUOUS
 62
     7
100
AcDbLine
 10
106.687531
 20
175.295563
 30
0.0
 11
106.354484
 21
175.627625
 31
0.0
  0
LINE
  5
1206
100
AcDbEntity
  8
10000_FRONT
370
    50
390
0
  6
CONTINUOUS
 62
     7
100
AcDbLine
 10
117.687531
 20
175.295563
 30
0.0
 11
117.354484
 21
175.627625
 31
0.0
  0
LINE
  5
1207
100
AcDbEntity
  8
10000_FRONT
370
    50
390
0
  6
CONTINUOUS
 62
     7
100
AcDbLine
 10
114.966219
 20
175.297314
 30
0.0
 11
114.678727
 21
175.582125
 31
0.0
  0
LINE
  5
1208
100
AcDbEntity
  8
10000_FRONT
370
    50
390
0
  6
CONTINUOUS
 62
     7
100
AcDbLine
 10
108.061828
 20
177.624374
 30
0.0
 11
107.918273
 21
177.766125
 31
0.0
  0
LINE
  5
1209
100
AcDbEntity
  8
10000_FRONT
370
    50
390
0
  6
CONTINUOUS
 62
     7
100
AcDbLine
 10
119.061828
 20
177.624374
 30
0.0
 11
118.918273
 21
177.766125
 31
0.0
  0
LINE
  5
120A
100
AcDbEntity
  8
10000_FRONT
370
    50
390
0
  6
CONTINUOUS
 62
     7
100
AcDbLine
 10
89.573569
 20
149.192524
 30
0.0
 11
89.471741
 21
149.292976
 31
0.0
  0
LINE
  5
120B
100
AcDbEntity
  8
10000_FRONT
370
    50
390
0
  6
CONTINUOUS
 62
     7
100
AcDbLine
 10
106.859797
 20
175.485874
 30
0.0
 11
106.714328
 21
175.627625
 31
0.0
  0
LINE
  5
120C
100
AcDbEntity
  8
10000_FRONT
370
    50
390
0
  6
CONTINUOUS
 62
     7
100
AcDbLine
 10
117.859797
 20
175.485874
 30
0.0
 11
117.714328
 21
175.627625
 31
0.0
  0
LINE
  5
120D
100
AcDbEntity
  8
10000_FRONT
370
    50
390
0
  6
CONTINUOUS
 62
     7
100
AcDbLine
 10
127.356495
 20
198.100586
 30
0.0
 11
127.339626
 21
198.116938
 31
0.0
  0
LINE
  5
120E
100
AcDbEntity
  8
10000_FRONT
370
    50
390
0
  6
CONTINUOUS
 62
     7
100
AcDbLine
 10
83.478325
 20
147.431892
 30
0.0
 11
83.373816
 21
147.532955
 31
0.0
  0
LINE
  5
120F
100
AcDbEntity
  8
10000_FRONT
370
    50
390
0
  6
CONTINUOUS
 62
     7
100
AcDbLine
 10
86.214428
 20
149.193138
 30
0.0
 11
86.110188
 21
149.293282
 31
0.0
  0
LINE
  5
1210
100
AcDbEntity
  8
10000_FRONT
370
    50
390
0
  6
CONTINUOUS
 62
     7
100
AcDbLine
 10
112.237539
 20
177.811625
 30
0.0
 11
112.088625
 21
177.954687
 31
0.0
  0
LINE
  5
1211
100
AcDbEntity
  8
10000_FRONT
370
    50
390
0
  6
CONTINUOUS
 62
     7
100
AcDbLine
 10
82.671072
 20
128.873459
 30
0.0
 11
82.648836
 21
128.894081
 31
0.0
  0
LINE
  5
1212
100
AcDbEntity
  8
10000_FRONT
370
    50
390
0
  6
CONTINUOUS
 62
     7
100
AcDbLine
 10
127.339626
 20
198.116938
 30
0.0
 11
127.321821
 21
198.132616
 31
0.0
  0
LINE
  5
1213
100
AcDbEntity
  8
10000_FRONT
370
    50
390
0
  6
CONTINUOUS
 62
     7
100
AcDbLine
 10
127.126732
 20
136.334999
 30
0.0
 11
127.073959
 21
136.381321
 31
0.0
  0
LINE
  5
1214
100
AcDbEntity
  8
10000_FRONT
370
    50
390
0
  6
CONTINUOUS
 62
     7
100
AcDbLine
 10
82.926041
 20
190.718557
 30
0.0
 11
82.873268
 21
190.764879
 31
0.0
  0
LINE
  5
1215
100
AcDbEntity
  8
10000_FRONT
370
    50
390
0
  6
CONTINUOUS
 62
     7
100
AcDbLine
 10
82.694162
 20
128.854584
 30
0.0
 11
82.671072
 21
128.873459
 31
0.0
  0
LINE
  5
1216
100
AcDbEntity
  8
10000_FRONT
370
    50
390
0
  6
CONTINUOUS
 62
     7
100
AcDbLine
 10
127.321821
 20
198.132616
 30
0.0
 11
127.30312
 21
198.147567
 31
0.0
  0
LINE
  5
1217
100
AcDbEntity
  8
10000_FRONT
370
    50
390
0
  6
CONTINUOUS
 62
     7
100
AcDbLine
 10
127.30312
 20
198.147567
 30
0.0
 11
127.283571
 21
198.161726
 31
0.0
  0
LINE
  5
1218
100
AcDbEntity
  8
10000_FRONT
370
    50
390
0
  6
CONTINUOUS
 62
     7
100
AcDbLine
 10
82.717924
 20
128.83741
 30
0.0
 11
82.694162
 21
128.854584
 31
0.0
  0
LINE
  5
1219
100
AcDbEntity
  8
10000_FRONT
370
    50
390
0
  6
CONTINUOUS
 62
     7
100
AcDbLine
 10
84.37468
 20
148.33778
 30
0.0
 11
84.246054
 21
148.422306
 31
0.0
  0
LINE
  5
121A
100
AcDbEntity
  8
10000_FRONT
370
    50
390
0
  6
CONTINUOUS
 62
     7
100
AcDbLine
 10
127.283571
 20
198.161726
 30
0.0
 11
127.263227
 21
198.175028
 31
0.0
  0
LINE
  5
121B
100
AcDbEntity
  8
10000_FRONT
370
    50
390
0
  6
CONTINUOUS
 62
     7
100
AcDbLine
 10
82.742126
 20
128.821922
 30
0.0
 11
82.717924
 21
128.83741
 31
0.0
  0
LINE
  5
121C
100
AcDbEntity
  8
10000_FRONT
370
    50
390
0
  6
CONTINUOUS
 62
     7
100
AcDbLine
 10
127.263227
 20
198.175028
 30
0.0
 11
127.24214
 21
198.187409
 31
0.0
  0
LINE
  5
121D
100
AcDbEntity
  8
10000_FRONT
370
    50
390
0
  6
CONTINUOUS
 62
     7
100
AcDbLine
 10
82.766541
 20
128.808113
 30
0.0
 11
82.742126
 21
128.821922
 31
0.0
  0
LINE
  5
121E
100
AcDbEntity
  8
10000_FRONT
370
    50
390
0
  6
CONTINUOUS
 62
     7
100
AcDbLine
 10
127.24214
 20
198.187409
 30
0.0
 11
127.220362
 21
198.198805
 31
0.0
  0
LINE
  5
121F
100
AcDbEntity
  8
10000_FRONT
370
    50
390
0
  6
CONTINUOUS
 62
     7
100
AcDbLine
 10
107.122023
 20
175.351999
 30
0.0
 11
106.859797
 21
175.485874
 31
0.0
  0
LINE
  5
1220
100
AcDbEntity
  8
10000_FRONT
370
    50
390
0
  6
CONTINUOUS
 62
     7
100
AcDbLine
 10
118.122023
 20
175.351999
 30
0.0
 11
117.859797
 21
175.485874
 31
0.0
  0
LINE
  5
1221
100
AcDbEntity
  8
10000_FRONT
370
    50
390
0
  6
CONTINUOUS
 62
     7
100
AcDbLine
 10
107.918273
 20
176.391064
 30
0.0
 11
107.646477
 21
176.528875
 31
0.0
  0
LINE
  5
1222
100
AcDbEntity
  8
10000_FRONT
370
    50
390
0
  6
CONTINUOUS
 62
     7
100
AcDbLine
 10
118.918273
 20
176.391064
 30
0.0
 11
118.646477
 21
176.528875
 31
0.0
  0
LINE
  5
1223
100
AcDbEntity
  8
10000_FRONT
370
    50
390
0
  6
CONTINUOUS
 62
     7
100
AcDbLine
 10
107.918273
 20
177.766125
 30
0.0
 11
107.654133
 21
177.9
 31
0.0
  0
LINE
  5
1224
100
AcDbEntity
  8
10000_FRONT
370
    50
390
0
  6
CONTINUOUS
 62
     7
100
AcDbLine
 10
118.918273
 20
177.766125
 30
0.0
 11
118.654133
 21
177.9
 31
0.0
  0
LINE
  5
1225
100
AcDbEntity
  8
10000_FRONT
370
    50
390
0
  6
CONTINUOUS
 62
     7
100
AcDbLine
 10
106.988039
 20
176.998751
 30
0.0
 11
106.725813
 21
177.130875
 31
0.0
  0
LINE
  5
1226
100
AcDbEntity
  8
10000_FRONT
370
    50
390
0
  6
CONTINUOUS
 62
     7
100
AcDbLine
 10
117.988039
 20
176.998751
 30
0.0
 11
117.725813
 21
177.130875
 31
0.0
  0
LINE
  5
1227
100
AcDbEntity
  8
10000_FRONT
370
    50
390
0
  6
CONTINUOUS
 62
     7
100
AcDbLine
 10
89.442264
 20
149.164043
 30
0.0
 11
89.260045
 21
149.255001
 31
0.0
  0
LINE
  5
1228
100
AcDbEntity
  8
10000_FRONT
370
    50
390
0
  6
CONTINUOUS
 62
     7
100
AcDbLine
 10
82.790941
 20
128.795982
 30
0.0
 11
82.766541
 21
128.808113
 31
0.0
  0
LINE
  5
1229
100
AcDbEntity
  8
10000_FRONT
370
    50
390
0
  6
CONTINUOUS
 62
     7
100
AcDbLine
 10
89.471741
 20
149.292976
 30
0.0
 11
89.272103
 21
149.3922
 31
0.0
  0
LINE
  5
122A
100
AcDbEntity
  8
10000_FRONT
370
    50
390
0
  6
CONTINUOUS
 62
     7
100
AcDbLine
 10
83.782469
 20
147.471401
 30
0.0
 11
83.471624
 21
147.625443
 31
0.0
  0
LINE
  5
122B
100
AcDbEntity
  8
10000_FRONT
370
    50
390
0
  6
CONTINUOUS
 62
     7
100
AcDbLine
 10
106.96507
 20
176.802313
 30
0.0
 11
106.683703
 21
176.940125
 31
0.0
  0
LINE
  5
122C
100
AcDbEntity
  8
10000_FRONT
370
    50
390
0
  6
CONTINUOUS
 62
     7
100
AcDbLine
 10
117.96507
 20
176.802313
 30
0.0
 11
117.683703
 21
176.940125
 31
0.0
  0
LINE
  5
122D
100
AcDbEntity
  8
10000_FRONT
370
    50
390
0
  6
CONTINUOUS
 62
     7
100
AcDbLine
 10
107.956555
 20
176.5875
 30
0.0
 11
107.675188
 21
176.723125
 31
0.0
  0
LINE
  5
122E
100
AcDbEntity
  8
10000_FRONT
370
    50
390
0
  6
CONTINUOUS
 62
     7
100
AcDbLine
 10
118.956555
 20
176.5875
 30
0.0
 11
118.675188
 21
176.723125
 31
0.0
  0
LINE
  5
122F
100
AcDbEntity
  8
10000_FRONT
370
    50
390
0
  6
CONTINUOUS
 62
     7
100
AcDbLine
 10
127.220362
 20
198.198805
 30
0.0
 11
127.197939
 21
198.209151
 31
0.0
  0
LINE
  5
1230
100
AcDbEntity
  8
10000_FRONT
370
    50
390
0
  6
CONTINUOUS
 62
     7
100
AcDbLine
 10
85.648113
 20
176.71385
 30
0.0
 11
85.265409
 21
176.886684
 31
0.0
  0
LINE
  5
1231
100
AcDbEntity
  8
10000_FRONT
370
    50
390
0
  6
CONTINUOUS
 62
     7
100
AcDbLine
 10
97.984113
 20
176.71385
 30
0.0
 11
97.601408
 21
176.886684
 31
0.0
  0
LINE
  5
1232
100
AcDbEntity
  8
10000_FRONT
370
    50
390
0
  6
CONTINUOUS
 62
     7
100
AcDbLine
 10
82.815098
 20
128.785515
 30
0.0
 11
82.790941
 21
128.795982
 31
0.0
  0
LINE
  5
1233
100
AcDbEntity
  8
10000_FRONT
370
    50
390
0
  6
CONTINUOUS
 62
     7
100
AcDbLine
 10
127.197939
 20
198.209151
 30
0.0
 11
127.174921
 21
198.218405
 31
0.0
  0
LINE
  5
1234
100
AcDbEntity
  8
10000_FRONT
370
    50
390
0
  6
CONTINUOUS
 62
     7
100
AcDbLine
 10
107.646477
 20
176.528875
 30
0.0
 11
106.96507
 21
176.802313
 31
0.0
  0
LINE
  5
1235
100
AcDbEntity
  8
10000_FRONT
370
    50
390
0
  6
CONTINUOUS
 62
     7
100
AcDbLine
 10
118.646477
 20
176.528875
 30
0.0
 11
117.96507
 21
176.802313
 31
0.0
  0
LINE
  5
1236
100
AcDbEntity
  8
10000_FRONT
370
    50
390
0
  6
CONTINUOUS
 62
     7
100
AcDbLine
 10
107.675188
 20
176.723125
 30
0.0
 11
106.988039
 21
176.998751
 31
0.0
  0
LINE
  5
1237
100
AcDbEntity
  8
10000_FRONT
370
    50
390
0
  6
CONTINUOUS
 62
     7
100
AcDbLine
 10
118.675188
 20
176.723125
 30
0.0
 11
117.988039
 21
176.998751
 31
0.0
  0
LINE
  5
1238
100
AcDbEntity
  8
10000_FRONT
370
    50
390
0
  6
CONTINUOUS
 62
     7
100
AcDbLine
 10
82.838781
 20
128.776703
 30
0.0
 11
82.815098
 21
128.785515
 31
0.0
  0
LINE
  5
1239
100
AcDbEntity
  8
10000_FRONT
370
    50
390
0
  6
CONTINUOUS
 62
     7
100
AcDbLine
 10
127.073959
 20
136.381321
 30
0.0
 11
127.006002
 21
136.404861
 31
0.0
  0
LINE
  5
123A
100
AcDbEntity
  8
10000_FRONT
370
    50
390
0
  6
CONTINUOUS
 62
     7
100
AcDbLine
 10
82.993998
 20
190.695026
 30
0.0
 11
82.926041
 21
190.718557
 31
0.0
  0
LINE
  5
123B
100
AcDbEntity
  8
10000_FRONT
370
    50
390
0
  6
CONTINUOUS
 62
     7
100
AcDbLine
 10
127.174921
 20
198.218405
 30
0.0
 11
127.151335
 21
198.226548
 31
0.0
  0
LINE
  5
123C
100
AcDbEntity
  8
10000_FRONT
370
    50
390
0
  6
CONTINUOUS
 62
     7
100
AcDbLine
 10
86.083391
 20
149.16098
 30
0.0
 11
85.80899
 21
149.255001
 31
0.0
  0
LINE
  5
123D
100
AcDbEntity
  8
10000_FRONT
370
    50
390
0
  6
CONTINUOUS
 62
     7
100
AcDbLine
 10
112.050344
 20
177.765688
 30
0.0
 11
111.658344
 21
177.9
 31
0.0
  0
LINE
  5
123E
100
AcDbEntity
  8
10000_FRONT
370
    50
390
0
  6
CONTINUOUS
 62
     7
100
AcDbLine
 10
84.246054
 20
148.422306
 30
0.0
 11
84.062496
 21
148.485088
 31
0.0
  0
LINE
  5
123F
100
AcDbEntity
  8
10000_FRONT
370
    50
390
0
  6
CONTINUOUS
 62
     7
100
AcDbLine
 10
112.088625
 20
177.954687
 30
0.0
 11
111.667531
 21
178.096001
 31
0.0
  0
LINE
  5
1240
100
AcDbEntity
  8
10000_FRONT
370
    50
390
0
  6
CONTINUOUS
 62
     7
100
AcDbLine
 10
86.110188
 20
149.293282
 30
0.0
 11
85.815422
 21
149.3922
 31
0.0
  0
LINE
  5
1241
100
AcDbEntity
  8
10000_FRONT
370
    50
390
0
  6
CONTINUOUS
 62
     7
100
AcDbLine
 10
84.36396
 20
148.526432
 30
0.0
 11
84.067856
 21
148.625351
 31
0.0
  0
LINE
  5
1242
100
AcDbEntity
  8
10000_FRONT
370
    50
390
0
  6
CONTINUOUS
 62
     7
100
AcDbLine
 10
115.389609
 20
175.156
 30
0.0
 11
114.966219
 21
175.297314
 31
0.0
  0
LINE
  5
1243
100
AcDbEntity
  8
10000_FRONT
370
    50
390
0
  6
CONTINUOUS
 62
     7
100
AcDbLine
 10
115.3965
 20
175.351126
 30
0.0
 11
114.994547
 21
175.485001
 31
0.0
  0
LINE
  5
1244
100
AcDbEntity
  8
10000_FRONT
370
    50
390
0
  6
CONTINUOUS
 62
     7
100
AcDbLine
 10
107.110539
 20
175.156
 30
0.0
 11
106.687531
 21
175.295563
 31
0.0
  0
LINE
  5
1245
100
AcDbEntity
  8
10000_FRONT
370
    50
390
0
  6
CONTINUOUS
 62
     7
100
AcDbLine
 10
118.110539
 20
175.156
 30
0.0
 11
117.687531
 21
175.295563
 31
0.0
  0
LINE
  5
1246
100
AcDbEntity
  8
10000_FRONT
370
    50
390
0
  6
CONTINUOUS
 62
     7
100
AcDbLine
 10
108.090539
 20
177.956438
 30
0.0
 11
107.667531
 21
178.096001
 31
0.0
  0
LINE
  5
1247
100
AcDbEntity
  8
10000_FRONT
370
    50
390
0
  6
CONTINUOUS
 62
     7
100
AcDbLine
 10
119.090539
 20
177.956438
 30
0.0
 11
118.667531
 21
178.096001
 31
0.0
  0
LINE
  5
1248
100
AcDbEntity
  8
10000_FRONT
370
    50
390
0
  6
CONTINUOUS
 62
     7
100
AcDbLine
 10
83.774429
 20
147.334202
 30
0.0
 11
83.478325
 21
147.431892
 31
0.0
  0
LINE
  5
1249
100
AcDbEntity
  8
10000_FRONT
370
    50
390
0
  6
CONTINUOUS
 62
     7
100
AcDbLine
 10
82.862007
 20
128.76944
 30
0.0
 11
82.838781
 21
128.776703
 31
0.0
  0
LINE
  5
124A
100
AcDbEntity
  8
10000_FRONT
370
    50
390
0
  6
CONTINUOUS
 62
     7
100
AcDbLine
 10
127.151335
 20
198.226548
 30
0.0
 11
127.127218
 21
198.233545
 31
0.0
  0
LINE
  5
124B
100
AcDbEntity
  8
10000_FRONT
370
    50
390
0
  6
CONTINUOUS
 62
     7
100
AcDbLine
 10
82.884872
 20
128.763474
 30
0.0
 11
82.862007
 21
128.76944
 31
0.0
  0
LINE
  5
124C
100
AcDbEntity
  8
10000_FRONT
370
    50
390
0
  6
CONTINUOUS
 62
     7
100
AcDbLine
 10
127.127218
 20
198.233545
 30
0.0
 11
127.10261
 21
198.239358
 31
0.0
  0
LINE
  5
124D
100
AcDbEntity
  8
10000_FRONT
370
    50
390
0
  6
CONTINUOUS
 62
     7
100
AcDbLine
 10
82.906952
 20
128.758759
 30
0.0
 11
82.884872
 21
128.763474
 31
0.0
  0
LINE
  5
124E
100
AcDbEntity
  8
10000_FRONT
370
    50
390
0
  6
CONTINUOUS
 62
     7
100
AcDbLine
 10
127.10261
 20
198.239358
 30
0.0
 11
127.077538
 21
198.243951
 31
0.0
  0
LINE
  5
124F
100
AcDbEntity
  8
10000_FRONT
370
    50
390
0
  6
CONTINUOUS
 62
     7
100
AcDbLine
 10
82.927809
 20
128.755241
 30
0.0
 11
82.906952
 21
128.758759
 31
0.0
  0
LINE
  5
1250
100
AcDbEntity
  8
10000_FRONT
370
    50
390
0
  6
CONTINUOUS
 62
     7
100
AcDbLine
 10
127.077538
 20
198.243951
 30
0.0
 11
127.052046
 21
198.247284
 31
0.0
  0
LINE
  5
1251
100
AcDbEntity
  8
10000_FRONT
370
    50
390
0
  6
CONTINUOUS
 62
     7
100
AcDbLine
 10
82.947495
 20
128.752769
 30
0.0
 11
82.927809
 21
128.755241
 31
0.0
  0
LINE
  5
1252
100
AcDbEntity
  8
10000_FRONT
370
    50
390
0
  6
CONTINUOUS
 62
     7
100
AcDbLine
 10
82.965881
 20
128.751167
 30
0.0
 11
82.947495
 21
128.752769
 31
0.0
  0
LINE
  5
1253
100
AcDbEntity
  8
10000_FRONT
370
    50
390
0
  6
CONTINUOUS
 62
     7
100
AcDbLine
 10
127.052046
 20
198.247284
 30
0.0
 11
127.026184
 21
198.249314
 31
0.0
  0
LINE
  5
1254
100
AcDbEntity
  8
10000_FRONT
370
    50
390
0
  6
CONTINUOUS
 62
     7
100
AcDbLine
 10
82.982634
 20
128.750305
 30
0.0
 11
82.965881
 21
128.751167
 31
0.0
  0
LINE
  5
1255
100
AcDbEntity
  8
10000_FRONT
370
    50
390
0
  6
CONTINUOUS
 62
     7
100
AcDbLine
 10
127.026184
 20
198.249314
 30
0.0
 11
127.0
 21
198.25
 31
0.0
  0
LINE
  5
1256
100
AcDbEntity
  8
10000_FRONT
370
    50
390
0
  6
CONTINUOUS
 62
     7
100
AcDbLine
 10
83.0
 20
128.75
 30
0.0
 11
82.982634
 21
128.750305
 31
0.0
  0
LINE
  5
1257
100
AcDbEntity
  8
10000_FRONT
370
    50
390
0
  6
CONTINUOUS
 62
     7
100
AcDbLine
 10
82.5
 20
128.75
 30
0.0
 11
127.0
 21
128.75
 31
0.0
  0
LINE
  5
1258
100
AcDbEntity
  8
10000_FRONT
370
    50
390
0
  6
CONTINUOUS
 62
     7
100
AcDbLine
 10
127.000046
 20
128.75
 30
0.0
 11
127.5
 21
128.75
 31
0.0
  0
LINE
  5
1259
100
AcDbEntity
  8
10000_FRONT
370
    50
390
0
  6
CONTINUOUS
 62
     7
100
AcDbLine
 10
82.5
 20
129.349983
 30
0.0
 11
127.5
 21
129.349983
 31
0.0
  0
LINE
  5
125A
100
AcDbEntity
  8
10000_FRONT
370
    50
390
0
  6
CONTINUOUS
 62
     7
100
AcDbLine
 10
82.5
 20
130.789673
 30
0.0
 11
82.500015
 21
130.789673
 31
0.0
  0
LINE
  5
125B
100
AcDbEntity
  8
10000_FRONT
370
    50
390
0
  6
CONTINUOUS
 62
     7
100
AcDbLine
 10
118.914341
 20
132.699997
 30
0.0
 11
122.085678
 21
132.699997
 31
0.0
  0
LINE
  5
125C
100
AcDbEntity
  8
10000_FRONT
370
    50
390
0
  6
CONTINUOUS
 62
     7
100
AcDbLine
 10
122.314341
 20
132.699997
 30
0.0
 11
125.485678
 21
132.699997
 31
0.0
  0
LINE
  5
125D
100
AcDbEntity
  8
10000_FRONT
370
    50
390
0
  6
CONTINUOUS
 62
     7
100
AcDbLine
 10
84.514341
 20
132.699997
 30
0.0
 11
87.685678
 21
132.699997
 31
0.0
  0
LINE
  5
125E
100
AcDbEntity
  8
10000_FRONT
370
    50
390
0
  6
CONTINUOUS
 62
     7
100
AcDbLine
 10
87.914341
 20
132.699997
 30
0.0
 11
91.085679
 21
132.699997
 31
0.0
  0
LINE
  5
125F
100
AcDbEntity
  8
10000_FRONT
370
    50
390
0
  6
CONTINUOUS
 62
     7
100
AcDbLine
 10
110.314341
 20
132.699997
 30
0.0
 11
113.485679
 21
132.699997
 31
0.0
  0
LINE
  5
1260
100
AcDbEntity
  8
10000_FRONT
370
    50
390
0
  6
CONTINUOUS
 62
     7
100
AcDbLine
 10
113.714341
 20
132.699997
 30
0.0
 11
116.885678
 21
132.699997
 31
0.0
  0
LINE
  5
1261
100
AcDbEntity
  8
10000_FRONT
370
    50
390
0
  6
CONTINUOUS
 62
     7
100
AcDbLine
 10
101.714341
 20
132.699997
 30
0.0
 11
104.885679
 21
132.699997
 31
0.0
  0
LINE
  5
1262
100
AcDbEntity
  8
10000_FRONT
370
    50
390
0
  6
CONTINUOUS
 62
     7
100
AcDbLine
 10
105.114341
 20
132.699997
 30
0.0
 11
108.285679
 21
132.699997
 31
0.0
  0
LINE
  5
1263
100
AcDbEntity
  8
10000_FRONT
370
    50
390
0
  6
CONTINUOUS
 62
     7
100
AcDbLine
 10
93.114341
 20
132.699997
 30
0.0
 11
96.285679
 21
132.699997
 31
0.0
  0
LINE
  5
1264
100
AcDbEntity
  8
10000_FRONT
370
    50
390
0
  6
CONTINUOUS
 62
     7
100
AcDbLine
 10
96.51434
 20
132.699997
 30
0.0
 11
99.685678
 21
132.699997
 31
0.0
  0
LINE
  5
1265
100
AcDbEntity
  8
10000_FRONT
370
    50
390
0
  6
CONTINUOUS
 62
     7
100
AcDbLine
 10
125.99387
 20
133.549942
 30
0.0
 11
127.5
 21
133.549942
 31
0.0
  0
LINE
  5
1266
100
AcDbEntity
  8
10000_FRONT
370
    50
390
0
  6
CONTINUOUS
 62
     7
100
AcDbLine
 10
117.39387
 20
133.549942
 30
0.0
 11
118.40613
 21
133.549942
 31
0.0
  0
LINE
  5
1267
100
AcDbEntity
  8
10000_FRONT
370
    50
390
0
  6
CONTINUOUS
 62
     7
100
AcDbLine
 10
108.79387
 20
133.549942
 30
0.0
 11
109.80613
 21
133.549942
 31
0.0
  0
LINE
  5
1268
100
AcDbEntity
  8
10000_FRONT
370
    50
390
0
  6
CONTINUOUS
 62
     7
100
AcDbLine
 10
100.19387
 20
133.549942
 30
0.0
 11
101.20613
 21
133.549942
 31
0.0
  0
LINE
  5
1269
100
AcDbEntity
  8
10000_FRONT
370
    50
390
0
  6
CONTINUOUS
 62
     7
100
AcDbLine
 10
91.59387
 20
133.549942
 30
0.0
 11
92.60613
 21
133.549942
 31
0.0
  0
LINE
  5
126A
100
AcDbEntity
  8
10000_FRONT
370
    50
390
0
  6
CONTINUOUS
 62
     7
100
AcDbLine
 10
82.5
 20
133.549942
 30
0.0
 11
84.00613
 21
133.549942
 31
0.0
  0
LINE
  5
126B
100
AcDbEntity
  8
10000_FRONT
370
    50
390
0
  6
CONTINUOUS
 62
     7
100
AcDbLine
 10
125.893829
 20
136.404861
 30
0.0
 11
127.006002
 21
136.404861
 31
0.0
  0
LINE
  5
126C
100
AcDbEntity
  8
10000_FRONT
370
    50
390
0
  6
CONTINUOUS
 62
     7
100
AcDbLine
 10
82.993998
 20
136.404861
 30
0.0
 11
84.106171
 21
136.404861
 31
0.0
  0
LINE
  5
126D
100
AcDbEntity
  8
10000_FRONT
370
    50
390
0
  6
CONTINUOUS
 62
     7
100
AcDbLine
 10
91.493831
 20
136.404861
 30
0.0
 11
92.70617
 21
136.404861
 31
0.0
  0
LINE
  5
126E
100
AcDbEntity
  8
10000_FRONT
370
    50
390
0
  6
CONTINUOUS
 62
     7
100
AcDbLine
 10
100.09383
 20
136.404861
 30
0.0
 11
101.30617
 21
136.404861
 31
0.0
  0
LINE
  5
126F
100
AcDbEntity
  8
10000_FRONT
370
    50
390
0
  6
CONTINUOUS
 62
     7
100
AcDbLine
 10
108.69383
 20
136.404861
 30
0.0
 11
109.90617
 21
136.404861
 31
0.0
  0
LINE
  5
1270
100
AcDbEntity
  8
10000_FRONT
370
    50
390
0
  6
CONTINUOUS
 62
     7
100
AcDbLine
 10
117.29383
 20
136.404861
 30
0.0
 11
118.506169
 21
136.404861
 31
0.0
  0
LINE
  5
1271
100
AcDbEntity
  8
10000_FRONT
370
    50
390
0
  6
CONTINUOUS
 62
     7
100
AcDbLine
 10
84.307133
 20
136.75
 30
0.0
 11
91.292874
 21
136.75
 31
0.0
  0
LINE
  5
1272
100
AcDbEntity
  8
10000_FRONT
370
    50
390
0
  6
CONTINUOUS
 62
     7
100
AcDbLine
 10
92.907133
 20
136.75
 30
0.0
 11
99.892874
 21
136.75
 31
0.0
  0
LINE
  5
1273
100
AcDbEntity
  8
10000_FRONT
370
    50
390
0
  6
CONTINUOUS
 62
     7
100
AcDbLine
 10
101.507133
 20
136.75
 30
0.0
 11
108.492874
 21
136.75
 31
0.0
  0
LINE
  5
1274
100
AcDbEntity
  8
10000_FRONT
370
    50
390
0
  6
CONTINUOUS
 62
     7
100
AcDbLine
 10
110.107133
 20
136.75
 30
0.0
 11
117.092874
 21
136.75
 31
0.0
  0
LINE
  5
1275
100
AcDbEntity
  8
10000_FRONT
370
    50
390
0
  6
CONTINUOUS
 62
     7
100
AcDbLine
 10
118.707133
 20
136.75
 30
0.0
 11
125.692875
 21
136.75
 31
0.0
  0
LINE
  5
1276
100
AcDbEntity
  8
10000_FRONT
370
    50
390
0
  6
CONTINUOUS
 62
     7
100
AcDbLine
 10
118.1
 20
137.950001
 30
0.0
 11
126.299999
 21
137.950001
 31
0.0
  0
LINE
  5
1277
100
AcDbEntity
  8
10000_FRONT
370
    50
390
0
  6
CONTINUOUS
 62
     7
100
AcDbLine
 10
109.5
 20
137.950001
 30
0.0
 11
117.7
 21
137.950001
 31
0.0
  0
LINE
  5
1278
100
AcDbEntity
  8
10000_FRONT
370
    50
390
0
  6
CONTINUOUS
 62
     7
100
AcDbLine
 10
100.9
 20
137.950001
 30
0.0
 11
109.1
 21
137.950001
 31
0.0
  0
LINE
  5
1279
100
AcDbEntity
  8
10000_FRONT
370
    50
390
0
  6
CONTINUOUS
 62
     7
100
AcDbLine
 10
92.3
 20
137.950001
 30
0.0
 11
100.5
 21
137.950001
 31
0.0
  0
LINE
  5
127A
100
AcDbEntity
  8
10000_FRONT
370
    50
390
0
  6
CONTINUOUS
 62
     7
100
AcDbLine
 10
83.700001
 20
137.950001
 30
0.0
 11
91.9
 21
137.950001
 31
0.0
  0
LINE
  5
127B
100
AcDbEntity
  8
10000_FRONT
370
    50
390
0
  6
CONTINUOUS
 62
     7
100
AcDbLine
 10
123.049999
 20
138.75
 30
0.0
 11
125.35
 21
138.75
 31
0.0
  0
LINE
  5
127C
100
AcDbEntity
  8
10000_FRONT
370
    50
390
0
  6
CONTINUOUS
 62
     7
100
AcDbLine
 10
114.45
 20
138.75
 30
0.0
 11
116.75
 21
138.75
 31
0.0
  0
LINE
  5
127D
100
AcDbEntity
  8
10000_FRONT
370
    50
390
0
  6
CONTINUOUS
 62
     7
100
AcDbLine
 10
105.85
 20
138.75
 30
0.0
 11
108.15
 21
138.75
 31
0.0
  0
LINE
  5
127E
100
AcDbEntity
  8
10000_FRONT
370
    50
390
0
  6
CONTINUOUS
 62
     7
100
AcDbLine
 10
97.25
 20
138.75
 30
0.0
 11
99.55
 21
138.75
 31
0.0
  0
LINE
  5
127F
100
AcDbEntity
  8
10000_FRONT
370
    50
390
0
  6
CONTINUOUS
 62
     7
100
AcDbLine
 10
88.65
 20
138.75
 30
0.0
 11
90.95
 21
138.75
 31
0.0
  0
LINE
  5
1280
100
AcDbEntity
  8
10000_FRONT
370
    50
390
0
  6
CONTINUOUS
 62
     7
100
AcDbLine
 10
119.15
 20
138.75
 30
0.0
 11
121.450001
 21
138.75
 31
0.0
  0
LINE
  5
1281
100
AcDbEntity
  8
10000_FRONT
370
    50
390
0
  6
CONTINUOUS
 62
     7
100
AcDbLine
 10
110.55
 20
138.75
 30
0.0
 11
112.85
 21
138.75
 31
0.0
  0
LINE
  5
1282
100
AcDbEntity
  8
10000_FRONT
370
    50
390
0
  6
CONTINUOUS
 62
     7
100
AcDbLine
 10
101.95
 20
138.75
 30
0.0
 11
104.25
 21
138.75
 31
0.0
  0
LINE
  5
1283
100
AcDbEntity
  8
10000_FRONT
370
    50
390
0
  6
CONTINUOUS
 62
     7
100
AcDbLine
 10
93.35
 20
138.75
 30
0.0
 11
95.65
 21
138.75
 31
0.0
  0
LINE
  5
1284
100
AcDbEntity
  8
10000_FRONT
370
    50
390
0
  6
CONTINUOUS
 62
     7
100
AcDbLine
 10
84.75
 20
138.75
 30
0.0
 11
87.049999
 21
138.75
 31
0.0
  0
LINE
  5
1285
100
AcDbEntity
  8
10000_FRONT
370
    50
390
0
  6
CONTINUOUS
 62
     7
100
AcDbLine
 10
123.049999
 20
140.75
 30
0.0
 11
125.35
 21
140.75
 31
0.0
  0
LINE
  5
1286
100
AcDbEntity
  8
10000_FRONT
370
    50
390
0
  6
CONTINUOUS
 62
     7
100
AcDbLine
 10
114.45
 20
140.75
 30
0.0
 11
116.75
 21
140.75
 31
0.0
  0
LINE
  5
1287
100
AcDbEntity
  8
10000_FRONT
370
    50
390
0
  6
CONTINUOUS
 62
     7
100
AcDbLine
 10
105.85
 20
140.75
 30
0.0
 11
108.15
 21
140.75
 31
0.0
  0
LINE
  5
1288
100
AcDbEntity
  8
10000_FRONT
370
    50
390
0
  6
CONTINUOUS
 62
     7
100
AcDbLine
 10
97.25
 20
140.75
 30
0.0
 11
99.55
 21
140.75
 31
0.0
  0
LINE
  5
1289
100
AcDbEntity
  8
10000_FRONT
370
    50
390
0
  6
CONTINUOUS
 62
     7
100
AcDbLine
 10
88.65
 20
140.75
 30
0.0
 11
90.95
 21
140.75
 31
0.0
  0
LINE
  5
128A
100
AcDbEntity
  8
10000_FRONT
370
    50
390
0
  6
CONTINUOUS
 62
     7
100
AcDbLine
 10
119.15
 20
140.75
 30
0.0
 11
121.450001
 21
140.75
 31
0.0
  0
LINE
  5
128B
100
AcDbEntity
  8
10000_FRONT
370
    50
390
0
  6
CONTINUOUS
 62
     7
100
AcDbLine
 10
110.55
 20
140.75
 30
0.0
 11
112.85
 21
140.75
 31
0.0
  0
LINE
  5
128C
100
AcDbEntity
  8
10000_FRONT
370
    50
390
0
  6
CONTINUOUS
 62
     7
100
AcDbLine
 10
101.95
 20
140.75
 30
0.0
 11
104.25
 21
140.75
 31
0.0
  0
LINE
  5
128D
100
AcDbEntity
  8
10000_FRONT
370
    50
390
0
  6
CONTINUOUS
 62
     7
100
AcDbLine
 10
93.35
 20
140.75
 30
0.0
 11
95.65
 21
140.75
 31
0.0
  0
LINE
  5
128E
100
AcDbEntity
  8
10000_FRONT
370
    50
390
0
  6
CONTINUOUS
 62
     7
100
AcDbLine
 10
84.75
 20
140.75
 30
0.0
 11
87.049999
 21
140.75
 31
0.0
  0
LINE
  5
128F
100
AcDbEntity
  8
10000_FRONT
370
    50
390
0
  6
CONTINUOUS
 62
     7
100
AcDbLine
 10
118.1
 20
141.549999
 30
0.0
 11
126.299999
 21
141.549999
 31
0.0
  0
LINE
  5
1290
100
AcDbEntity
  8
10000_FRONT
370
    50
390
0
  6
CONTINUOUS
 62
     7
100
AcDbLine
 10
109.5
 20
141.549999
 30
0.0
 11
117.7
 21
141.549999
 31
0.0
  0
LINE
  5
1291
100
AcDbEntity
  8
10000_FRONT
370
    50
390
0
  6
CONTINUOUS
 62
     7
100
AcDbLine
 10
100.9
 20
141.549999
 30
0.0
 11
109.1
 21
141.549999
 31
0.0
  0
LINE
  5
1292
100
AcDbEntity
  8
10000_FRONT
370
    50
390
0
  6
CONTINUOUS
 62
     7
100
AcDbLine
 10
92.3
 20
141.549999
 30
0.0
 11
100.5
 21
141.549999
 31
0.0
  0
LINE
  5
1293
100
AcDbEntity
  8
10000_FRONT
370
    50
390
0
  6
CONTINUOUS
 62
     7
100
AcDbLine
 10
83.700001
 20
141.549999
 30
0.0
 11
91.9
 21
141.549999
 31
0.0
  0
LINE
  5
1294
100
AcDbEntity
  8
10000_FRONT
370
    50
390
0
  6
CONTINUOUS
 62
     7
100
AcDbLine
 10
122.200001
 20
142.400002
 30
0.0
 11
126.200001
 21
142.400002
 31
0.0
  0
LINE
  5
1295
100
AcDbEntity
  8
10000_FRONT
370
    50
390
0
  6
CONTINUOUS
 62
     7
100
AcDbLine
 10
113.6
 20
142.400002
 30
0.0
 11
117.6
 21
142.400002
 31
0.0
  0
LINE
  5
1296
100
AcDbEntity
  8
10000_FRONT
370
    50
390
0
  6
CONTINUOUS
 62
     7
100
AcDbLine
 10
105.0
 20
142.400002
 30
0.0
 11
109.0
 21
142.400002
 31
0.0
  0
LINE
  5
1297
100
AcDbEntity
  8
10000_FRONT
370
    50
390
0
  6
CONTINUOUS
 62
     7
100
AcDbLine
 10
96.4
 20
142.400002
 30
0.0
 11
100.4
 21
142.400002
 31
0.0
  0
LINE
  5
1298
100
AcDbEntity
  8
10000_FRONT
370
    50
390
0
  6
CONTINUOUS
 62
     7
100
AcDbLine
 10
87.799999
 20
142.400002
 30
0.0
 11
91.8
 21
142.400002
 31
0.0
  0
LINE
  5
1299
100
AcDbEntity
  8
10000_FRONT
370
    50
390
0
  6
CONTINUOUS
 62
     7
100
AcDbLine
 10
118.1
 20
142.400002
 30
0.0
 11
122.1
 21
142.400002
 31
0.0
  0
LINE
  5
129A
100
AcDbEntity
  8
10000_FRONT
370
    50
390
0
  6
CONTINUOUS
 62
     7
100
AcDbLine
 10
109.5
 20
142.400002
 30
0.0
 11
113.5
 21
142.400002
 31
0.0
  0
LINE
  5
129B
100
AcDbEntity
  8
10000_FRONT
370
    50
390
0
  6
CONTINUOUS
 62
     7
100
AcDbLine
 10
100.9
 20
142.400002
 30
0.0
 11
104.9
 21
142.400002
 31
0.0
  0
LINE
  5
129C
100
AcDbEntity
  8
10000_FRONT
370
    50
390
0
  6
CONTINUOUS
 62
     7
100
AcDbLine
 10
92.3
 20
142.400002
 30
0.0
 11
96.3
 21
142.400002
 31
0.0
  0
LINE
  5
129D
100
AcDbEntity
  8
10000_FRONT
370
    50
390
0
  6
CONTINUOUS
 62
     7
100
AcDbLine
 10
83.700001
 20
142.400002
 30
0.0
 11
87.700001
 21
142.400002
 31
0.0
  0
LINE
  5
129E
100
AcDbEntity
  8
10000_FRONT
370
    50
390
0
  6
CONTINUOUS
 62
     7
100
AcDbLine
 10
122.200001
 20
146.650002
 30
0.0
 11
126.200001
 21
146.650002
 31
0.0
  0
LINE
  5
129F
100
AcDbEntity
  8
10000_FRONT
370
    50
390
0
  6
CONTINUOUS
 62
     7
100
AcDbLine
 10
113.6
 20
146.650002
 30
0.0
 11
117.6
 21
146.650002
 31
0.0
  0
LINE
  5
12A0
100
AcDbEntity
  8
10000_FRONT
370
    50
390
0
  6
CONTINUOUS
 62
     7
100
AcDbLine
 10
105.0
 20
146.650002
 30
0.0
 11
109.0
 21
146.650002
 31
0.0
  0
LINE
  5
12A1
100
AcDbEntity
  8
10000_FRONT
370
    50
390
0
  6
CONTINUOUS
 62
     7
100
AcDbLine
 10
96.4
 20
146.650002
 30
0.0
 11
100.4
 21
146.650002
 31
0.0
  0
LINE
  5
12A2
100
AcDbEntity
  8
10000_FRONT
370
    50
390
0
  6
CONTINUOUS
 62
     7
100
AcDbLine
 10
87.799999
 20
146.650002
 30
0.0
 11
91.8
 21
146.650002
 31
0.0
  0
LINE
  5
12A3
100
AcDbEntity
  8
10000_FRONT
370
    50
390
0
  6
CONTINUOUS
 62
     7
100
AcDbLine
 10
118.1
 20
146.650002
 30
0.0
 11
122.1
 21
146.650002
 31
0.0
  0
LINE
  5
12A4
100
AcDbEntity
  8
10000_FRONT
370
    50
390
0
  6
CONTINUOUS
 62
     7
100
AcDbLine
 10
109.5
 20
146.650002
 30
0.0
 11
113.5
 21
146.650002
 31
0.0
  0
LINE
  5
12A5
100
AcDbEntity
  8
10000_FRONT
370
    50
390
0
  6
CONTINUOUS
 62
     7
100
AcDbLine
 10
100.9
 20
146.650002
 30
0.0
 11
104.9
 21
146.650002
 31
0.0
  0
LINE
  5
12A6
100
AcDbEntity
  8
10000_FRONT
370
    50
390
0
  6
CONTINUOUS
 62
     7
100
AcDbLine
 10
92.3
 20
146.650002
 30
0.0
 11
96.3
 21
146.650002
 31
0.0
  0
LINE
  5
12A7
100
AcDbEntity
  8
10000_FRONT
370
    50
390
0
  6
CONTINUOUS
 62
     7
100
AcDbLine
 10
83.700001
 20
146.650002
 30
0.0
 11
87.700001
 21
146.650002
 31
0.0
  0
LINE
  5
12A8
100
AcDbEntity
  8
10000_FRONT
370
    50
390
0
  6
CONTINUOUS
 62
     7
100
AcDbLine
 10
88.352972
 20
147.334202
 30
0.0
 11
89.767846
 21
147.334202
 31
0.0
  0
LINE
  5
12A9
100
AcDbEntity
  8
10000_FRONT
370
    50
390
0
  6
CONTINUOUS
 62
     7
100
AcDbLine
 10
86.180664
 20
147.334202
 30
0.0
 11
86.329119
 21
147.334202
 31
0.0
  0
LINE
  5
12AA
100
AcDbEntity
  8
10000_FRONT
370
    50
390
0
  6
CONTINUOUS
 62
     7
100
AcDbLine
 10
85.02545
 20
147.334202
 30
0.0
 11
85.162649
 21
147.334202
 31
0.0
  0
LINE
  5
12AB
100
AcDbEntity
  8
10000_FRONT
370
    50
390
0
  6
CONTINUOUS
 62
     7
100
AcDbLine
 10
83.774429
 20
147.334202
 30
0.0
 11
84.067856
 21
147.334202
 31
0.0
  0
LINE
  5
12AC
100
AcDbEntity
  8
10000_FRONT
370
    50
390
0
  6
CONTINUOUS
 62
     7
100
AcDbLine
 10
87.92555
 20
147.334202
 30
0.0
 11
88.06275
 21
147.334202
 31
0.0
  0
LINE
  5
12AD
100
AcDbEntity
  8
10000_FRONT
370
    50
390
0
  6
CONTINUOUS
 62
     7
100
AcDbLine
 10
86.673599
 20
147.334202
 30
0.0
 11
86.810801
 21
147.334202
 31
0.0
  0
LINE
  5
12AE
100
AcDbEntity
  8
10000_FRONT
370
    50
390
0
  6
CONTINUOUS
 62
     7
100
AcDbLine
 10
90.6965
 20
147.334202
 30
0.0
 11
90.8337
 21
147.334202
 31
0.0
  0
LINE
  5
12AF
100
AcDbEntity
  8
10000_FRONT
370
    50
390
0
  6
CONTINUOUS
 62
     7
100
AcDbLine
 10
88.643717
 20
147.471401
 30
0.0
 11
89.767846
 21
147.471401
 31
0.0
  0
LINE
  5
12B0
100
AcDbEntity
  8
10000_FRONT
370
    50
390
0
  6
CONTINUOUS
 62
     7
100
AcDbLine
 10
83.782469
 20
147.471401
 30
0.0
 11
84.062496
 21
147.471401
 31
0.0
  0
LINE
  5
12B1
100
AcDbEntity
  8
10000_FRONT
370
    50
390
0
  6
CONTINUOUS
 62
     7
100
AcDbLine
 10
82.5
 20
147.5
 30
0.0
 11
82.500038
 21
147.5
 31
0.0
  0
LINE
  5
12B2
100
AcDbEntity
  8
10000_FRONT
370
    50
390
0
  6
CONTINUOUS
 62
     7
100
AcDbLine
 10
83.261269
 20
147.759583
 30
0.0
 11
83.405973
 21
147.759583
 31
0.0
  0
LINE
  5
12B3
100
AcDbEntity
  8
10000_FRONT
370
    50
390
0
  6
CONTINUOUS
 62
     7
100
AcDbLine
 10
85.754593
 20
148.294601
 30
0.0
 11
85.814617
 21
148.294601
 31
0.0
  0
LINE
  5
12B4
100
AcDbEntity
  8
10000_FRONT
370
    50
390
0
  6
CONTINUOUS
 62
     7
100
AcDbLine
 10
85.162649
 20
148.294601
 30
0.0
 11
85.606138
 21
148.294601
 31
0.0
  0
LINE
  5
12B5
100
AcDbEntity
  8
10000_FRONT
370
    50
390
0
  6
CONTINUOUS
 62
     7
100
AcDbLine
 10
86.810801
 20
148.294601
 30
0.0
 11
87.92555
 21
148.294601
 31
0.0
  0
LINE
  5
12B6
100
AcDbEntity
  8
10000_FRONT
370
    50
390
0
  6
CONTINUOUS
 62
     7
100
AcDbLine
 10
85.162649
 20
148.431801
 30
0.0
 11
85.80899
 21
148.431801
 31
0.0
  0
LINE
  5
12B7
100
AcDbEntity
  8
10000_FRONT
370
    50
390
0
  6
CONTINUOUS
 62
     7
100
AcDbLine
 10
86.810801
 20
148.431801
 30
0.0
 11
87.92555
 21
148.431801
 31
0.0
  0
LINE
  5
12B8
100
AcDbEntity
  8
10000_FRONT
370
    50
390
0
  6
CONTINUOUS
 62
     7
100
AcDbLine
 10
83.732895
 20
148.485088
 30
0.0
 11
84.062496
 21
148.485088
 31
0.0
  0
LINE
  5
12B9
100
AcDbEntity
  8
10000_FRONT
370
    50
390
0
  6
CONTINUOUS
 62
     7
100
AcDbLine
 10
83.994164
 20
148.625351
 30
0.0
 11
84.067856
 21
148.625351
 31
0.0
  0
LINE
  5
12BA
100
AcDbEntity
  8
10000_FRONT
370
    50
390
0
  6
CONTINUOUS
 62
     7
100
AcDbLine
 10
88.476236
 20
148.87035
 30
0.0
 11
88.615582
 21
148.87035
 31
0.0
  0
LINE
  5
12BB
100
AcDbEntity
  8
10000_FRONT
370
    50
390
0
  6
CONTINUOUS
 62
     7
100
AcDbLine
 10
88.887569
 20
149.255001
 30
0.0
 11
89.260045
 21
149.255001
 31
0.0
  0
LINE
  5
12BC
100
AcDbEntity
  8
10000_FRONT
370
    50
390
0
  6
CONTINUOUS
 62
     7
100
AcDbLine
 10
85.162649
 20
149.255001
 30
0.0
 11
85.80899
 21
149.255001
 31
0.0
  0
LINE
  5
12BD
100
AcDbEntity
  8
10000_FRONT
370
    50
390
0
  6
CONTINUOUS
 62
     7
100
AcDbLine
 10
83.466267
 20
149.255001
 30
0.0
 11
84.327785
 21
149.255001
 31
0.0
  0
LINE
  5
12BE
100
AcDbEntity
  8
10000_FRONT
370
    50
390
0
  6
CONTINUOUS
 62
     7
100
AcDbLine
 10
88.87685
 20
149.3922
 30
0.0
 11
89.272103
 21
149.3922
 31
0.0
  0
LINE
  5
12BF
100
AcDbEntity
  8
10000_FRONT
370
    50
390
0
  6
CONTINUOUS
 62
     7
100
AcDbLine
 10
85.02545
 20
149.3922
 30
0.0
 11
85.815422
 21
149.3922
 31
0.0
  0
LINE
  5
12C0
100
AcDbEntity
  8
10000_FRONT
370
    50
390
0
  6
CONTINUOUS
 62
     7
100
AcDbLine
 10
83.466267
 20
149.3922
 30
0.0
 11
84.597094
 21
149.3922
 31
0.0
  0
LINE
  5
12C1
100
AcDbEntity
  8
10000_FRONT
370
    50
390
0
  6
CONTINUOUS
 62
     7
100
AcDbLine
 10
86.673599
 20
149.3922
 30
0.0
 11
86.810801
 21
149.3922
 31
0.0
  0
LINE
  5
12C2
100
AcDbEntity
  8
10000_FRONT
370
    50
390
0
  6
CONTINUOUS
 62
     7
100
AcDbLine
 10
87.92555
 20
149.3922
 30
0.0
 11
88.06275
 21
149.3922
 31
0.0
  0
LINE
  5
12C3
100
AcDbEntity
  8
10000_FRONT
370
    50
390
0
  6
CONTINUOUS
 62
     7
100
AcDbLine
 10
90.804759
 20
149.3922
 30
0.0
 11
90.8337
 21
149.3922
 31
0.0
  0
LINE
  5
12C4
100
AcDbEntity
  8
10000_FRONT
370
    50
390
0
  6
CONTINUOUS
 62
     7
100
AcDbLine
 10
120.45
 20
150.950001
 30
0.0
 11
123.950001
 21
150.950001
 31
0.0
  0
LINE
  5
12C5
100
AcDbEntity
  8
10000_FRONT
370
    50
390
0
  6
CONTINUOUS
 62
     7
100
AcDbLine
 10
85.01
 20
151.349998
 30
0.0
 11
106.71
 21
151.349998
 31
0.0
  0
LINE
  5
12C6
100
AcDbEntity
  8
10000_FRONT
370
    50
390
0
  6
CONTINUOUS
 62
     7
100
AcDbLine
 10
85.1
 20
151.599998
 30
0.0
 11
105.1
 21
151.599998
 31
0.0
  0
LINE
  5
12C7
100
AcDbEntity
  8
10000_FRONT
370
    50
390
0
  6
CONTINUOUS
 62
     7
100
AcDbLine
 10
108.350003
 20
152.402538
 30
0.0
 11
108.950003
 21
152.402538
 31
0.0
  0
LINE
  5
12C8
100
AcDbEntity
  8
10000_FRONT
370
    50
390
0
  6
CONTINUOUS
 62
     7
100
AcDbLine
 10
120.45
 20
155.849998
 30
0.0
 11
123.950001
 21
155.849998
 31
0.0
  0
LINE
  5
12C9
100
AcDbEntity
  8
10000_FRONT
370
    50
390
0
  6
CONTINUOUS
 62
     7
100
AcDbLine
 10
120.5
 20
157.549999
 30
0.0
 11
125.299999
 21
157.549999
 31
0.0
  0
LINE
  5
12CA
100
AcDbEntity
  8
10000_FRONT
370
    50
390
0
  6
CONTINUOUS
 62
     7
100
AcDbLine
 10
105.21
 20
157.549999
 30
0.0
 11
106.71
 21
157.549999
 31
0.0
  0
LINE
  5
12CB
100
AcDbEntity
  8
10000_FRONT
370
    50
390
0
  6
CONTINUOUS
 62
     7
100
AcDbLine
 10
85.1
 20
158.599998
 30
0.0
 11
105.1
 21
158.599998
 31
0.0
  0
LINE
  5
12CC
100
AcDbEntity
  8
10000_FRONT
370
    50
390
0
  6
CONTINUOUS
 62
     7
100
AcDbLine
 10
107.600003
 20
158.700001
 30
0.0
 11
107.95
 21
158.700001
 31
0.0
  0
LINE
  5
12CD
100
AcDbEntity
  8
10000_FRONT
370
    50
390
0
  6
CONTINUOUS
 62
     7
100
AcDbLine
 10
85.01
 20
158.849998
 30
0.0
 11
105.21
 21
158.849998
 31
0.0
  0
LINE
  5
12CE
100
AcDbEntity
  8
10000_FRONT
370
    50
390
0
  6
CONTINUOUS
 62
     7
100
AcDbLine
 10
92.195
 20
159.650002
 30
0.0
 11
95.345
 21
159.650002
 31
0.0
  0
LINE
  5
12CF
100
AcDbEntity
  8
10000_FRONT
370
    50
390
0
  6
CONTINUOUS
 62
     7
100
AcDbLine
 10
97.35
 20
159.650002
 30
0.0
 11
104.05
 21
159.650002
 31
0.0
  0
LINE
  5
12D0
100
AcDbEntity
  8
10000_FRONT
370
    50
390
0
  6
CONTINUOUS
 62
     7
100
AcDbLine
 10
106.05
 20
159.650024
 30
0.0
 11
107.500003
 21
159.650024
 31
0.0
  0
LINE
  5
12D1
100
AcDbEntity
  8
10000_FRONT
370
    50
390
0
  6
CONTINUOUS
 62
     7
100
AcDbLine
 10
104.45
 20
160.200001
 30
0.0
 11
104.55
 21
160.200001
 31
0.0
  0
LINE
  5
12D2
100
AcDbEntity
  8
10000_FRONT
370
    50
390
0
  6
CONTINUOUS
 62
     7
100
AcDbLine
 10
93.65
 20
160.200001
 30
0.0
 11
95.845
 21
160.200001
 31
0.0
  0
LINE
  5
12D3
100
AcDbEntity
  8
10000_FRONT
370
    50
390
0
  6
CONTINUOUS
 62
     7
100
AcDbLine
 10
96.85
 20
160.200001
 30
0.0
 11
96.95
 21
160.200001
 31
0.0
  0
LINE
  5
12D4
100
AcDbEntity
  8
10000_FRONT
370
    50
390
0
  6
CONTINUOUS
 62
     7
100
AcDbLine
 10
105.55
 20
160.200001
 30
0.0
 11
107.95
 21
160.200001
 31
0.0
  0
LINE
  5
12D5
100
AcDbEntity
  8
10000_FRONT
370
    50
390
0
  6
CONTINUOUS
 62
     7
100
AcDbLine
 10
120.5
 20
160.25
 30
0.0
 11
125.299999
 21
160.25
 31
0.0
  0
LINE
  5
12D6
100
AcDbEntity
  8
10000_FRONT
370
    50
390
0
  6
CONTINUOUS
 62
     7
100
AcDbLine
 10
98.856874
 20
160.950001
 30
0.0
 11
102.760211
 21
160.950001
 31
0.0
  0
LINE
  5
12D7
100
AcDbEntity
  8
10000_FRONT
370
    50
390
0
  6
CONTINUOUS
 62
     7
100
AcDbLine
 10
104.45
 20
165.900002
 30
0.0
 11
104.55
 21
165.900002
 31
0.0
  0
LINE
  5
12D8
100
AcDbEntity
  8
10000_FRONT
370
    50
390
0
  6
CONTINUOUS
 62
     7
100
AcDbLine
 10
95.25
 20
165.900002
 30
0.0
 11
95.845
 21
165.900002
 31
0.0
  0
LINE
  5
12D9
100
AcDbEntity
  8
10000_FRONT
370
    50
390
0
  6
CONTINUOUS
 62
     7
100
AcDbLine
 10
93.65
 20
165.900002
 30
0.0
 11
95.25
 21
165.900002
 31
0.0
  0
LINE
  5
12DA
100
AcDbEntity
  8
10000_FRONT
370
    50
390
0
  6
CONTINUOUS
 62
     7
100
AcDbLine
 10
96.85
 20
165.900002
 30
0.0
 11
96.95
 21
165.900002
 31
0.0
  0
LINE
  5
12DB
100
AcDbEntity
  8
10000_FRONT
370
    50
390
0
  6
CONTINUOUS
 62
     7
100
AcDbLine
 10
106.15
 20
165.900002
 30
0.0
 11
107.95
 21
165.900002
 31
0.0
  0
LINE
  5
12DC
100
AcDbEntity
  8
10000_FRONT
370
    50
390
0
  6
CONTINUOUS
 62
     7
100
AcDbLine
 10
105.55
 20
165.900002
 30
0.0
 11
106.15
 21
165.900002
 31
0.0
  0
LINE
  5
12DD
100
AcDbEntity
  8
10000_FRONT
370
    50
390
0
  6
CONTINUOUS
 62
     7
100
AcDbLine
 10
98.856874
 20
165.950001
 30
0.0
 11
102.760211
 21
165.950001
 31
0.0
  0
LINE
  5
12DE
100
AcDbEntity
  8
10000_FRONT
370
    50
390
0
  6
CONTINUOUS
 62
     7
100
AcDbLine
 10
120.5
 20
166.950001
 30
0.0
 11
125.299999
 21
166.950001
 31
0.0
  0
LINE
  5
12DF
100
AcDbEntity
  8
10000_FRONT
370
    50
390
0
  6
CONTINUOUS
 62
     7
100
AcDbLine
 10
104.45
 20
168.85
 30
0.0
 11
104.55
 21
168.85
 31
0.0
  0
LINE
  5
12E0
100
AcDbEntity
  8
10000_FRONT
370
    50
390
0
  6
CONTINUOUS
 62
     7
100
AcDbLine
 10
95.25
 20
168.85
 30
0.0
 11
95.845
 21
168.85
 31
0.0
  0
LINE
  5
12E1
100
AcDbEntity
  8
10000_FRONT
370
    50
390
0
  6
CONTINUOUS
 62
     7
100
AcDbLine
 10
96.85
 20
168.85
 30
0.0
 11
96.95
 21
168.85
 31
0.0
  0
LINE
  5
12E2
100
AcDbEntity
  8
10000_FRONT
370
    50
390
0
  6
CONTINUOUS
 62
     7
100
AcDbLine
 10
105.55
 20
168.85
 30
0.0
 11
106.15
 21
168.85
 31
0.0
  0
LINE
  5
12E3
100
AcDbEntity
  8
10000_FRONT
370
    50
390
0
  6
CONTINUOUS
 62
     7
100
AcDbLine
 10
93.05
 20
169.549999
 30
0.0
 11
93.55
 21
169.549999
 31
0.0
  0
LINE
  5
12E4
100
AcDbEntity
  8
10000_FRONT
370
    50
390
0
  6
CONTINUOUS
 62
     7
100
AcDbLine
 10
108.05
 20
169.549999
 30
0.0
 11
108.55
 21
169.549999
 31
0.0
  0
LINE
  5
12E5
100
AcDbEntity
  8
10000_FRONT
370
    50
390
0
  6
CONTINUOUS
 62
     7
100
AcDbLine
 10
120.5
 20
169.65
 30
0.0
 11
125.299999
 21
169.65
 31
0.0
  0
LINE
  5
12E6
100
AcDbEntity
  8
10000_FRONT
370
    50
390
0
  6
CONTINUOUS
 62
     7
100
AcDbLine
 10
93.05
 20
169.75
 30
0.0
 11
93.55
 21
169.75
 31
0.0
  0
LINE
  5
12E7
100
AcDbEntity
  8
10000_FRONT
370
    50
390
0
  6
CONTINUOUS
 62
     7
100
AcDbLine
 10
108.05
 20
169.75
 30
0.0
 11
108.55
 21
169.75
 31
0.0
  0
LINE
  5
12E8
100
AcDbEntity
  8
10000_FRONT
370
    50
390
0
  6
CONTINUOUS
 62
     7
100
AcDbLine
 10
93.85
 20
170.049999
 30
0.0
 11
94.05
 21
170.049999
 31
0.0
  0
LINE
  5
12E9
100
AcDbEntity
  8
10000_FRONT
370
    50
390
0
  6
CONTINUOUS
 62
     7
100
AcDbLine
 10
92.55
 20
170.049999
 30
0.0
 11
92.75
 21
170.049999
 31
0.0
  0
LINE
  5
12EA
100
AcDbEntity
  8
10000_FRONT
370
    50
390
0
  6
CONTINUOUS
 62
     7
100
AcDbLine
 10
108.85
 20
170.049999
 30
0.0
 11
109.05
 21
170.049999
 31
0.0
  0
LINE
  5
12EB
100
AcDbEntity
  8
10000_FRONT
370
    50
390
0
  6
CONTINUOUS
 62
     7
100
AcDbLine
 10
107.55
 20
170.049999
 30
0.0
 11
107.75
 21
170.049999
 31
0.0
  0
LINE
  5
12EC
100
AcDbEntity
  8
10000_FRONT
370
    50
390
0
  6
CONTINUOUS
 62
     7
100
AcDbLine
 10
97.9
 20
171.049999
 30
0.0
 11
98.1
 21
171.049999
 31
0.0
  0
LINE
  5
12ED
100
AcDbEntity
  8
10000_FRONT
370
    50
390
0
  6
CONTINUOUS
 62
     7
100
AcDbLine
 10
103.5
 20
171.049999
 30
0.0
 11
103.7
 21
171.049999
 31
0.0
  0
LINE
  5
12EE
100
AcDbEntity
  8
10000_FRONT
370
    50
390
0
  6
CONTINUOUS
 62
     7
100
AcDbLine
 10
120.45
 20
171.15
 30
0.0
 11
123.950001
 21
171.15
 31
0.0
  0
LINE
  5
12EF
100
AcDbEntity
  8
10000_FRONT
370
    50
390
0
  6
CONTINUOUS
 62
     7
100
AcDbLine
 10
93.85
 20
172.549999
 30
0.0
 11
94.05
 21
172.549999
 31
0.0
  0
LINE
  5
12F0
100
AcDbEntity
  8
10000_FRONT
370
    50
390
0
  6
CONTINUOUS
 62
     7
100
AcDbLine
 10
92.55
 20
172.549999
 30
0.0
 11
92.75
 21
172.549999
 31
0.0
  0
LINE
  5
12F1
100
AcDbEntity
  8
10000_FRONT
370
    50
390
0
  6
CONTINUOUS
 62
     7
100
AcDbLine
 10
108.85
 20
172.549999
 30
0.0
 11
109.05
 21
172.549999
 31
0.0
  0
LINE
  5
12F2
100
AcDbEntity
  8
10000_FRONT
370
    50
390
0
  6
CONTINUOUS
 62
     7
100
AcDbLine
 10
107.55
 20
172.549999
 30
0.0
 11
107.75
 21
172.549999
 31
0.0
  0
LINE
  5
12F3
100
AcDbEntity
  8
10000_FRONT
370
    50
390
0
  6
CONTINUOUS
 62
     7
100
AcDbLine
 10
93.05
 20
172.85
 30
0.0
 11
93.55
 21
172.85
 31
0.0
  0
LINE
  5
12F4
100
AcDbEntity
  8
10000_FRONT
370
    50
390
0
  6
CONTINUOUS
 62
     7
100
AcDbLine
 10
108.05
 20
172.85
 30
0.0
 11
108.55
 21
172.85
 31
0.0
  0
LINE
  5
12F5
100
AcDbEntity
  8
10000_FRONT
370
    50
390
0
  6
CONTINUOUS
 62
     7
100
AcDbLine
 10
97.9
 20
173.049999
 30
0.0
 11
98.1
 21
173.049999
 31
0.0
  0
LINE
  5
12F6
100
AcDbEntity
  8
10000_FRONT
370
    50
390
0
  6
CONTINUOUS
 62
     7
100
AcDbLine
 10
93.05
 20
173.049999
 30
0.0
 11
93.55
 21
173.049999
 31
0.0
  0
LINE
  5
12F7
100
AcDbEntity
  8
10000_FRONT
370
    50
390
0
  6
CONTINUOUS
 62
     7
100
AcDbLine
 10
108.05
 20
173.049999
 30
0.0
 11
108.55
 21
173.049999
 31
0.0
  0
LINE
  5
12F8
100
AcDbEntity
  8
10000_FRONT
370
    50
390
0
  6
CONTINUOUS
 62
     7
100
AcDbLine
 10
103.5
 20
173.049999
 30
0.0
 11
103.7
 21
173.049999
 31
0.0
  0
LINE
  5
12F9
100
AcDbEntity
  8
10000_FRONT
370
    50
390
0
  6
CONTINUOUS
 62
     7
100
AcDbLine
 10
92.195
 20
173.65
 30
0.0
 11
95.345
 21
173.65
 31
0.0
  0
LINE
  5
12FA
100
AcDbEntity
  8
10000_FRONT
370
    50
390
0
  6
CONTINUOUS
 62
     7
100
AcDbLine
 10
97.35
 20
173.65
 30
0.0
 11
100.15
 21
173.65
 31
0.0
  0
LINE
  5
12FB
100
AcDbEntity
  8
10000_FRONT
370
    50
390
0
  6
CONTINUOUS
 62
     7
100
AcDbLine
 10
106.049996
 20
173.650009
 30
0.0
 11
109.199998
 21
173.650009
 31
0.0
  0
LINE
  5
12FC
100
AcDbEntity
  8
10000_FRONT
370
    50
390
0
  6
CONTINUOUS
 62
     7
100
AcDbLine
 10
123.950001
 20
174.25
 30
0.0
 11
124.65
 21
174.25
 31
0.0
  0
LINE
  5
12FD
100
AcDbEntity
  8
10000_FRONT
370
    50
390
0
  6
CONTINUOUS
 62
     7
100
AcDbLine
 10
119.75
 20
174.25
 30
0.0
 11
120.45
 21
174.25
 31
0.0
  0
LINE
  5
12FE
100
AcDbEntity
  8
10000_FRONT
370
    50
390
0
  6
CONTINUOUS
 62
     7
100
AcDbLine
 10
83.6
 20
174.450001
 30
0.0
 11
99.4
 21
174.450001
 31
0.0
  0
LINE
  5
12FF
100
AcDbEntity
  8
10000_FRONT
370
    50
390
0
  6
CONTINUOUS
 62
     7
100
AcDbLine
 10
101.05
 20
174.950001
 30
0.0
 11
103.65
 21
174.950001
 31
0.0
  0
LINE
  5
1300
100
AcDbEntity
  8
10000_FRONT
370
    50
390
0
  6
CONTINUOUS
 62
     7
100
AcDbLine
 10
107.110539
 20
175.156
 30
0.0
 11
107.667531
 21
175.156
 31
0.0
  0
LINE
  5
1301
100
AcDbEntity
  8
10000_FRONT
370
    50
390
0
  6
CONTINUOUS
 62
     7
100
AcDbLine
 10
112.189305
 20
175.156
 30
0.0
 11
112.401383
 21
175.156
 31
0.0
  0
LINE
  5
1302
100
AcDbEntity
  8
10000_FRONT
370
    50
390
0
  6
CONTINUOUS
 62
     7
100
AcDbLine
 10
110.539
 20
175.156
 30
0.0
 11
110.735
 21
175.156
 31
0.0
  0
LINE
  5
1303
100
AcDbEntity
  8
10000_FRONT
370
    50
390
0
  6
CONTINUOUS
 62
     7
100
AcDbLine
 10
115.389609
 20
175.156
 30
0.0
 11
115.672891
 21
175.156
 31
0.0
  0
LINE
  5
1304
100
AcDbEntity
  8
10000_FRONT
370
    50
390
0
  6
CONTINUOUS
 62
     7
100
AcDbLine
 10
118.110539
 20
175.156
 30
0.0
 11
118.667531
 21
175.156
 31
0.0
  0
LINE
  5
1305
100
AcDbEntity
  8
10000_FRONT
370
    50
390
0
  6
CONTINUOUS
 62
     7
100
AcDbLine
 10
113.339
 20
175.156
 30
0.0
 11
113.535
 21
175.156
 31
0.0
  0
LINE
  5
1306
100
AcDbEntity
  8
10000_FRONT
370
    50
390
0
  6
CONTINUOUS
 62
     7
100
AcDbLine
 10
109.339
 20
175.156
 30
0.0
 11
109.535
 21
175.156
 31
0.0
  0
LINE
  5
1307
100
AcDbEntity
  8
10000_FRONT
370
    50
390
0
  6
CONTINUOUS
 62
     7
100
AcDbLine
 10
115.3965
 20
175.351126
 30
0.0
 11
115.664086
 21
175.351126
 31
0.0
  0
LINE
  5
1308
100
AcDbEntity
  8
10000_FRONT
370
    50
390
0
  6
CONTINUOUS
 62
     7
100
AcDbLine
 10
107.122023
 20
175.351999
 30
0.0
 11
107.657961
 21
175.351999
 31
0.0
  0
LINE
  5
1309
100
AcDbEntity
  8
10000_FRONT
370
    50
390
0
  6
CONTINUOUS
 62
     7
100
AcDbLine
 10
118.122023
 20
175.351999
 30
0.0
 11
118.657961
 21
175.351999
 31
0.0
  0
LINE
  5
130A
100
AcDbEntity
  8
10000_FRONT
370
    50
390
0
  6
CONTINUOUS
 62
     7
100
AcDbLine
 10
92.628
 20
175.450001
 30
0.0
 11
94.202025
 21
175.450001
 31
0.0
  0
LINE
  5
130B
100
AcDbEntity
  8
10000_FRONT
370
    50
390
0
  6
CONTINUOUS
 62
     7
100
AcDbLine
 10
87.563999
 20
175.450001
 30
0.0
 11
89.138026
 21
175.450001
 31
0.0
  0
LINE
  5
130C
100
AcDbEntity
  8
10000_FRONT
370
    50
390
0
  6
CONTINUOUS
 62
     7
100
AcDbLine
 10
86.440001
 20
175.450001
 30
0.0
 11
87.061895
 21
175.450001
 31
0.0
  0
LINE
  5
130D
100
AcDbEntity
  8
10000_FRONT
370
    50
390
0
  6
CONTINUOUS
 62
     7
100
AcDbLine
 10
91.532284
 20
175.450001
 30
0.0
 11
92.151093
 21
175.450001
 31
0.0
  0
LINE
  5
130E
100
AcDbEntity
  8
10000_FRONT
370
    50
390
0
  6
CONTINUOUS
 62
     7
100
AcDbLine
 10
90.529228
 20
175.450001
 30
0.0
 11
90.933537
 21
175.450001
 31
0.0
  0
LINE
  5
130F
100
AcDbEntity
  8
10000_FRONT
370
    50
390
0
  6
CONTINUOUS
 62
     7
100
AcDbLine
 10
89.52
 20
175.450001
 30
0.0
 11
89.935111
 21
175.450001
 31
0.0
  0
LINE
  5
1310
100
AcDbEntity
  8
10000_FRONT
370
    50
390
0
  6
CONTINUOUS
 62
     7
100
AcDbLine
 10
95.781494
 20
175.450001
 30
0.0
 11
96.451227
 21
175.450001
 31
0.0
  0
LINE
  5
1311
100
AcDbEntity
  8
10000_FRONT
370
    50
390
0
  6
CONTINUOUS
 62
     7
100
AcDbLine
 10
94.584
 20
175.450001
 30
0.0
 11
95.017629
 21
175.450001
 31
0.0
  0
LINE
  5
1312
100
AcDbEntity
  8
10000_FRONT
370
    50
390
0
  6
CONTINUOUS
 62
     7
100
AcDbLine
 10
106.354484
 20
175.627625
 30
0.0
 11
106.714328
 21
175.627625
 31
0.0
  0
LINE
  5
1313
100
AcDbEntity
  8
10000_FRONT
370
    50
390
0
  6
CONTINUOUS
 62
     7
100
AcDbLine
 10
117.354484
 20
175.627625
 30
0.0
 11
117.714328
 21
175.627625
 31
0.0
  0
LINE
  5
1314
100
AcDbEntity
  8
10000_FRONT
370
    50
390
0
  6
CONTINUOUS
 62
     7
100
AcDbLine
 10
93.249894
 20
175.848135
 30
0.0
 11
94.202025
 21
175.848135
 31
0.0
  0
LINE
  5
1315
100
AcDbEntity
  8
10000_FRONT
370
    50
390
0
  6
CONTINUOUS
 62
     7
100
AcDbLine
 10
88.185894
 20
175.848135
 30
0.0
 11
89.138026
 21
175.848135
 31
0.0
  0
LINE
  5
1316
100
AcDbEntity
  8
10000_FRONT
370
    50
390
0
  6
CONTINUOUS
 62
     7
100
AcDbLine
 10
119.75
 20
176.049999
 30
0.0
 11
124.65
 21
176.049999
 31
0.0
  0
LINE
  5
1317
100
AcDbEntity
  8
10000_FRONT
370
    50
390
0
  6
CONTINUOUS
 62
     7
100
AcDbLine
 10
93.249894
 20
176.349665
 30
0.0
 11
94.081659
 21
176.349665
 31
0.0
  0
LINE
  5
1318
100
AcDbEntity
  8
10000_FRONT
370
    50
390
0
  6
CONTINUOUS
 62
     7
100
AcDbLine
 10
88.185894
 20
176.349665
 30
0.0
 11
89.017659
 21
176.349665
 31
0.0
  0
LINE
  5
1319
100
AcDbEntity
  8
10000_FRONT
370
    50
390
0
  6
CONTINUOUS
 62
     7
100
AcDbLine
 10
111.580633
 20
176.528
 30
0.0
 11
111.666383
 21
176.528
 31
0.0
  0
LINE
  5
131A
100
AcDbEntity
  8
10000_FRONT
370
    50
390
0
  6
CONTINUOUS
 62
     7
100
AcDbLine
 10
110.735
 20
176.528
 30
0.0
 11
111.368555
 21
176.528
 31
0.0
  0
LINE
  5
131B
100
AcDbEntity
  8
10000_FRONT
370
    50
390
0
  6
CONTINUOUS
 62
     7
100
AcDbLine
 10
93.249894
 20
176.71385
 30
0.0
 11
94.081659
 21
176.71385
 31
0.0
  0
LINE
  5
131C
100
AcDbEntity
  8
10000_FRONT
370
    50
390
0
  6
CONTINUOUS
 62
     7
100
AcDbLine
 10
88.185894
 20
176.71385
 30
0.0
 11
89.017659
 21
176.71385
 31
0.0
  0
LINE
  5
131D
100
AcDbEntity
  8
10000_FRONT
370
    50
390
0
  6
CONTINUOUS
 62
     7
100
AcDbLine
 10
110.735
 20
176.724001
 30
0.0
 11
111.658344
 21
176.724001
 31
0.0
  0
LINE
  5
131E
100
AcDbEntity
  8
10000_FRONT
370
    50
390
0
  6
CONTINUOUS
 62
     7
100
AcDbLine
 10
93.249894
 20
177.198402
 30
0.0
 11
94.202025
 21
177.198402
 31
0.0
  0
LINE
  5
131F
100
AcDbEntity
  8
10000_FRONT
370
    50
390
0
  6
CONTINUOUS
 62
     7
100
AcDbLine
 10
88.185894
 20
177.198402
 30
0.0
 11
89.138026
 21
177.198402
 31
0.0
  0
LINE
  5
1320
100
AcDbEntity
  8
10000_FRONT
370
    50
390
0
  6
CONTINUOUS
 62
     7
100
AcDbLine
 10
92.628
 20
177.579565
 30
0.0
 11
94.202025
 21
177.579565
 31
0.0
  0
LINE
  5
1321
100
AcDbEntity
  8
10000_FRONT
370
    50
390
0
  6
CONTINUOUS
 62
     7
100
AcDbLine
 10
87.563999
 20
177.579565
 30
0.0
 11
89.138026
 21
177.579565
 31
0.0
  0
LINE
  5
1322
100
AcDbEntity
  8
10000_FRONT
370
    50
390
0
  6
CONTINUOUS
 62
     7
100
AcDbLine
 10
86.440001
 20
177.579565
 30
0.0
 11
87.061895
 21
177.579565
 31
0.0
  0
LINE
  5
1323
100
AcDbEntity
  8
10000_FRONT
370
    50
390
0
  6
CONTINUOUS
 62
     7
100
AcDbLine
 10
89.52
 20
177.579565
 30
0.0
 11
90.290038
 21
177.579565
 31
0.0
  0
LINE
  5
1324
100
AcDbEntity
  8
10000_FRONT
370
    50
390
0
  6
CONTINUOUS
 62
     7
100
AcDbLine
 10
91.387227
 20
177.579565
 30
0.0
 11
92.151093
 21
177.579565
 31
0.0
  0
LINE
  5
1325
100
AcDbEntity
  8
10000_FRONT
370
    50
390
0
  6
CONTINUOUS
 62
     7
100
AcDbLine
 10
94.584
 20
177.579565
 30
0.0
 11
95.275337
 21
177.579565
 31
0.0
  0
LINE
  5
1326
100
AcDbEntity
  8
10000_FRONT
370
    50
390
0
  6
CONTINUOUS
 62
     7
100
AcDbLine
 10
96.040746
 20
177.579565
 30
0.0
 11
96.451227
 21
177.579565
 31
0.0
  0
LINE
  5
1327
100
AcDbEntity
  8
10000_FRONT
370
    50
390
0
  6
CONTINUOUS
 62
     7
100
AcDbLine
 10
108.061828
 20
177.624374
 30
0.0
 11
108.420523
 21
177.624374
 31
0.0
  0
LINE
  5
1328
100
AcDbEntity
  8
10000_FRONT
370
    50
390
0
  6
CONTINUOUS
 62
     7
100
AcDbLine
 10
119.061828
 20
177.624374
 30
0.0
 11
119.420523
 21
177.624374
 31
0.0
  0
LINE
  5
1329
100
AcDbEntity
  8
10000_FRONT
370
    50
390
0
  6
CONTINUOUS
 62
     7
100
AcDbLine
 10
107.118195
 20
177.9
 30
0.0
 11
107.654133
 21
177.9
 31
0.0
  0
LINE
  5
132A
100
AcDbEntity
  8
10000_FRONT
370
    50
390
0
  6
CONTINUOUS
 62
     7
100
AcDbLine
 10
110.735
 20
177.9
 30
0.0
 11
111.658344
 21
177.9
 31
0.0
  0
LINE
  5
132B
100
AcDbEntity
  8
10000_FRONT
370
    50
390
0
  6
CONTINUOUS
 62
     7
100
AcDbLine
 10
118.118195
 20
177.9
 30
0.0
 11
118.654133
 21
177.9
 31
0.0
  0
LINE
  5
132C
100
AcDbEntity
  8
10000_FRONT
370
    50
390
0
  6
CONTINUOUS
 62
     7
100
AcDbLine
 10
107.110539
 20
178.096001
 30
0.0
 11
107.667531
 21
178.096001
 31
0.0
  0
LINE
  5
132D
100
AcDbEntity
  8
10000_FRONT
370
    50
390
0
  6
CONTINUOUS
 62
     7
100
AcDbLine
 10
110.539
 20
178.096001
 30
0.0
 11
111.667531
 21
178.096001
 31
0.0
  0
LINE
  5
132E
100
AcDbEntity
  8
10000_FRONT
370
    50
390
0
  6
CONTINUOUS
 62
     7
100
AcDbLine
 10
114.539
 20
178.096001
 30
0.0
 11
114.735
 21
178.096001
 31
0.0
  0
LINE
  5
132F
100
AcDbEntity
  8
10000_FRONT
370
    50
390
0
  6
CONTINUOUS
 62
     7
100
AcDbLine
 10
116.3275
 20
178.096001
 30
0.0
 11
116.5235
 21
178.096001
 31
0.0
  0
LINE
  5
1330
100
AcDbEntity
  8
10000_FRONT
370
    50
390
0
  6
CONTINUOUS
 62
     7
100
AcDbLine
 10
118.110539
 20
178.096001
 30
0.0
 11
118.667531
 21
178.096001
 31
0.0
  0
LINE
  5
1331
100
AcDbEntity
  8
10000_FRONT
370
    50
390
0
  6
CONTINUOUS
 62
     7
100
AcDbLine
 10
113.339
 20
178.096001
 30
0.0
 11
113.535
 21
178.096001
 31
0.0
  0
LINE
  5
1332
100
AcDbEntity
  8
10000_FRONT
370
    50
390
0
  6
CONTINUOUS
 62
     7
100
AcDbLine
 10
109.339
 20
178.096001
 30
0.0
 11
109.535
 21
178.096001
 31
0.0
  0
LINE
  5
1333
100
AcDbEntity
  8
10000_FRONT
370
    50
390
0
  6
CONTINUOUS
 62
     7
100
AcDbLine
 10
83.6
 20
178.65
 30
0.0
 11
99.4
 21
178.65
 31
0.0
  0
LINE
  5
1334
100
AcDbEntity
  8
10000_FRONT
370
    50
390
0
  6
CONTINUOUS
 62
     7
100
AcDbLine
 10
82.5
 20
179.5
 30
0.0
 11
82.500038
 21
179.5
 31
0.0
  0
LINE
  5
1335
100
AcDbEntity
  8
10000_FRONT
370
    50
390
0
  6
CONTINUOUS
 62
     7
100
AcDbLine
 10
122.200001
 20
180.4
 30
0.0
 11
126.200001
 21
180.4
 31
0.0
  0
LINE
  5
1336
100
AcDbEntity
  8
10000_FRONT
370
    50
390
0
  6
CONTINUOUS
 62
     7
100
AcDbLine
 10
113.6
 20
180.4
 30
0.0
 11
117.6
 21
180.4
 31
0.0
  0
LINE
  5
1337
100
AcDbEntity
  8
10000_FRONT
370
    50
390
0
  6
CONTINUOUS
 62
     7
100
AcDbLine
 10
105.0
 20
180.4
 30
0.0
 11
109.0
 21
180.4
 31
0.0
  0
LINE
  5
1338
100
AcDbEntity
  8
10000_FRONT
370
    50
390
0
  6
CONTINUOUS
 62
     7
100
AcDbLine
 10
96.4
 20
180.4
 30
0.0
 11
100.4
 21
180.4
 31
0.0
  0
LINE
  5
1339
100
AcDbEntity
  8
10000_FRONT
370
    50
390
0
  6
CONTINUOUS
 62
     7
100
AcDbLine
 10
87.799999
 20
180.4
 30
0.0
 11
91.8
 21
180.4
 31
0.0
  0
LINE
  5
133A
100
AcDbEntity
  8
10000_FRONT
370
    50
390
0
  6
CONTINUOUS
 62
     7
100
AcDbLine
 10
118.1
 20
180.4
 30
0.0
 11
122.1
 21
180.4
 31
0.0
  0
LINE
  5
133B
100
AcDbEntity
  8
10000_FRONT
370
    50
390
0
  6
CONTINUOUS
 62
     7
100
AcDbLine
 10
109.5
 20
180.4
 30
0.0
 11
113.5
 21
180.4
 31
0.0
  0
LINE
  5
133C
100
AcDbEntity
  8
10000_FRONT
370
    50
390
0
  6
CONTINUOUS
 62
     7
100
AcDbLine
 10
100.9
 20
180.4
 30
0.0
 11
104.9
 21
180.4
 31
0.0
  0
LINE
  5
133D
100
AcDbEntity
  8
10000_FRONT
370
    50
390
0
  6
CONTINUOUS
 62
     7
100
AcDbLine
 10
92.3
 20
180.4
 30
0.0
 11
96.3
 21
180.4
 31
0.0
  0
LINE
  5
133E
100
AcDbEntity
  8
10000_FRONT
370
    50
390
0
  6
CONTINUOUS
 62
     7
100
AcDbLine
 10
83.700001
 20
180.4
 30
0.0
 11
87.700001
 21
180.4
 31
0.0
  0
LINE
  5
133F
100
AcDbEntity
  8
10000_FRONT
370
    50
390
0
  6
CONTINUOUS
 62
     7
100
AcDbLine
 10
122.200001
 20
184.65
 30
0.0
 11
126.200001
 21
184.65
 31
0.0
  0
LINE
  5
1340
100
AcDbEntity
  8
10000_FRONT
370
    50
390
0
  6
CONTINUOUS
 62
     7
100
AcDbLine
 10
113.6
 20
184.65
 30
0.0
 11
117.6
 21
184.65
 31
0.0
  0
LINE
  5
1341
100
AcDbEntity
  8
10000_FRONT
370
    50
390
0
  6
CONTINUOUS
 62
     7
100
AcDbLine
 10
105.0
 20
184.65
 30
0.0
 11
109.0
 21
184.65
 31
0.0
  0
LINE
  5
1342
100
AcDbEntity
  8
10000_FRONT
370
    50
390
0
  6
CONTINUOUS
 62
     7
100
AcDbLine
 10
96.4
 20
184.65
 30
0.0
 11
100.4
 21
184.65
 31
0.0
  0
LINE
  5
1343
100
AcDbEntity
  8
10000_FRONT
370
    50
390
0
  6
CONTINUOUS
 62
     7
100
AcDbLine
 10
87.799999
 20
184.65
 30
0.0
 11
91.8
 21
184.65
 31
0.0
  0
LINE
  5
1344
100
AcDbEntity
  8
10000_FRONT
370
    50
390
0
  6
CONTINUOUS
 62
     7
100
AcDbLine
 10
118.1
 20
184.65
 30
0.0
 11
122.1
 21
184.65
 31
0.0
  0
LINE
  5
1345
100
AcDbEntity
  8
10000_FRONT
370
    50
390
0
  6
CONTINUOUS
 62
     7
100
AcDbLine
 10
109.5
 20
184.65
 30
0.0
 11
113.5
 21
184.65
 31
0.0
  0
LINE
  5
1346
100
AcDbEntity
  8
10000_FRONT
370
    50
390
0
  6
CONTINUOUS
 62
     7
100
AcDbLine
 10
100.9
 20
184.65
 30
0.0
 11
104.9
 21
184.65
 31
0.0
  0
LINE
  5
1347
100
AcDbEntity
  8
10000_FRONT
370
    50
390
0
  6
CONTINUOUS
 62
     7
100
AcDbLine
 10
92.3
 20
184.65
 30
0.0
 11
96.3
 21
184.65
 31
0.0
  0
LINE
  5
1348
100
AcDbEntity
  8
10000_FRONT
370
    50
390
0
  6
CONTINUOUS
 62
     7
100
AcDbLine
 10
83.700001
 20
184.65
 30
0.0
 11
87.700001
 21
184.65
 31
0.0
  0
LINE
  5
1349
100
AcDbEntity
  8
10000_FRONT
370
    50
390
0
  6
CONTINUOUS
 62
     7
100
AcDbLine
 10
118.1
 20
185.45
 30
0.0
 11
126.299999
 21
185.45
 31
0.0
  0
LINE
  5
134A
100
AcDbEntity
  8
10000_FRONT
370
    50
390
0
  6
CONTINUOUS
 62
     7
100
AcDbLine
 10
109.5
 20
185.45
 30
0.0
 11
117.7
 21
185.45
 31
0.0
  0
LINE
  5
134B
100
AcDbEntity
  8
10000_FRONT
370
    50
390
0
  6
CONTINUOUS
 62
     7
100
AcDbLine
 10
100.9
 20
185.45
 30
0.0
 11
109.1
 21
185.45
 31
0.0
  0
LINE
  5
134C
100
AcDbEntity
  8
10000_FRONT
370
    50
390
0
  6
CONTINUOUS
 62
     7
100
AcDbLine
 10
92.3
 20
185.45
 30
0.0
 11
100.5
 21
185.45
 31
0.0
  0
LINE
  5
134D
100
AcDbEntity
  8
10000_FRONT
370
    50
390
0
  6
CONTINUOUS
 62
     7
100
AcDbLine
 10
83.700001
 20
185.45
 30
0.0
 11
91.9
 21
185.45
 31
0.0
  0
LINE
  5
134E
100
AcDbEntity
  8
10000_FRONT
370
    50
390
0
  6
CONTINUOUS
 62
     7
100
AcDbLine
 10
123.049999
 20
186.35
 30
0.0
 11
125.35
 21
186.35
 31
0.0
  0
LINE
  5
134F
100
AcDbEntity
  8
10000_FRONT
370
    50
390
0
  6
CONTINUOUS
 62
     7
100
AcDbLine
 10
114.45
 20
186.35
 30
0.0
 11
116.75
 21
186.35
 31
0.0
  0
LINE
  5
1350
100
AcDbEntity
  8
10000_FRONT
370
    50
390
0
  6
CONTINUOUS
 62
     7
100
AcDbLine
 10
105.85
 20
186.35
 30
0.0
 11
108.15
 21
186.35
 31
0.0
  0
LINE
  5
1351
100
AcDbEntity
  8
10000_FRONT
370
    50
390
0
  6
CONTINUOUS
 62
     7
100
AcDbLine
 10
97.25
 20
186.35
 30
0.0
 11
99.55
 21
186.35
 31
0.0
  0
LINE
  5
1352
100
AcDbEntity
  8
10000_FRONT
370
    50
390
0
  6
CONTINUOUS
 62
     7
100
AcDbLine
 10
88.65
 20
186.35
 30
0.0
 11
90.95
 21
186.35
 31
0.0
  0
LINE
  5
1353
100
AcDbEntity
  8
10000_FRONT
370
    50
390
0
  6
CONTINUOUS
 62
     7
100
AcDbLine
 10
119.15
 20
186.35
 30
0.0
 11
121.450001
 21
186.35
 31
0.0
  0
LINE
  5
1354
100
AcDbEntity
  8
10000_FRONT
370
    50
390
0
  6
CONTINUOUS
 62
     7
100
AcDbLine
 10
110.55
 20
186.35
 30
0.0
 11
112.85
 21
186.35
 31
0.0
  0
LINE
  5
1355
100
AcDbEntity
  8
10000_FRONT
370
    50
390
0
  6
CONTINUOUS
 62
     7
100
AcDbLine
 10
101.95
 20
186.35
 30
0.0
 11
104.25
 21
186.35
 31
0.0
  0
LINE
  5
1356
100
AcDbEntity
  8
10000_FRONT
370
    50
390
0
  6
CONTINUOUS
 62
     7
100
AcDbLine
 10
93.35
 20
186.35
 30
0.0
 11
95.65
 21
186.35
 31
0.0
  0
LINE
  5
1357
100
AcDbEntity
  8
10000_FRONT
370
    50
390
0
  6
CONTINUOUS
 62
     7
100
AcDbLine
 10
84.75
 20
186.35
 30
0.0
 11
87.049999
 21
186.35
 31
0.0
  0
LINE
  5
1358
100
AcDbEntity
  8
10000_FRONT
370
    50
390
0
  6
CONTINUOUS
 62
     7
100
AcDbLine
 10
123.049999
 20
188.35
 30
0.0
 11
125.35
 21
188.35
 31
0.0
  0
LINE
  5
1359
100
AcDbEntity
  8
10000_FRONT
370
    50
390
0
  6
CONTINUOUS
 62
     7
100
AcDbLine
 10
114.45
 20
188.35
 30
0.0
 11
116.75
 21
188.35
 31
0.0
  0
LINE
  5
135A
100
AcDbEntity
  8
10000_FRONT
370
    50
390
0
  6
CONTINUOUS
 62
     7
100
AcDbLine
 10
105.85
 20
188.35
 30
0.0
 11
108.15
 21
188.35
 31
0.0
  0
LINE
  5
135B
100
AcDbEntity
  8
10000_FRONT
370
    50
390
0
  6
CONTINUOUS
 62
     7
100
AcDbLine
 10
97.25
 20
188.35
 30
0.0
 11
99.55
 21
188.35
 31
0.0
  0
LINE
  5
135C
100
AcDbEntity
  8
10000_FRONT
370
    50
390
0
  6
CONTINUOUS
 62
     7
100
AcDbLine
 10
88.65
 20
188.35
 30
0.0
 11
90.95
 21
188.35
 31
0.0
  0
LINE
  5
135D
100
AcDbEntity
  8
10000_FRONT
370
    50
390
0
  6
CONTINUOUS
 62
     7
100
AcDbLine
 10
119.15
 20
188.35
 30
0.0
 11
121.450001
 21
188.35
 31
0.0
  0
LINE
  5
135E
100
AcDbEntity
  8
10000_FRONT
370
    50
390
0
  6
CONTINUOUS
 62
     7
100
AcDbLine
 10
110.55
 20
188.35
 30
0.0
 11
112.85
 21
188.35
 31
0.0
  0
LINE
  5
135F
100
AcDbEntity
  8
10000_FRONT
370
    50
390
0
  6
CONTINUOUS
 62
     7
100
AcDbLine
 10
101.95
 20
188.35
 30
0.0
 11
104.25
 21
188.35
 31
0.0
  0
LINE
  5
1360
100
AcDbEntity
  8
10000_FRONT
370
    50
390
0
  6
CONTINUOUS
 62
     7
100
AcDbLine
 10
93.35
 20
188.35
 30
0.0
 11
95.65
 21
188.35
 31
0.0
  0
LINE
  5
1361
100
AcDbEntity
  8
10000_FRONT
370
    50
390
0
  6
CONTINUOUS
 62
     7
100
AcDbLine
 10
84.75
 20
188.35
 30
0.0
 11
87.049999
 21
188.35
 31
0.0
  0
LINE
  5
1362
100
AcDbEntity
  8
10000_FRONT
370
    50
390
0
  6
CONTINUOUS
 62
     7
100
AcDbLine
 10
118.1
 20
189.05
 30
0.0
 11
126.299999
 21
189.05
 31
0.0
  0
LINE
  5
1363
100
AcDbEntity
  8
10000_FRONT
370
    50
390
0
  6
CONTINUOUS
 62
     7
100
AcDbLine
 10
109.5
 20
189.05
 30
0.0
 11
117.7
 21
189.05
 31
0.0
  0
LINE
  5
1364
100
AcDbEntity
  8
10000_FRONT
370
    50
390
0
  6
CONTINUOUS
 62
     7
100
AcDbLine
 10
100.9
 20
189.05
 30
0.0
 11
109.1
 21
189.05
 31
0.0
  0
LINE
  5
1365
100
AcDbEntity
  8
10000_FRONT
370
    50
390
0
  6
CONTINUOUS
 62
     7
100
AcDbLine
 10
92.3
 20
189.05
 30
0.0
 11
100.5
 21
189.05
 31
0.0
  0
LINE
  5
1366
100
AcDbEntity
  8
10000_FRONT
370
    50
390
0
  6
CONTINUOUS
 62
     7
100
AcDbLine
 10
83.700001
 20
189.05
 30
0.0
 11
91.9
 21
189.05
 31
0.0
  0
LINE
  5
1367
100
AcDbEntity
  8
10000_FRONT
370
    50
390
0
  6
CONTINUOUS
 62
     7
100
AcDbLine
 10
118.782632
 20
190.25
 30
0.0
 11
125.617374
 21
190.25
 31
0.0
  0
LINE
  5
1368
100
AcDbEntity
  8
10000_FRONT
370
    50
390
0
  6
CONTINUOUS
 62
     7
100
AcDbLine
 10
110.182632
 20
190.25
 30
0.0
 11
117.017375
 21
190.25
 31
0.0
  0
LINE
  5
1369
100
AcDbEntity
  8
10000_FRONT
370
    50
390
0
  6
CONTINUOUS
 62
     7
100
AcDbLine
 10
101.582632
 20
190.25
 30
0.0
 11
108.417375
 21
190.25
 31
0.0
  0
LINE
  5
136A
100
AcDbEntity
  8
10000_FRONT
370
    50
390
0
  6
CONTINUOUS
 62
     7
100
AcDbLine
 10
92.982632
 20
190.25
 30
0.0
 11
99.817375
 21
190.25
 31
0.0
  0
LINE
  5
136B
100
AcDbEntity
  8
10000_FRONT
370
    50
390
0
  6
CONTINUOUS
 62
     7
100
AcDbLine
 10
84.382631
 20
190.25
 30
0.0
 11
91.217375
 21
190.25
 31
0.0
  0
LINE
  5
136C
100
AcDbEntity
  8
10000_FRONT
370
    50
390
0
  6
CONTINUOUS
 62
     7
100
AcDbLine
 10
125.893772
 20
190.695016
 30
0.0
 11
127.006002
 21
190.695016
 31
0.0
  0
LINE
  5
136D
100
AcDbEntity
  8
10000_FRONT
370
    50
390
0
  6
CONTINUOUS
 62
     7
100
AcDbLine
 10
117.293773
 20
190.695016
 30
0.0
 11
118.506227
 21
190.695016
 31
0.0
  0
LINE
  5
136E
100
AcDbEntity
  8
10000_FRONT
370
    50
390
0
  6
CONTINUOUS
 62
     7
100
AcDbLine
 10
108.693773
 20
190.695016
 30
0.0
 11
109.906227
 21
190.695016
 31
0.0
  0
LINE
  5
136F
100
AcDbEntity
  8
10000_FRONT
370
    50
390
0
  6
CONTINUOUS
 62
     7
100
AcDbLine
 10
100.093773
 20
190.695016
 30
0.0
 11
101.306227
 21
190.695016
 31
0.0
  0
LINE
  5
1370
100
AcDbEntity
  8
10000_FRONT
370
    50
390
0
  6
CONTINUOUS
 62
     7
100
AcDbLine
 10
91.493773
 20
190.695016
 30
0.0
 11
92.706227
 21
190.695016
 31
0.0
  0
LINE
  5
1371
100
AcDbEntity
  8
10000_FRONT
370
    50
390
0
  6
CONTINUOUS
 62
     7
100
AcDbLine
 10
82.993998
 20
190.695016
 30
0.0
 11
84.106228
 21
190.695016
 31
0.0
  0
LINE
  5
1372
100
AcDbEntity
  8
10000_FRONT
370
    50
390
0
  6
CONTINUOUS
 62
     7
100
AcDbLine
 10
125.99391
 20
193.549939
 30
0.0
 11
127.5
 21
193.549939
 31
0.0
  0
LINE
  5
1373
100
AcDbEntity
  8
10000_FRONT
370
    50
390
0
  6
CONTINUOUS
 62
     7
100
AcDbLine
 10
82.5
 20
193.549939
 30
0.0
 11
84.00609
 21
193.549939
 31
0.0
  0
LINE
  5
1374
100
AcDbEntity
  8
10000_FRONT
370
    50
390
0
  6
CONTINUOUS
 62
     7
100
AcDbLine
 10
91.593909
 20
193.549939
 30
0.0
 11
92.606091
 21
193.549939
 31
0.0
  0
LINE
  5
1375
100
AcDbEntity
  8
10000_FRONT
370
    50
390
0
  6
CONTINUOUS
 62
     7
100
AcDbLine
 10
100.19391
 20
193.549939
 30
0.0
 11
101.20609
 21
193.549939
 31
0.0
  0
LINE
  5
1376
100
AcDbEntity
  8
10000_FRONT
370
    50
390
0
  6
CONTINUOUS
 62
     7
100
AcDbLine
 10
108.79391
 20
193.549939
 30
0.0
 11
109.80609
 21
193.549939
 31
0.0
  0
LINE
  5
1377
100
AcDbEntity
  8
10000_FRONT
370
    50
390
0
  6
CONTINUOUS
 62
     7
100
AcDbLine
 10
117.393909
 20
193.549939
 30
0.0
 11
118.406091
 21
193.549939
 31
0.0
  0
LINE
  5
1378
100
AcDbEntity
  8
10000_FRONT
370
    50
390
0
  6
CONTINUOUS
 62
     7
100
AcDbLine
 10
110.223883
 20
194.3
 30
0.0
 11
113.576119
 21
194.3
 31
0.0
  0
LINE
  5
1379
100
AcDbEntity
  8
10000_FRONT
370
    50
390
0
  6
CONTINUOUS
 62
     7
100
AcDbLine
 10
113.623882
 20
194.3
 30
0.0
 11
116.976119
 21
194.3
 31
0.0
  0
LINE
  5
137A
100
AcDbEntity
  8
10000_FRONT
370
    50
390
0
  6
CONTINUOUS
 62
     7
100
AcDbLine
 10
101.623883
 20
194.3
 30
0.0
 11
104.976119
 21
194.3
 31
0.0
  0
LINE
  5
137B
100
AcDbEntity
  8
10000_FRONT
370
    50
390
0
  6
CONTINUOUS
 62
     7
100
AcDbLine
 10
105.023883
 20
194.3
 30
0.0
 11
108.376119
 21
194.3
 31
0.0
  0
LINE
  5
137C
100
AcDbEntity
  8
10000_FRONT
370
    50
390
0
  6
CONTINUOUS
 62
     7
100
AcDbLine
 10
93.023883
 20
194.3
 30
0.0
 11
96.376119
 21
194.3
 31
0.0
  0
LINE
  5
137D
100
AcDbEntity
  8
10000_FRONT
370
    50
390
0
  6
CONTINUOUS
 62
     7
100
AcDbLine
 10
96.423882
 20
194.3
 30
0.0
 11
99.776119
 21
194.3
 31
0.0
  0
LINE
  5
137E
100
AcDbEntity
  8
10000_FRONT
370
    50
390
0
  6
CONTINUOUS
 62
     7
100
AcDbLine
 10
84.423883
 20
194.3
 30
0.0
 11
87.776119
 21
194.3
 31
0.0
  0
LINE
  5
137F
100
AcDbEntity
  8
10000_FRONT
370
    50
390
0
  6
CONTINUOUS
 62
     7
100
AcDbLine
 10
87.823883
 20
194.3
 30
0.0
 11
91.176119
 21
194.3
 31
0.0
  0
LINE
  5
1380
100
AcDbEntity
  8
10000_FRONT
370
    50
390
0
  6
CONTINUOUS
 62
     7
100
AcDbLine
 10
118.823882
 20
194.3
 30
0.0
 11
122.176119
 21
194.3
 31
0.0
  0
LINE
  5
1381
100
AcDbEntity
  8
10000_FRONT
370
    50
390
0
  6
CONTINUOUS
 62
     7
100
AcDbLine
 10
122.223883
 20
194.3
 30
0.0
 11
125.576118
 21
194.3
 31
0.0
  0
LINE
  5
1382
100
AcDbEntity
  8
10000_FRONT
370
    50
390
0
  6
CONTINUOUS
 62
     7
100
AcDbLine
 10
82.5
 20
197.25
 30
0.0
 11
82.500044
 21
197.25
 31
0.0
  0
LINE
  5
1383
100
AcDbEntity
  8
10000_FRONT
370
    50
390
0
  6
CONTINUOUS
 62
     7
100
AcDbLine
 10
82.5
 20
197.749893
 30
0.0
 11
127.5
 21
197.749893
 31
0.0
  0
LINE
  5
1384
100
AcDbEntity
  8
10000_FRONT
370
    50
390
0
  6
CONTINUOUS
 62
     7
100
AcDbLine
 10
82.5
 20
198.25
 30
0.0
 11
127.0
 21
198.25
 31
0.0
  0
LINE
  5
1385
100
AcDbEntity
  8
10000_FRONT
370
    50
390
0
  6
CONTINUOUS
 62
     7
100
AcDbLine
 10
127.000046
 20
198.25
 30
0.0
 11
127.5
 21
198.25
 31
0.0
  0
LINE
  5
1386
100
AcDbEntity
  8
10000_FRONT
370
    50
390
0
  6
CONTINUOUS
 62
     7
100
AcDbLine
 10
127.0
 20
128.75
 30
0.0
 11
127.017366
 21
128.750305
 31
0.0
  0
LINE
  5
1387
100
AcDbEntity
  8
10000_FRONT
370
    50
390
0
  6
CONTINUOUS
 62
     7
100
AcDbLine
 10
82.973816
 20
198.249314
 30
0.0
 11
83.0
 21
198.25
 31
0.0
  0
LINE
  5
1388
100
AcDbEntity
  8
10000_FRONT
370
    50
390
0
  6
CONTINUOUS
 62
     7
100
AcDbLine
 10
127.017366
 20
128.750305
 30
0.0
 11
127.034119
 21
128.751167
 31
0.0
  0
LINE
  5
1389
100
AcDbEntity
  8
10000_FRONT
370
    50
390
0
  6
CONTINUOUS
 62
     7
100
AcDbLine
 10
82.947954
 20
198.247284
 30
0.0
 11
82.973816
 21
198.249314
 31
0.0
  0
LINE
  5
138A
100
AcDbEntity
  8
10000_FRONT
370
    50
390
0
  6
CONTINUOUS
 62
     7
100
AcDbLine
 10
127.034119
 20
128.751167
 30
0.0
 11
127.052505
 21
128.752769
 31
0.0
  0
LINE
  5
138B
100
AcDbEntity
  8
10000_FRONT
370
    50
390
0
  6
CONTINUOUS
 62
     7
100
AcDbLine
 10
127.052505
 20
128.752769
 30
0.0
 11
127.072191
 21
128.755241
 31
0.0
  0
LINE
  5
138C
100
AcDbEntity
  8
10000_FRONT
370
    50
390
0
  6
CONTINUOUS
 62
     7
100
AcDbLine
 10
82.922462
 20
198.243951
 30
0.0
 11
82.947954
 21
198.247284
 31
0.0
  0
LINE
  5
138D
100
AcDbEntity
  8
10000_FRONT
370
    50
390
0
  6
CONTINUOUS
 62
     7
100
AcDbLine
 10
127.072191
 20
128.755241
 30
0.0
 11
127.093048
 21
128.758759
 31
0.0
  0
LINE
  5
138E
100
AcDbEntity
  8
10000_FRONT
370
    50
390
0
  6
CONTINUOUS
 62
     7
100
AcDbLine
 10
82.89739
 20
198.239358
 30
0.0
 11
82.922462
 21
198.243951
 31
0.0
  0
LINE
  5
138F
100
AcDbEntity
  8
10000_FRONT
370
    50
390
0
  6
CONTINUOUS
 62
     7
100
AcDbLine
 10
127.093048
 20
128.758759
 30
0.0
 11
127.115128
 21
128.763474
 31
0.0
  0
LINE
  5
1390
100
AcDbEntity
  8
10000_FRONT
370
    50
390
0
  6
CONTINUOUS
 62
     7
100
AcDbLine
 10
82.872782
 20
198.233545
 30
0.0
 11
82.89739
 21
198.239358
 31
0.0
  0
LINE
  5
1391
100
AcDbEntity
  8
10000_FRONT
370
    50
390
0
  6
CONTINUOUS
 62
     7
100
AcDbLine
 10
127.115128
 20
128.763474
 30
0.0
 11
127.137993
 21
128.76944
 31
0.0
  0
LINE
  5
1392
100
AcDbEntity
  8
10000_FRONT
370
    50
390
0
  6
CONTINUOUS
 62
     7
100
AcDbLine
 10
82.848665
 20
198.226548
 30
0.0
 11
82.872782
 21
198.233545
 31
0.0
  0
LINE
  5
1393
100
AcDbEntity
  8
10000_FRONT
370
    50
390
0
  6
CONTINUOUS
 62
     7
100
AcDbLine
 10
127.137993
 20
128.76944
 30
0.0
 11
127.161219
 21
128.776703
 31
0.0
  0
LINE
  5
1394
100
AcDbEntity
  8
10000_FRONT
370
    50
390
0
  6
CONTINUOUS
 62
     7
100
AcDbLine
 10
115.664086
 20
175.351126
 30
0.0
 11
116.066039
 21
175.485001
 31
0.0
  0
LINE
  5
1395
100
AcDbEntity
  8
10000_FRONT
370
    50
390
0
  6
CONTINUOUS
 62
     7
100
AcDbLine
 10
115.672891
 20
175.156
 30
0.0
 11
116.096281
 21
175.297314
 31
0.0
  0
LINE
  5
1396
100
AcDbEntity
  8
10000_FRONT
370
    50
390
0
  6
CONTINUOUS
 62
     7
100
AcDbLine
 10
84.067856
 20
147.334202
 30
0.0
 11
84.36396
 21
147.433121
 31
0.0
  0
LINE
  5
1397
100
AcDbEntity
  8
10000_FRONT
370
    50
390
0
  6
CONTINUOUS
 62
     7
100
AcDbLine
 10
107.657961
 20
175.351999
 30
0.0
 11
108.058
 21
175.485874
 31
0.0
  0
LINE
  5
1398
100
AcDbEntity
  8
10000_FRONT
370
    50
390
0
  6
CONTINUOUS
 62
     7
100
AcDbLine
 10
118.657961
 20
175.351999
 30
0.0
 11
119.058
 21
175.485874
 31
0.0
  0
LINE
  5
1399
100
AcDbEntity
  8
10000_FRONT
370
    50
390
0
  6
CONTINUOUS
 62
     7
100
AcDbLine
 10
106.718156
 20
177.766125
 30
0.0
 11
107.118195
 21
177.9
 31
0.0
  0
LINE
  5
139A
100
AcDbEntity
  8
10000_FRONT
370
    50
390
0
  6
CONTINUOUS
 62
     7
100
AcDbLine
 10
117.718156
 20
177.766125
 30
0.0
 11
118.118195
 21
177.9
 31
0.0
  0
LINE
  5
139B
100
AcDbEntity
  8
10000_FRONT
370
    50
390
0
  6
CONTINUOUS
 62
     7
100
AcDbLine
 10
85.814617
 20
148.294601
 30
0.0
 11
86.109919
 21
148.39352
 31
0.0
  0
LINE
  5
139C
100
AcDbEntity
  8
10000_FRONT
370
    50
390
0
  6
CONTINUOUS
 62
     7
100
AcDbLine
 10
111.666383
 20
176.528
 30
0.0
 11
112.088242
 21
176.669313
 31
0.0
  0
LINE
  5
139D
100
AcDbEntity
  8
10000_FRONT
370
    50
390
0
  6
CONTINUOUS
 62
     7
100
AcDbLine
 10
107.667531
 20
175.156
 30
0.0
 11
108.090539
 21
175.29775
 31
0.0
  0
LINE
  5
139E
100
AcDbEntity
  8
10000_FRONT
370
    50
390
0
  6
CONTINUOUS
 62
     7
100
AcDbLine
 10
118.667531
 20
175.156
 30
0.0
 11
119.090539
 21
175.29775
 31
0.0
  0
LINE
  5
139F
100
AcDbEntity
  8
10000_FRONT
370
    50
390
0
  6
CONTINUOUS
 62
     7
100
AcDbLine
 10
106.687531
 20
177.95425
 30
0.0
 11
107.110539
 21
178.096001
 31
0.0
  0
LINE
  5
13A0
100
AcDbEntity
  8
10000_FRONT
370
    50
390
0
  6
CONTINUOUS
 62
     7
100
AcDbLine
 10
117.687531
 20
177.95425
 30
0.0
 11
118.110539
 21
178.096001
 31
0.0
  0
LINE
  5
13A1
100
AcDbEntity
  8
10000_FRONT
370
    50
390
0
  6
CONTINUOUS
 62
     7
100
AcDbLine
 10
85.80899
 20
148.431801
 30
0.0
 11
86.083391
 21
148.525818
 31
0.0
  0
LINE
  5
13A2
100
AcDbEntity
  8
10000_FRONT
370
    50
390
0
  6
CONTINUOUS
 62
     7
100
AcDbLine
 10
111.658344
 20
176.724001
 30
0.0
 11
112.050344
 21
176.858313
 31
0.0
  0
LINE
  5
13A3
100
AcDbEntity
  8
10000_FRONT
370
    50
390
0
  6
CONTINUOUS
 62
     7
100
AcDbLine
 10
82.825079
 20
198.218405
 30
0.0
 11
82.848665
 21
198.226548
 31
0.0
  0
LINE
  5
13A4
100
AcDbEntity
  8
10000_FRONT
370
    50
390
0
  6
CONTINUOUS
 62
     7
100
AcDbLine
 10
127.006002
 20
190.695026
 30
0.0
 11
127.073959
 21
190.718557
 31
0.0
  0
LINE
  5
13A5
100
AcDbEntity
  8
10000_FRONT
370
    50
390
0
  6
CONTINUOUS
 62
     7
100
AcDbLine
 10
82.926041
 20
136.381321
 30
0.0
 11
82.993998
 21
136.404861
 31
0.0
  0
LINE
  5
13A6
100
AcDbEntity
  8
10000_FRONT
370
    50
390
0
  6
CONTINUOUS
 62
     7
100
AcDbLine
 10
84.062496
 20
147.471401
 30
0.0
 11
84.246054
 21
147.535713
 31
0.0
  0
LINE
  5
13A7
100
AcDbEntity
  8
10000_FRONT
370
    50
390
0
  6
CONTINUOUS
 62
     7
100
AcDbLine
 10
127.161219
 20
128.776703
 30
0.0
 11
127.184902
 21
128.785515
 31
0.0
  0
LINE
  5
13A8
100
AcDbEntity
  8
10000_FRONT
370
    50
390
0
  6
CONTINUOUS
 62
     7
100
AcDbLine
 10
82.802061
 20
198.209151
 30
0.0
 11
82.825079
 21
198.218405
 31
0.0
  0
LINE
  5
13A9
100
AcDbEntity
  8
10000_FRONT
370
    50
390
0
  6
CONTINUOUS
 62
     7
100
AcDbLine
 10
127.184902
 20
128.785515
 30
0.0
 11
127.209059
 21
128.795982
 31
0.0
  0
LINE
  5
13AA
100
AcDbEntity
  8
10000_FRONT
370
    50
390
0
  6
CONTINUOUS
 62
     7
100
AcDbLine
 10
82.779638
 20
198.198805
 30
0.0
 11
82.802061
 21
198.209151
 31
0.0
  0
LINE
  5
13AB
100
AcDbEntity
  8
10000_FRONT
370
    50
390
0
  6
CONTINUOUS
 62
     7
100
AcDbLine
 10
88.675873
 20
149.294506
 30
0.0
 11
88.87685
 21
149.3922
 31
0.0
  0
LINE
  5
13AC
100
AcDbEntity
  8
10000_FRONT
370
    50
390
0
  6
CONTINUOUS
 62
     7
100
AcDbLine
 10
90.311965
 20
148.855652
 30
0.0
 11
90.539739
 21
148.968044
 31
0.0
  0
LINE
  5
13AD
100
AcDbEntity
  8
10000_FRONT
370
    50
390
0
  6
CONTINUOUS
 62
     7
100
AcDbLine
 10
127.209059
 20
128.795982
 30
0.0
 11
127.233459
 21
128.808113
 31
0.0
  0
LINE
  5
13AE
100
AcDbEntity
  8
10000_FRONT
370
    50
390
0
  6
CONTINUOUS
 62
     7
100
AcDbLine
 10
88.70669
 20
149.163738
 30
0.0
 11
88.887569
 21
149.255001
 31
0.0
  0
LINE
  5
13AF
100
AcDbEntity
  8
10000_FRONT
370
    50
390
0
  6
CONTINUOUS
 62
     7
100
AcDbLine
 10
90.311965
 20
149.000198
 30
0.0
 11
90.512941
 21
149.101875
 31
0.0
  0
LINE
  5
13B0
100
AcDbEntity
  8
10000_FRONT
370
    50
390
0
  6
CONTINUOUS
 62
     7
100
AcDbLine
 10
82.75786
 20
198.187409
 30
0.0
 11
82.779638
 21
198.198805
 31
0.0
  0
LINE
  5
13B1
100
AcDbEntity
  8
10000_FRONT
370
    50
390
0
  6
CONTINUOUS
 62
     7
100
AcDbLine
 10
127.233459
 20
128.808113
 30
0.0
 11
127.257874
 21
128.821922
 31
0.0
  0
LINE
  5
13B2
100
AcDbEntity
  8
10000_FRONT
370
    50
390
0
  6
CONTINUOUS
 62
     7
100
AcDbLine
 10
82.736773
 20
198.175028
 30
0.0
 11
82.75786
 21
198.187409
 31
0.0
  0
LINE
  5
13B3
100
AcDbEntity
  8
10000_FRONT
370
    50
390
0
  6
CONTINUOUS
 62
     7
100
AcDbLine
 10
127.257874
 20
128.821922
 30
0.0
 11
127.282076
 21
128.83741
 31
0.0
  0
LINE
  5
13B4
100
AcDbEntity
  8
10000_FRONT
370
    50
390
0
  6
CONTINUOUS
 62
     7
100
AcDbLine
 10
82.716429
 20
198.161726
 30
0.0
 11
82.736773
 21
198.175028
 31
0.0
  0
LINE
  5
13B5
100
AcDbEntity
  8
10000_FRONT
370
    50
390
0
  6
CONTINUOUS
 62
     7
100
AcDbLine
 10
84.246054
 20
147.535713
 30
0.0
 11
84.37468
 21
147.620239
 31
0.0
  0
LINE
  5
13B6
100
AcDbEntity
  8
10000_FRONT
370
    50
390
0
  6
CONTINUOUS
 62
     7
100
AcDbLine
 10
127.282076
 20
128.83741
 30
0.0
 11
127.305838
 21
128.854584
 31
0.0
  0
LINE
  5
13B7
100
AcDbEntity
  8
10000_FRONT
370
    50
390
0
  6
CONTINUOUS
 62
     7
100
AcDbLine
 10
82.69688
 20
198.147567
 30
0.0
 11
82.716429
 21
198.161726
 31
0.0
  0
LINE
  5
13B8
100
AcDbEntity
  8
10000_FRONT
370
    50
390
0
  6
CONTINUOUS
 62
     7
100
AcDbLine
 10
82.678179
 20
198.132616
 30
0.0
 11
82.69688
 21
198.147567
 31
0.0
  0
LINE
  5
13B9
100
AcDbEntity
  8
10000_FRONT
370
    50
390
0
  6
CONTINUOUS
 62
     7
100
AcDbLine
 10
127.305838
 20
128.854584
 30
0.0
 11
127.328928
 21
128.873459
 31
0.0
  0
LINE
  5
13BA
100
AcDbEntity
  8
10000_FRONT
370
    50
390
0
  6
CONTINUOUS
 62
     7
100
AcDbLine
 10
82.873268
 20
136.334999
 30
0.0
 11
82.926041
 21
136.381321
 31
0.0
  0
LINE
  5
13BB
100
AcDbEntity
  8
10000_FRONT
370
    50
390
0
  6
CONTINUOUS
 62
     7
100
AcDbLine
 10
127.073959
 20
190.718557
 30
0.0
 11
127.126732
 21
190.764879
 31
0.0
  0
LINE
  5
13BC
100
AcDbEntity
  8
10000_FRONT
370
    50
390
0
  6
CONTINUOUS
 62
     7
100
AcDbLine
 10
82.660374
 20
198.116938
 30
0.0
 11
82.678179
 21
198.132616
 31
0.0
  0
LINE
  5
13BD
100
AcDbEntity
  8
10000_FRONT
370
    50
390
0
  6
CONTINUOUS
 62
     7
100
AcDbLine
 10
127.328928
 20
128.873459
 30
0.0
 11
127.351164
 21
128.894081
 31
0.0
  0
LINE
  5
13BE
100
AcDbEntity
  8
10000_FRONT
370
    50
390
0
  6
CONTINUOUS
 62
     7
100
AcDbLine
 10
112.088242
 20
176.669313
 30
0.0
 11
112.237156
 21
176.812374
 31
0.0
  0
LINE
  5
13BF
100
AcDbEntity
  8
10000_FRONT
370
    50
390
0
  6
CONTINUOUS
 62
     7
100
AcDbLine
 10
86.109919
 20
148.39352
 30
0.0
 11
86.214159
 21
148.493664
 31
0.0
  0
LINE
  5
13C0
100
AcDbEntity
  8
10000_FRONT
370
    50
390
0
  6
CONTINUOUS
 62
     7
100
AcDbLine
 10
82.643505
 20
198.100586
 30
0.0
 11
82.660374
 21
198.116938
 31
0.0
  0
LINE
  5
13C1
100
AcDbEntity
  8
10000_FRONT
370
    50
390
0
  6
CONTINUOUS
 62
     7
100
AcDbLine
 10
88.574045
 20
149.194668
 30
0.0
 11
88.675873
 21
149.294506
 31
0.0
  0
LINE
  5
13C2
100
AcDbEntity
  8
10000_FRONT
370
    50
390
0
  6
CONTINUOUS
 62
     7
100
AcDbLine
 10
84.36396
 20
147.433121
 30
0.0
 11
84.564938
 21
147.632488
 31
0.0
  0
LINE
  5
13C3
100
AcDbEntity
  8
10000_FRONT
370
    50
390
0
  6
CONTINUOUS
 62
     7
100
AcDbLine
 10
106.396594
 20
177.665501
 30
0.0
 11
106.687531
 21
177.95425
 31
0.0
  0
LINE
  5
13C4
100
AcDbEntity
  8
10000_FRONT
370
    50
390
0
  6
CONTINUOUS
 62
     7
100
AcDbLine
 10
117.396594
 20
177.665501
 30
0.0
 11
117.687531
 21
177.95425
 31
0.0
  0
LINE
  5
13C5
100
AcDbEntity
  8
10000_FRONT
370
    50
390
0
  6
CONTINUOUS
 62
     7
100
AcDbLine
 10
90.512941
 20
149.101875
 30
0.0
 11
90.804759
 21
149.3922
 31
0.0
  0
LINE
  5
13C6
100
AcDbEntity
  8
10000_FRONT
370
    50
390
0
  6
CONTINUOUS
 62
     7
100
AcDbLine
 10
116.096281
 20
175.297314
 30
0.0
 11
116.381859
 21
175.582125
 31
0.0
  0
LINE
  5
13C7
100
AcDbEntity
  8
10000_FRONT
370
    50
390
0
  6
CONTINUOUS
 62
     7
100
AcDbLine
 10
116.066039
 20
175.485001
 30
0.0
 11
116.19275
 21
175.611439
 31
0.0
  0
LINE
  5
13C8
100
AcDbEntity
  8
10000_FRONT
370
    50
390
0
  6
CONTINUOUS
 62
     7
100
AcDbLine
 10
106.595656
 20
177.643625
 30
0.0
 11
106.718156
 21
177.766125
 31
0.0
  0
LINE
  5
13C9
100
AcDbEntity
  8
10000_FRONT
370
    50
390
0
  6
CONTINUOUS
 62
     7
100
AcDbLine
 10
117.595656
 20
177.643625
 30
0.0
 11
117.718156
 21
177.766125
 31
0.0
  0
LINE
  5
13CA
100
AcDbEntity
  8
10000_FRONT
370
    50
390
0
  6
CONTINUOUS
 62
     7
100
AcDbLine
 10
108.058
 20
175.485874
 30
0.0
 11
108.1805
 21
175.608376
 31
0.0
  0
LINE
  5
13CB
100
AcDbEntity
  8
10000_FRONT
370
    50
390
0
  6
CONTINUOUS
 62
     7
100
AcDbLine
 10
119.058
 20
175.485874
 30
0.0
 11
119.1805
 21
175.608376
 31
0.0
  0
LINE
  5
13CC
100
AcDbEntity
  8
10000_FRONT
370
    50
390
0
  6
CONTINUOUS
 62
     7
100
AcDbLine
 10
90.539739
 20
148.968044
 30
0.0
 11
90.6965
 21
149.126068
 31
0.0
  0
LINE
  5
13CD
100
AcDbEntity
  8
10000_FRONT
370
    50
390
0
  6
CONTINUOUS
 62
     7
100
AcDbLine
 10
108.090539
 20
175.29775
 30
0.0
 11
108.3765
 21
175.5865
 31
0.0
  0
LINE
  5
13CE
100
AcDbEntity
  8
10000_FRONT
370
    50
390
0
  6
CONTINUOUS
 62
     7
100
AcDbLine
 10
119.090539
 20
175.29775
 30
0.0
 11
119.3765
 21
175.5865
 31
0.0
  0
LINE
  5
13CF
100
AcDbEntity
  8
10000_FRONT
370
    50
390
0
  6
CONTINUOUS
 62
     7
100
AcDbLine
 10
127.351164
 20
128.894081
 30
0.0
 11
127.372856
 21
128.916946
 31
0.0
  0
LINE
  5
13D0
100
AcDbEntity
  8
10000_FRONT
370
    50
390
0
  6
CONTINUOUS
 62
     7
100
AcDbLine
 10
82.627254
 20
198.083209
 30
0.0
 11
82.643505
 21
198.100586
 31
0.0
  0
LINE
  5
13D1
100
AcDbEntity
  8
10000_FRONT
370
    50
390
0
  6
CONTINUOUS
 62
     7
100
AcDbLine
 10
88.352972
 20
147.334202
 30
0.0
 11
89.154198
 21
148.234268
 31
0.0
  0
LINE
  5
13D2
100
AcDbEntity
  8
10000_FRONT
370
    50
390
0
  6
CONTINUOUS
 62
     7
100
AcDbLine
 10
88.643717
 20
147.471401
 30
0.0
 11
89.282823
 21
148.203949
 31
0.0
  0
LINE
  5
13D3
100
AcDbEntity
  8
10000_FRONT
370
    50
390
0
  6
CONTINUOUS
 62
     7
100
AcDbLine
 10
82.611521
 20
198.064653
 30
0.0
 11
82.627254
 21
198.083209
 31
0.0
  0
LINE
  5
13D4
100
AcDbEntity
  8
10000_FRONT
370
    50
390
0
  6
CONTINUOUS
 62
     7
100
AcDbLine
 10
127.372856
 20
128.916946
 30
0.0
 11
127.393848
 21
128.942131
 31
0.0
  0
LINE
  5
13D5
100
AcDbEntity
  8
10000_FRONT
370
    50
390
0
  6
CONTINUOUS
 62
     7
100
AcDbLine
 10
83.994164
 20
148.625351
 30
0.0
 11
84.597094
 21
149.3922
 31
0.0
  0
LINE
  5
13D6
100
AcDbEntity
  8
10000_FRONT
370
    50
390
0
  6
CONTINUOUS
 62
     7
100
AcDbLine
 10
83.732895
 20
148.485088
 30
0.0
 11
84.327785
 21
149.255001
 31
0.0
  0
LINE
  5
13D7
100
AcDbEntity
  8
10000_FRONT
370
    50
390
0
  6
CONTINUOUS
 62
     7
100
AcDbLine
 10
82.59642
 20
198.044982
 30
0.0
 11
82.611521
 21
198.064653
 31
0.0
  0
LINE
  5
13D8
100
AcDbEntity
  8
10000_FRONT
370
    50
390
0
  6
CONTINUOUS
 62
     7
100
AcDbLine
 10
82.829563
 20
136.276905
 30
0.0
 11
82.873268
 21
136.334999
 31
0.0
  0
LINE
  5
13D9
100
AcDbEntity
  8
10000_FRONT
370
    50
390
0
  6
CONTINUOUS
 62
     7
100
AcDbLine
 10
127.126732
 20
190.764879
 30
0.0
 11
127.170437
 21
190.822973
 31
0.0
  0
LINE
  5
13DA
100
AcDbEntity
  8
10000_FRONT
370
    50
390
0
  6
CONTINUOUS
 62
     7
100
AcDbLine
 10
89.282823
 20
148.203949
 30
0.0
 11
89.573569
 21
148.591049
 31
0.0
  0
LINE
  5
13DB
100
AcDbEntity
  8
10000_FRONT
370
    50
390
0
  6
CONTINUOUS
 62
     7
100
AcDbLine
 10
89.154198
 20
148.234268
 30
0.0
 11
89.439584
 21
148.614632
 31
0.0
  0
LINE
  5
13DC
100
AcDbEntity
  8
10000_FRONT
370
    50
390
0
  6
CONTINUOUS
 62
     7
100
AcDbLine
 10
127.393848
 20
128.942131
 30
0.0
 11
127.413803
 21
128.969521
 31
0.0
  0
LINE
  5
13DD
100
AcDbEntity
  8
10000_FRONT
370
    50
390
0
  6
CONTINUOUS
 62
     7
100
AcDbLine
 10
82.582067
 20
198.024263
 30
0.0
 11
82.59642
 21
198.044982
 31
0.0
  0
LINE
  5
13DE
100
AcDbEntity
  8
10000_FRONT
370
    50
390
0
  6
CONTINUOUS
 62
     7
100
AcDbLine
 10
84.37468
 20
147.620239
 30
0.0
 11
84.46043
 21
147.748863
 31
0.0
  0
LINE
  5
13DF
100
AcDbEntity
  8
10000_FRONT
370
    50
390
0
  6
CONTINUOUS
 62
     7
100
AcDbLine
 10
127.413803
 20
128.969521
 30
0.0
 11
127.432379
 21
128.999008
 31
0.0
  0
LINE
  5
13E0
100
AcDbEntity
  8
10000_FRONT
370
    50
390
0
  6
CONTINUOUS
 62
     7
100
AcDbLine
 10
82.568573
 20
198.002557
 30
0.0
 11
82.582067
 21
198.024263
 31
0.0
  0
LINE
  5
13E1
100
AcDbEntity
  8
10000_FRONT
370
    50
390
0
  6
CONTINUOUS
 62
     7
100
AcDbLine
 10
127.170437
 20
190.822973
 30
0.0
 11
127.206802
 21
190.886708
 31
0.0
  0
LINE
  5
13E2
100
AcDbEntity
  8
10000_FRONT
370
    50
390
0
  6
CONTINUOUS
 62
     7
100
AcDbLine
 10
82.793198
 20
136.213169
 30
0.0
 11
82.829563
 21
136.276905
 31
0.0
  0
LINE
  5
13E3
100
AcDbEntity
  8
10000_FRONT
370
    50
390
0
  6
CONTINUOUS
 62
     7
100
AcDbLine
 10
82.556051
 20
197.979932
 30
0.0
 11
82.568573
 21
198.002557
 31
0.0
  0
LINE
  5
13E4
100
AcDbEntity
  8
10000_FRONT
370
    50
390
0
  6
CONTINUOUS
 62
     7
100
AcDbLine
 10
127.432379
 20
128.999008
 30
0.0
 11
127.449236
 21
129.030495
 31
0.0
  0
LINE
  5
13E5
100
AcDbEntity
  8
10000_FRONT
370
    50
390
0
  6
CONTINUOUS
 62
     7
100
AcDbLine
 10
86.083391
 20
148.525818
 30
0.0
 11
86.1745
 21
148.704361
 31
0.0
  0
LINE
  5
13E6
100
AcDbEntity
  8
10000_FRONT
370
    50
390
0
  6
CONTINUOUS
 62
     7
100
AcDbLine
 10
112.050344
 20
176.858313
 30
0.0
 11
112.1805
 21
177.113375
 31
0.0
  0
LINE
  5
13E7
100
AcDbEntity
  8
10000_FRONT
370
    50
390
0
  6
CONTINUOUS
 62
     7
100
AcDbLine
 10
88.615582
 20
148.983051
 30
0.0
 11
88.70669
 21
149.163738
 31
0.0
  0
LINE
  5
13E8
100
AcDbEntity
  8
10000_FRONT
370
    50
390
0
  6
CONTINUOUS
 62
     7
100
AcDbLine
 10
89.573569
 20
148.591049
 30
0.0
 11
89.672717
 21
148.787968
 31
0.0
  0
LINE
  5
13E9
100
AcDbEntity
  8
10000_FRONT
370
    50
390
0
  6
CONTINUOUS
 62
     7
100
AcDbLine
 10
89.439584
 20
148.614632
 30
0.0
 11
89.532034
 21
148.802364
 31
0.0
  0
LINE
  5
13EA
100
AcDbEntity
  8
10000_FRONT
370
    50
390
0
  6
CONTINUOUS
 62
     7
100
AcDbLine
 10
82.544617
 20
197.95645
 30
0.0
 11
82.556051
 21
197.979932
 31
0.0
  0
LINE
  5
13EB
100
AcDbEntity
  8
10000_FRONT
370
    50
390
0
  6
CONTINUOUS
 62
     7
100
AcDbLine
 10
88.476236
 20
148.993771
 30
0.0
 11
88.574045
 21
149.194668
 31
0.0
  0
LINE
  5
13EC
100
AcDbEntity
  8
10000_FRONT
370
    50
390
0
  6
CONTINUOUS
 62
     7
100
AcDbLine
 10
86.214159
 20
148.493664
 30
0.0
 11
86.311701
 21
148.694256
 31
0.0
  0
LINE
  5
13ED
100
AcDbEntity
  8
10000_FRONT
370
    50
390
0
  6
CONTINUOUS
 62
     7
100
AcDbLine
 10
112.237156
 20
176.812374
 30
0.0
 11
112.3765
 21
177.098938
 31
0.0
  0
LINE
  5
13EE
100
AcDbEntity
  8
10000_FRONT
370
    50
390
0
  6
CONTINUOUS
 62
     7
100
AcDbLine
 10
82.763487
 20
136.1502
 30
0.0
 11
82.793198
 21
136.213169
 31
0.0
  0
LINE
  5
13EF
100
AcDbEntity
  8
10000_FRONT
370
    50
390
0
  6
CONTINUOUS
 62
     7
100
AcDbLine
 10
127.206802
 20
190.886708
 30
0.0
 11
127.236513
 21
190.949678
 31
0.0
  0
LINE
  5
13F0
100
AcDbEntity
  8
10000_FRONT
370
    50
390
0
  6
CONTINUOUS
 62
     7
100
AcDbLine
 10
127.449236
 20
129.030495
 30
0.0
 11
127.464037
 21
129.063866
 31
0.0
  0
LINE
  5
13F1
100
AcDbEntity
  8
10000_FRONT
370
    50
390
0
  6
CONTINUOUS
 62
     7
100
AcDbLine
 10
125.893772
 20
190.695016
 30
0.0
 11
125.92977
 21
190.776453
 31
0.0
  0
LINE
  5
13F2
100
AcDbEntity
  8
10000_FRONT
370
    50
390
0
  6
CONTINUOUS
 62
     7
100
AcDbLine
 10
91.493773
 20
190.695016
 30
0.0
 11
91.529771
 21
190.776453
 31
0.0
  0
LINE
  5
13F3
100
AcDbEntity
  8
10000_FRONT
370
    50
390
0
  6
CONTINUOUS
 62
     7
100
AcDbLine
 10
117.293773
 20
190.695016
 30
0.0
 11
117.32977
 21
190.776453
 31
0.0
  0
LINE
  5
13F4
100
AcDbEntity
  8
10000_FRONT
370
    50
390
0
  6
CONTINUOUS
 62
     7
100
AcDbLine
 10
108.693773
 20
190.695016
 30
0.0
 11
108.72977
 21
190.776453
 31
0.0
  0
LINE
  5
13F5
100
AcDbEntity
  8
10000_FRONT
370
    50
390
0
  6
CONTINUOUS
 62
     7
100
AcDbLine
 10
100.093773
 20
190.695016
 30
0.0
 11
100.12977
 21
190.776453
 31
0.0
  0
LINE
  5
13F6
100
AcDbEntity
  8
10000_FRONT
370
    50
390
0
  6
CONTINUOUS
 62
     7
100
AcDbLine
 10
109.870182
 20
136.323433
 30
0.0
 11
109.90617
 21
136.404861
 31
0.0
  0
LINE
  5
13F7
100
AcDbEntity
  8
10000_FRONT
370
    50
390
0
  6
CONTINUOUS
 62
     7
100
AcDbLine
 10
101.270182
 20
136.323433
 30
0.0
 11
101.30617
 21
136.404861
 31
0.0
  0
LINE
  5
13F8
100
AcDbEntity
  8
10000_FRONT
370
    50
390
0
  6
CONTINUOUS
 62
     7
100
AcDbLine
 10
92.670182
 20
136.323433
 30
0.0
 11
92.70617
 21
136.404861
 31
0.0
  0
LINE
  5
13F9
100
AcDbEntity
  8
10000_FRONT
370
    50
390
0
  6
CONTINUOUS
 62
     7
100
AcDbLine
 10
84.070183
 20
136.323433
 30
0.0
 11
84.106171
 21
136.404861
 31
0.0
  0
LINE
  5
13FA
100
AcDbEntity
  8
10000_FRONT
370
    50
390
0
  6
CONTINUOUS
 62
     7
100
AcDbLine
 10
118.470182
 20
136.323433
 30
0.0
 11
118.506169
 21
136.404861
 31
0.0
  0
LINE
  5
13FB
100
AcDbEntity
  8
10000_FRONT
370
    50
390
0
  6
CONTINUOUS
 62
     7
100
AcDbLine
 10
90.933537
 20
175.450001
 30
0.0
 11
91.532284
 21
176.857365
 31
0.0
  0
LINE
  5
13FC
100
AcDbEntity
  8
10000_FRONT
370
    50
390
0
  6
CONTINUOUS
 62
     7
100
AcDbLine
 10
90.836318
 20
176.281765
 30
0.0
 11
91.387227
 21
177.579565
 31
0.0
  0
LINE
  5
13FD
100
AcDbEntity
  8
10000_FRONT
370
    50
390
0
  6
CONTINUOUS
 62
     7
100
AcDbLine
 10
82.534382
 20
197.932175
 30
0.0
 11
82.544617
 21
197.95645
 31
0.0
  0
LINE
  5
13FE
100
AcDbEntity
  8
10000_FRONT
370
    50
390
0
  6
CONTINUOUS
 62
     7
100
AcDbLine
 10
127.236513
 20
190.949678
 30
0.0
 11
127.262449
 21
191.012902
 31
0.0
  0
LINE
  5
13FF
100
AcDbEntity
  8
10000_FRONT
370
    50
390
0
  6
CONTINUOUS
 62
     7
100
AcDbLine
 10
82.737551
 20
136.086975
 30
0.0
 11
82.763487
 21
136.1502
 31
0.0
  0
LINE
  5
1400
100
AcDbEntity
  8
10000_FRONT
370
    50
390
0
  6
CONTINUOUS
 62
     7
100
AcDbLine
 10
117.32977
 20
190.776453
 30
0.0
 11
117.362409
 21
190.859226
 31
0.0
  0
LINE
  5
1401
100
AcDbEntity
  8
10000_FRONT
370
    50
390
0
  6
CONTINUOUS
 62
     7
100
AcDbLine
 10
108.72977
 20
190.776453
 30
0.0
 11
108.762409
 21
190.859226
 31
0.0
  0
LINE
  5
1402
100
AcDbEntity
  8
10000_FRONT
370
    50
390
0
  6
CONTINUOUS
 62
     7
100
AcDbLine
 10
100.12977
 20
190.776453
 30
0.0
 11
100.162409
 21
190.859226
 31
0.0
  0
LINE
  5
1403
100
AcDbEntity
  8
10000_FRONT
370
    50
390
0
  6
CONTINUOUS
 62
     7
100
AcDbLine
 10
125.92977
 20
190.776453
 30
0.0
 11
125.962408
 21
190.859226
 31
0.0
  0
LINE
  5
1404
100
AcDbEntity
  8
10000_FRONT
370
    50
390
0
  6
CONTINUOUS
 62
     7
100
AcDbLine
 10
91.529771
 20
190.776453
 30
0.0
 11
91.562408
 21
190.859226
 31
0.0
  0
LINE
  5
1405
100
AcDbEntity
  8
10000_FRONT
370
    50
390
0
  6
CONTINUOUS
 62
     7
100
AcDbLine
 10
92.637549
 20
136.240665
 30
0.0
 11
92.670182
 21
136.323433
 31
0.0
  0
LINE
  5
1406
100
AcDbEntity
  8
10000_FRONT
370
    50
390
0
  6
CONTINUOUS
 62
     7
100
AcDbLine
 10
84.037552
 20
136.240669
 30
0.0
 11
84.070183
 21
136.323433
 31
0.0
  0
LINE
  5
1407
100
AcDbEntity
  8
10000_FRONT
370
    50
390
0
  6
CONTINUOUS
 62
     7
100
AcDbLine
 10
118.437552
 20
136.240669
 30
0.0
 11
118.470182
 21
136.323433
 31
0.0
  0
LINE
  5
1408
100
AcDbEntity
  8
10000_FRONT
370
    50
390
0
  6
CONTINUOUS
 62
     7
100
AcDbLine
 10
109.837553
 20
136.240669
 30
0.0
 11
109.870182
 21
136.323433
 31
0.0
  0
LINE
  5
1409
100
AcDbEntity
  8
10000_FRONT
370
    50
390
0
  6
CONTINUOUS
 62
     7
100
AcDbLine
 10
101.237553
 20
136.240669
 30
0.0
 11
101.270182
 21
136.323433
 31
0.0
  0
LINE
  5
140A
100
AcDbEntity
  8
10000_FRONT
370
    50
390
0
  6
CONTINUOUS
 62
     7
100
AcDbLine
 10
82.714123
 20
136.022015
 30
0.0
 11
82.737551
 21
136.086975
 31
0.0
  0
LINE
  5
140B
100
AcDbEntity
  8
10000_FRONT
370
    50
390
0
  6
CONTINUOUS
 62
     7
100
AcDbLine
 10
127.262449
 20
191.012902
 30
0.0
 11
127.285877
 21
191.077863
 31
0.0
  0
LINE
  5
140C
100
AcDbEntity
  8
10000_FRONT
370
    50
390
0
  6
CONTINUOUS
 62
     7
100
AcDbLine
 10
82.525423
 20
197.907201
 30
0.0
 11
82.534382
 21
197.932175
 31
0.0
  0
LINE
  5
140D
100
AcDbEntity
  8
10000_FRONT
370
    50
390
0
  6
CONTINUOUS
 62
     7
100
AcDbLine
 10
127.464037
 20
129.063866
 30
0.0
 11
127.476532
 21
129.098915
 31
0.0
  0
LINE
  5
140E
100
AcDbEntity
  8
10000_FRONT
370
    50
390
0
  6
CONTINUOUS
 62
     7
100
AcDbLine
 10
125.962408
 20
190.859226
 30
0.0
 11
125.991629
 21
190.943128
 31
0.0
  0
LINE
  5
140F
100
AcDbEntity
  8
10000_FRONT
370
    50
390
0
  6
CONTINUOUS
 62
     7
100
AcDbLine
 10
91.562408
 20
190.859226
 30
0.0
 11
91.591628
 21
190.943128
 31
0.0
  0
LINE
  5
1410
100
AcDbEntity
  8
10000_FRONT
370
    50
390
0
  6
CONTINUOUS
 62
     7
100
AcDbLine
 10
117.362409
 20
190.859226
 30
0.0
 11
117.391628
 21
190.943128
 31
0.0
  0
LINE
  5
1411
100
AcDbEntity
  8
10000_FRONT
370
    50
390
0
  6
CONTINUOUS
 62
     7
100
AcDbLine
 10
108.762409
 20
190.859226
 30
0.0
 11
108.791628
 21
190.943128
 31
0.0
  0
LINE
  5
1412
100
AcDbEntity
  8
10000_FRONT
370
    50
390
0
  6
CONTINUOUS
 62
     7
100
AcDbLine
 10
100.162409
 20
190.859226
 30
0.0
 11
100.191628
 21
190.943128
 31
0.0
  0
LINE
  5
1413
100
AcDbEntity
  8
10000_FRONT
370
    50
390
0
  6
CONTINUOUS
 62
     7
100
AcDbLine
 10
118.408341
 20
136.15678
 30
0.0
 11
118.437552
 21
136.240669
 31
0.0
  0
LINE
  5
1414
100
AcDbEntity
  8
10000_FRONT
370
    50
390
0
  6
CONTINUOUS
 62
     7
100
AcDbLine
 10
109.808342
 20
136.15678
 30
0.0
 11
109.837553
 21
136.240669
 31
0.0
  0
LINE
  5
1415
100
AcDbEntity
  8
10000_FRONT
370
    50
390
0
  6
CONTINUOUS
 62
     7
100
AcDbLine
 10
101.208342
 20
136.15678
 30
0.0
 11
101.237553
 21
136.240669
 31
0.0
  0
LINE
  5
1416
100
AcDbEntity
  8
10000_FRONT
370
    50
390
0
  6
CONTINUOUS
 62
     7
100
AcDbLine
 10
84.008341
 20
136.15678
 30
0.0
 11
84.037552
 21
136.240669
 31
0.0
  0
LINE
  5
1417
100
AcDbEntity
  8
10000_FRONT
370
    50
390
0
  6
CONTINUOUS
 62
     7
100
AcDbLine
 10
92.608336
 20
136.156769
 30
0.0
 11
92.637549
 21
136.240665
 31
0.0
  0
LINE
  5
1418
100
AcDbEntity
  8
10000_FRONT
370
    50
390
0
  6
CONTINUOUS
 62
     7
100
AcDbLine
 10
84.46043
 20
147.748863
 30
0.0
 11
84.523403
 21
147.934143
 31
0.0
  0
LINE
  5
1419
100
AcDbEntity
  8
10000_FRONT
370
    50
390
0
  6
CONTINUOUS
 62
     7
100
AcDbLine
 10
116.19275
 20
175.611439
 30
0.0
 11
116.3275
 21
176.011312
 31
0.0
  0
LINE
  5
141A
100
AcDbEntity
  8
10000_FRONT
370
    50
390
0
  6
CONTINUOUS
 62
     7
100
AcDbLine
 10
116.381859
 20
175.582125
 30
0.0
 11
116.5235
 21
176.004749
 31
0.0
  0
LINE
  5
141B
100
AcDbEntity
  8
10000_FRONT
370
    50
390
0
  6
CONTINUOUS
 62
     7
100
AcDbLine
 10
84.564938
 20
147.632488
 30
0.0
 11
84.662746
 21
147.928326
 31
0.0
  0
LINE
  5
141C
100
AcDbEntity
  8
10000_FRONT
370
    50
390
0
  6
CONTINUOUS
 62
     7
100
AcDbLine
 10
127.285877
 20
191.077863
 30
0.0
 11
127.307144
 21
191.144355
 31
0.0
  0
LINE
  5
141D
100
AcDbEntity
  8
10000_FRONT
370
    50
390
0
  6
CONTINUOUS
 62
     7
100
AcDbLine
 10
82.692856
 20
135.955521
 30
0.0
 11
82.714123
 21
136.022015
 31
0.0
  0
LINE
  5
141E
100
AcDbEntity
  8
10000_FRONT
370
    50
390
0
  6
CONTINUOUS
 62
     7
100
AcDbLine
 10
117.391628
 20
190.943128
 30
0.0
 11
117.41739
 21
191.027914
 31
0.0
  0
LINE
  5
141F
100
AcDbEntity
  8
10000_FRONT
370
    50
390
0
  6
CONTINUOUS
 62
     7
100
AcDbLine
 10
108.791628
 20
190.943128
 30
0.0
 11
108.81739
 21
191.027914
 31
0.0
  0
LINE
  5
1420
100
AcDbEntity
  8
10000_FRONT
370
    50
390
0
  6
CONTINUOUS
 62
     7
100
AcDbLine
 10
100.191628
 20
190.943128
 30
0.0
 11
100.21739
 21
191.027914
 31
0.0
  0
LINE
  5
1421
100
AcDbEntity
  8
10000_FRONT
370
    50
390
0
  6
CONTINUOUS
 62
     7
100
AcDbLine
 10
91.591628
 20
190.943128
 30
0.0
 11
91.61739
 21
191.027914
 31
0.0
  0
LINE
  5
1422
100
AcDbEntity
  8
10000_FRONT
370
    50
390
0
  6
CONTINUOUS
 62
     7
100
AcDbLine
 10
125.991629
 20
190.943128
 30
0.0
 11
126.017389
 21
191.027914
 31
0.0
  0
LINE
  5
1423
100
AcDbEntity
  8
10000_FRONT
370
    50
390
0
  6
CONTINUOUS
 62
     7
100
AcDbLine
 10
118.382586
 20
136.072002
 30
0.0
 11
118.408341
 21
136.15678
 31
0.0
  0
LINE
  5
1424
100
AcDbEntity
  8
10000_FRONT
370
    50
390
0
  6
CONTINUOUS
 62
     7
100
AcDbLine
 10
109.782587
 20
136.072002
 30
0.0
 11
109.808342
 21
136.15678
 31
0.0
  0
LINE
  5
1425
100
AcDbEntity
  8
10000_FRONT
370
    50
390
0
  6
CONTINUOUS
 62
     7
100
AcDbLine
 10
101.182587
 20
136.072002
 30
0.0
 11
101.208342
 21
136.15678
 31
0.0
  0
LINE
  5
1426
100
AcDbEntity
  8
10000_FRONT
370
    50
390
0
  6
CONTINUOUS
 62
     7
100
AcDbLine
 10
83.982586
 20
136.072002
 30
0.0
 11
84.008341
 21
136.15678
 31
0.0
  0
LINE
  5
1427
100
AcDbEntity
  8
10000_FRONT
370
    50
390
0
  6
CONTINUOUS
 62
     7
100
AcDbLine
 10
92.582581
 20
136.071983
 30
0.0
 11
92.608336
 21
136.156769
 31
0.0
  0
LINE
  5
1428
100
AcDbEntity
  8
10000_FRONT
370
    50
390
0
  6
CONTINUOUS
 62
     7
100
AcDbLine
 10
82.517767
 20
197.881657
 30
0.0
 11
82.525423
 21
197.907201
 31
0.0
  0
LINE
  5
1429
100
AcDbEntity
  8
10000_FRONT
370
    50
390
0
  6
CONTINUOUS
 62
     7
100
AcDbLine
 10
108.79387
 20
133.549942
 30
0.0
 11
108.822386
 21
133.645912
 31
0.0
  0
LINE
  5
142A
100
AcDbEntity
  8
10000_FRONT
370
    50
390
0
  6
CONTINUOUS
 62
     7
100
AcDbLine
 10
125.99387
 20
133.549942
 30
0.0
 11
126.022385
 21
133.645912
 31
0.0
  0
LINE
  5
142B
100
AcDbEntity
  8
10000_FRONT
370
    50
390
0
  6
CONTINUOUS
 62
     7
100
AcDbLine
 10
117.39387
 20
133.549942
 30
0.0
 11
117.422385
 21
133.645912
 31
0.0
  0
LINE
  5
142C
100
AcDbEntity
  8
10000_FRONT
370
    50
390
0
  6
CONTINUOUS
 62
     7
100
AcDbLine
 10
100.19387
 20
133.549942
 30
0.0
 11
100.222385
 21
133.645912
 31
0.0
  0
LINE
  5
142D
100
AcDbEntity
  8
10000_FRONT
370
    50
390
0
  6
CONTINUOUS
 62
     7
100
AcDbLine
 10
91.59387
 20
133.549942
 30
0.0
 11
91.622385
 21
133.645912
 31
0.0
  0
LINE
  5
142E
100
AcDbEntity
  8
10000_FRONT
370
    50
390
0
  6
CONTINUOUS
 62
     7
100
AcDbLine
 10
118.377585
 20
193.453985
 30
0.0
 11
118.406091
 21
193.549939
 31
0.0
  0
LINE
  5
142F
100
AcDbEntity
  8
10000_FRONT
370
    50
390
0
  6
CONTINUOUS
 62
     7
100
AcDbLine
 10
83.977585
 20
193.453985
 30
0.0
 11
84.00609
 21
193.549939
 31
0.0
  0
LINE
  5
1430
100
AcDbEntity
  8
10000_FRONT
370
    50
390
0
  6
CONTINUOUS
 62
     7
100
AcDbLine
 10
92.577581
 20
193.453968
 30
0.0
 11
92.606091
 21
193.549939
 31
0.0
  0
LINE
  5
1431
100
AcDbEntity
  8
10000_FRONT
370
    50
390
0
  6
CONTINUOUS
 62
     7
100
AcDbLine
 10
109.777586
 20
193.453985
 30
0.0
 11
109.80609
 21
193.549939
 31
0.0
  0
LINE
  5
1432
100
AcDbEntity
  8
10000_FRONT
370
    50
390
0
  6
CONTINUOUS
 62
     7
100
AcDbLine
 10
101.177586
 20
193.453985
 30
0.0
 11
101.20609
 21
193.549939
 31
0.0
  0
LINE
  5
1433
100
AcDbEntity
  8
10000_FRONT
370
    50
390
0
  6
CONTINUOUS
 62
     7
100
AcDbLine
 10
82.673405
 20
135.887703
 30
0.0
 11
82.692856
 21
135.955521
 31
0.0
  0
LINE
  5
1434
100
AcDbEntity
  8
10000_FRONT
370
    50
390
0
  6
CONTINUOUS
 62
     7
100
AcDbLine
 10
127.307144
 20
191.144355
 30
0.0
 11
127.326595
 21
191.212174
 31
0.0
  0
LINE
  5
1435
100
AcDbEntity
  8
10000_FRONT
370
    50
390
0
  6
CONTINUOUS
 62
     7
100
AcDbLine
 10
127.476532
 20
129.098915
 30
0.0
 11
127.486544
 21
129.135345
 31
0.0
  0
LINE
  5
1436
100
AcDbEntity
  8
10000_FRONT
370
    50
390
0
  6
CONTINUOUS
 62
     7
100
AcDbLine
 10
109.449999
 20
156.076202
 30
0.0
 11
109.699999
 21
157.009216
 31
0.0
  0
LINE
  5
1437
100
AcDbEntity
  8
10000_FRONT
370
    50
390
0
  6
CONTINUOUS
 62
     7
100
AcDbLine
 10
82.65542
 20
135.818764
 30
0.0
 11
82.673405
 21
135.887703
 31
0.0
  0
LINE
  5
1438
100
AcDbEntity
  8
10000_FRONT
370
    50
390
0
  6
CONTINUOUS
 62
     7
100
AcDbLine
 10
127.326595
 20
191.212174
 30
0.0
 11
127.34458
 21
191.281115
 31
0.0
  0
LINE
  5
1439
100
AcDbEntity
  8
10000_FRONT
370
    50
390
0
  6
CONTINUOUS
 62
     7
100
AcDbLine
 10
126.017389
 20
191.027914
 30
0.0
 11
126.039658
 21
191.113336
 31
0.0
  0
LINE
  5
143A
100
AcDbEntity
  8
10000_FRONT
370
    50
390
0
  6
CONTINUOUS
 62
     7
100
AcDbLine
 10
117.41739
 20
191.027914
 30
0.0
 11
117.439657
 21
191.113336
 31
0.0
  0
LINE
  5
143B
100
AcDbEntity
  8
10000_FRONT
370
    50
390
0
  6
CONTINUOUS
 62
     7
100
AcDbLine
 10
108.81739
 20
191.027914
 30
0.0
 11
108.839657
 21
191.113336
 31
0.0
  0
LINE
  5
143C
100
AcDbEntity
  8
10000_FRONT
370
    50
390
0
  6
CONTINUOUS
 62
     7
100
AcDbLine
 10
100.21739
 20
191.027914
 30
0.0
 11
100.239657
 21
191.113336
 31
0.0
  0
LINE
  5
143D
100
AcDbEntity
  8
10000_FRONT
370
    50
390
0
  6
CONTINUOUS
 62
     7
100
AcDbLine
 10
91.61739
 20
191.027914
 30
0.0
 11
91.639657
 21
191.113336
 31
0.0
  0
LINE
  5
143E
100
AcDbEntity
  8
10000_FRONT
370
    50
390
0
  6
CONTINUOUS
 62
     7
100
AcDbLine
 10
109.760326
 20
135.986591
 30
0.0
 11
109.782587
 21
136.072002
 31
0.0
  0
LINE
  5
143F
100
AcDbEntity
  8
10000_FRONT
370
    50
390
0
  6
CONTINUOUS
 62
     7
100
AcDbLine
 10
101.160326
 20
135.986591
 30
0.0
 11
101.182587
 21
136.072002
 31
0.0
  0
LINE
  5
1440
100
AcDbEntity
  8
10000_FRONT
370
    50
390
0
  6
CONTINUOUS
 62
     7
100
AcDbLine
 10
83.960325
 20
135.986591
 30
0.0
 11
83.982586
 21
136.072002
 31
0.0
  0
LINE
  5
1441
100
AcDbEntity
  8
10000_FRONT
370
    50
390
0
  6
CONTINUOUS
 62
     7
100
AcDbLine
 10
118.360326
 20
135.986591
 30
0.0
 11
118.382586
 21
136.072002
 31
0.0
  0
LINE
  5
1442
100
AcDbEntity
  8
10000_FRONT
370
    50
390
0
  6
CONTINUOUS
 62
     7
100
AcDbLine
 10
92.560319
 20
135.986561
 30
0.0
 11
92.582581
 21
136.071983
 31
0.0
  0
LINE
  5
1443
100
AcDbEntity
  8
10000_FRONT
370
    50
390
0
  6
CONTINUOUS
 62
     7
100
AcDbLine
 10
117.422385
 20
133.645912
 30
0.0
 11
117.44646
 21
133.742638
 31
0.0
  0
LINE
  5
1444
100
AcDbEntity
  8
10000_FRONT
370
    50
390
0
  6
CONTINUOUS
 62
     7
100
AcDbLine
 10
100.222385
 20
133.645912
 30
0.0
 11
100.24646
 21
133.742638
 31
0.0
  0
LINE
  5
1445
100
AcDbEntity
  8
10000_FRONT
370
    50
390
0
  6
CONTINUOUS
 62
     7
100
AcDbLine
 10
91.622385
 20
133.645912
 30
0.0
 11
91.64646
 21
133.742638
 31
0.0
  0
LINE
  5
1446
100
AcDbEntity
  8
10000_FRONT
370
    50
390
0
  6
CONTINUOUS
 62
     7
100
AcDbLine
 10
126.022385
 20
133.645912
 30
0.0
 11
126.046459
 21
133.742638
 31
0.0
  0
LINE
  5
1447
100
AcDbEntity
  8
10000_FRONT
370
    50
390
0
  6
CONTINUOUS
 62
     7
100
AcDbLine
 10
108.822386
 20
133.645912
 30
0.0
 11
108.84646
 21
133.742638
 31
0.0
  0
LINE
  5
1448
100
AcDbEntity
  8
10000_FRONT
370
    50
390
0
  6
CONTINUOUS
 62
     7
100
AcDbLine
 10
109.75352
 20
193.357276
 30
0.0
 11
109.777586
 21
193.453985
 31
0.0
  0
LINE
  5
1449
100
AcDbEntity
  8
10000_FRONT
370
    50
390
0
  6
CONTINUOUS
 62
     7
100
AcDbLine
 10
101.15352
 20
193.357276
 30
0.0
 11
101.177586
 21
193.453985
 31
0.0
  0
LINE
  5
144A
100
AcDbEntity
  8
10000_FRONT
370
    50
390
0
  6
CONTINUOUS
 62
     7
100
AcDbLine
 10
118.35352
 20
193.357276
 30
0.0
 11
118.377585
 21
193.453985
 31
0.0
  0
LINE
  5
144B
100
AcDbEntity
  8
10000_FRONT
370
    50
390
0
  6
CONTINUOUS
 62
     7
100
AcDbLine
 10
83.95352
 20
193.357276
 30
0.0
 11
83.977585
 21
193.453985
 31
0.0
  0
LINE
  5
144C
100
AcDbEntity
  8
10000_FRONT
370
    50
390
0
  6
CONTINUOUS
 62
     7
100
AcDbLine
 10
92.553513
 20
193.357241
 30
0.0
 11
92.577581
 21
193.453968
 31
0.0
  0
LINE
  5
144D
100
AcDbEntity
  8
10000_FRONT
370
    50
390
0
  6
CONTINUOUS
 62
     7
100
AcDbLine
 10
82.511442
 20
197.855674
 30
0.0
 11
82.517767
 21
197.881657
 31
0.0
  0
LINE
  5
144E
100
AcDbEntity
  8
10000_FRONT
370
    50
390
0
  6
CONTINUOUS
 62
     7
100
AcDbLine
 10
127.34458
 20
191.281115
 30
0.0
 11
127.361271
 21
191.351013
 31
0.0
  0
LINE
  5
144F
100
AcDbEntity
  8
10000_FRONT
370
    50
390
0
  6
CONTINUOUS
 62
     7
100
AcDbLine
 10
82.638729
 20
135.748863
 30
0.0
 11
82.65542
 21
135.818764
 31
0.0
  0
LINE
  5
1450
100
AcDbEntity
  8
10000_FRONT
370
    50
390
0
  6
CONTINUOUS
 62
     7
100
AcDbLine
 10
108.839657
 20
191.113336
 30
0.0
 11
108.858391
 21
191.199148
 31
0.0
  0
LINE
  5
1451
100
AcDbEntity
  8
10000_FRONT
370
    50
390
0
  6
CONTINUOUS
 62
     7
100
AcDbLine
 10
91.639657
 20
191.113336
 30
0.0
 11
91.658391
 21
191.199148
 31
0.0
  0
LINE
  5
1452
100
AcDbEntity
  8
10000_FRONT
370
    50
390
0
  6
CONTINUOUS
 62
     7
100
AcDbLine
 10
117.439657
 20
191.113336
 30
0.0
 11
117.45839
 21
191.199148
 31
0.0
  0
LINE
  5
1453
100
AcDbEntity
  8
10000_FRONT
370
    50
390
0
  6
CONTINUOUS
 62
     7
100
AcDbLine
 10
100.239657
 20
191.113336
 30
0.0
 11
100.25839
 21
191.199148
 31
0.0
  0
LINE
  5
1454
100
AcDbEntity
  8
10000_FRONT
370
    50
390
0
  6
CONTINUOUS
 62
     7
100
AcDbLine
 10
126.039658
 20
191.113336
 30
0.0
 11
126.05839
 21
191.199148
 31
0.0
  0
LINE
  5
1455
100
AcDbEntity
  8
10000_FRONT
370
    50
390
0
  6
CONTINUOUS
 62
     7
100
AcDbLine
 10
118.341598
 20
135.900791
 30
0.0
 11
118.360326
 21
135.986591
 31
0.0
  0
LINE
  5
1456
100
AcDbEntity
  8
10000_FRONT
370
    50
390
0
  6
CONTINUOUS
 62
     7
100
AcDbLine
 10
109.741598
 20
135.900791
 30
0.0
 11
109.760326
 21
135.986591
 31
0.0
  0
LINE
  5
1457
100
AcDbEntity
  8
10000_FRONT
370
    50
390
0
  6
CONTINUOUS
 62
     7
100
AcDbLine
 10
101.141598
 20
135.900791
 30
0.0
 11
101.160326
 21
135.986591
 31
0.0
  0
LINE
  5
1458
100
AcDbEntity
  8
10000_FRONT
370
    50
390
0
  6
CONTINUOUS
 62
     7
100
AcDbLine
 10
83.941597
 20
135.900791
 30
0.0
 11
83.960325
 21
135.986591
 31
0.0
  0
LINE
  5
1459
100
AcDbEntity
  8
10000_FRONT
370
    50
390
0
  6
CONTINUOUS
 62
     7
100
AcDbLine
 10
92.54159
 20
135.900749
 30
0.0
 11
92.560319
 21
135.986561
 31
0.0
  0
LINE
  5
145A
100
AcDbEntity
  8
10000_FRONT
370
    50
390
0
  6
CONTINUOUS
 62
     7
100
AcDbLine
 10
82.623299
 20
135.678139
 30
0.0
 11
82.638729
 21
135.748863
 31
0.0
  0
LINE
  5
145B
100
AcDbEntity
  8
10000_FRONT
370
    50
390
0
  6
CONTINUOUS
 62
     7
100
AcDbLine
 10
127.361271
 20
191.351013
 30
0.0
 11
127.376701
 21
191.421737
 31
0.0
  0
LINE
  5
145C
100
AcDbEntity
  8
10000_FRONT
370
    50
390
0
  6
CONTINUOUS
 62
     7
100
AcDbLine
 10
126.046459
 20
133.742638
 30
0.0
 11
126.066006
 21
133.839775
 31
0.0
  0
LINE
  5
145D
100
AcDbEntity
  8
10000_FRONT
370
    50
390
0
  6
CONTINUOUS
 62
     7
100
AcDbLine
 10
117.44646
 20
133.742638
 30
0.0
 11
117.466006
 21
133.839775
 31
0.0
  0
LINE
  5
145E
100
AcDbEntity
  8
10000_FRONT
370
    50
390
0
  6
CONTINUOUS
 62
     7
100
AcDbLine
 10
108.84646
 20
133.742638
 30
0.0
 11
108.866006
 21
133.839775
 31
0.0
  0
LINE
  5
145F
100
AcDbEntity
  8
10000_FRONT
370
    50
390
0
  6
CONTINUOUS
 62
     7
100
AcDbLine
 10
100.24646
 20
133.742638
 30
0.0
 11
100.266006
 21
133.839775
 31
0.0
  0
LINE
  5
1460
100
AcDbEntity
  8
10000_FRONT
370
    50
390
0
  6
CONTINUOUS
 62
     7
100
AcDbLine
 10
91.64646
 20
133.742638
 30
0.0
 11
91.666006
 21
133.839775
 31
0.0
  0
LINE
  5
1461
100
AcDbEntity
  8
10000_FRONT
370
    50
390
0
  6
CONTINUOUS
 62
     7
100
AcDbLine
 10
109.733981
 20
193.260154
 30
0.0
 11
109.75352
 21
193.357276
 31
0.0
  0
LINE
  5
1462
100
AcDbEntity
  8
10000_FRONT
370
    50
390
0
  6
CONTINUOUS
 62
     7
100
AcDbLine
 10
101.133981
 20
193.260154
 30
0.0
 11
101.15352
 21
193.357276
 31
0.0
  0
LINE
  5
1463
100
AcDbEntity
  8
10000_FRONT
370
    50
390
0
  6
CONTINUOUS
 62
     7
100
AcDbLine
 10
83.933981
 20
193.260154
 30
0.0
 11
83.95352
 21
193.357276
 31
0.0
  0
LINE
  5
1464
100
AcDbEntity
  8
10000_FRONT
370
    50
390
0
  6
CONTINUOUS
 62
     7
100
AcDbLine
 10
118.333982
 20
193.260154
 30
0.0
 11
118.35352
 21
193.357276
 31
0.0
  0
LINE
  5
1465
100
AcDbEntity
  8
10000_FRONT
370
    50
390
0
  6
CONTINUOUS
 62
     7
100
AcDbLine
 10
92.533972
 20
193.260104
 30
0.0
 11
92.553513
 21
193.357241
 31
0.0
  0
LINE
  5
1466
100
AcDbEntity
  8
10000_FRONT
370
    50
390
0
  6
CONTINUOUS
 62
     7
100
AcDbLine
 10
82.609053
 20
135.606731
 30
0.0
 11
82.623299
 21
135.678139
 31
0.0
  0
LINE
  5
1467
100
AcDbEntity
  8
10000_FRONT
370
    50
390
0
  6
CONTINUOUS
 62
     7
100
AcDbLine
 10
127.376701
 20
191.421737
 30
0.0
 11
127.390947
 21
191.493146
 31
0.0
  0
LINE
  5
1468
100
AcDbEntity
  8
10000_FRONT
370
    50
390
0
  6
CONTINUOUS
 62
     7
100
AcDbLine
 10
127.486544
 20
129.135345
 30
0.0
 11
127.493906
 21
129.172867
 31
0.0
  0
LINE
  5
1469
100
AcDbEntity
  8
10000_FRONT
370
    50
390
0
  6
CONTINUOUS
 62
     7
100
AcDbLine
 10
82.506477
 20
197.829385
 30
0.0
 11
82.511442
 21
197.855674
 31
0.0
  0
LINE
  5
146A
100
AcDbEntity
  8
10000_FRONT
370
    50
390
0
  6
CONTINUOUS
 62
     7
100
AcDbLine
 10
127.390947
 20
191.493146
 30
0.0
 11
127.404089
 21
191.565101
 31
0.0
  0
LINE
  5
146B
100
AcDbEntity
  8
10000_FRONT
370
    50
390
0
  6
CONTINUOUS
 62
     7
100
AcDbLine
 10
82.595911
 20
135.534775
 30
0.0
 11
82.609053
 21
135.606731
 31
0.0
  0
LINE
  5
146C
100
AcDbEntity
  8
10000_FRONT
370
    50
390
0
  6
CONTINUOUS
 62
     7
100
AcDbLine
 10
117.45839
 20
191.199148
 30
0.0
 11
117.473569
 21
191.285099
 31
0.0
  0
LINE
  5
146D
100
AcDbEntity
  8
10000_FRONT
370
    50
390
0
  6
CONTINUOUS
 62
     7
100
AcDbLine
 10
100.25839
 20
191.199148
 30
0.0
 11
100.273569
 21
191.285099
 31
0.0
  0
LINE
  5
146E
100
AcDbEntity
  8
10000_FRONT
370
    50
390
0
  6
CONTINUOUS
 62
     7
100
AcDbLine
 10
126.05839
 20
191.199148
 30
0.0
 11
126.073568
 21
191.285099
 31
0.0
  0
LINE
  5
146F
100
AcDbEntity
  8
10000_FRONT
370
    50
390
0
  6
CONTINUOUS
 62
     7
100
AcDbLine
 10
108.858391
 20
191.199148
 30
0.0
 11
108.873569
 21
191.285099
 31
0.0
  0
LINE
  5
1470
100
AcDbEntity
  8
10000_FRONT
370
    50
390
0
  6
CONTINUOUS
 62
     7
100
AcDbLine
 10
91.658391
 20
191.199148
 30
0.0
 11
91.673569
 21
191.285099
 31
0.0
  0
LINE
  5
1471
100
AcDbEntity
  8
10000_FRONT
370
    50
390
0
  6
CONTINUOUS
 62
     7
100
AcDbLine
 10
118.326424
 20
135.814854
 30
0.0
 11
118.341598
 21
135.900791
 31
0.0
  0
LINE
  5
1472
100
AcDbEntity
  8
10000_FRONT
370
    50
390
0
  6
CONTINUOUS
 62
     7
100
AcDbLine
 10
109.726424
 20
135.814854
 30
0.0
 11
109.741598
 21
135.900791
 31
0.0
  0
LINE
  5
1473
100
AcDbEntity
  8
10000_FRONT
370
    50
390
0
  6
CONTINUOUS
 62
     7
100
AcDbLine
 10
101.126424
 20
135.814854
 30
0.0
 11
101.141598
 21
135.900791
 31
0.0
  0
LINE
  5
1474
100
AcDbEntity
  8
10000_FRONT
370
    50
390
0
  6
CONTINUOUS
 62
     7
100
AcDbLine
 10
83.926424
 20
135.814854
 30
0.0
 11
83.941597
 21
135.900791
 31
0.0
  0
LINE
  5
1475
100
AcDbEntity
  8
10000_FRONT
370
    50
390
0
  6
CONTINUOUS
 62
     7
100
AcDbLine
 10
92.526416
 20
135.814804
 30
0.0
 11
92.54159
 21
135.900749
 31
0.0
  0
LINE
  5
1476
100
AcDbEntity
  8
10000_FRONT
370
    50
390
0
  6
CONTINUOUS
 62
     7
100
AcDbLine
 10
82.583801
 20
135.462418
 30
0.0
 11
82.595911
 21
135.534775
 31
0.0
  0
LINE
  5
1477
100
AcDbEntity
  8
10000_FRONT
370
    50
390
0
  6
CONTINUOUS
 62
     7
100
AcDbLine
 10
127.404089
 20
191.565101
 30
0.0
 11
127.416199
 21
191.637459
 31
0.0
  0
LINE
  5
1478
100
AcDbEntity
  8
10000_FRONT
370
    50
390
0
  6
CONTINUOUS
 62
     7
100
AcDbLine
 10
126.066006
 20
133.839775
 30
0.0
 11
126.081034
 21
133.936966
 31
0.0
  0
LINE
  5
1479
100
AcDbEntity
  8
10000_FRONT
370
    50
390
0
  6
CONTINUOUS
 62
     7
100
AcDbLine
 10
108.866006
 20
133.839775
 30
0.0
 11
108.881034
 21
133.936966
 31
0.0
  0
LINE
  5
147A
100
AcDbEntity
  8
10000_FRONT
370
    50
390
0
  6
CONTINUOUS
 62
     7
100
AcDbLine
 10
100.266006
 20
133.839775
 30
0.0
 11
100.281034
 21
133.936966
 31
0.0
  0
LINE
  5
147B
100
AcDbEntity
  8
10000_FRONT
370
    50
390
0
  6
CONTINUOUS
 62
     7
100
AcDbLine
 10
91.666006
 20
133.839775
 30
0.0
 11
91.681034
 21
133.936966
 31
0.0
  0
LINE
  5
147C
100
AcDbEntity
  8
10000_FRONT
370
    50
390
0
  6
CONTINUOUS
 62
     7
100
AcDbLine
 10
117.466006
 20
133.839775
 30
0.0
 11
117.481033
 21
133.936966
 31
0.0
  0
LINE
  5
147D
100
AcDbEntity
  8
10000_FRONT
370
    50
390
0
  6
CONTINUOUS
 62
     7
100
AcDbLine
 10
118.318959
 20
193.162983
 30
0.0
 11
118.333982
 21
193.260154
 31
0.0
  0
LINE
  5
147E
100
AcDbEntity
  8
10000_FRONT
370
    50
390
0
  6
CONTINUOUS
 62
     7
100
AcDbLine
 10
109.718959
 20
193.162983
 30
0.0
 11
109.733981
 21
193.260154
 31
0.0
  0
LINE
  5
147F
100
AcDbEntity
  8
10000_FRONT
370
    50
390
0
  6
CONTINUOUS
 62
     7
100
AcDbLine
 10
101.118959
 20
193.162983
 30
0.0
 11
101.133981
 21
193.260154
 31
0.0
  0
LINE
  5
1480
100
AcDbEntity
  8
10000_FRONT
370
    50
390
0
  6
CONTINUOUS
 62
     7
100
AcDbLine
 10
83.918959
 20
193.162983
 30
0.0
 11
83.933981
 21
193.260154
 31
0.0
  0
LINE
  5
1481
100
AcDbEntity
  8
10000_FRONT
370
    50
390
0
  6
CONTINUOUS
 62
     7
100
AcDbLine
 10
92.51895
 20
193.162926
 30
0.0
 11
92.533972
 21
193.260104
 31
0.0
  0
LINE
  5
1482
100
AcDbEntity
  8
10000_FRONT
370
    50
390
0
  6
CONTINUOUS
 62
     7
100
AcDbLine
 10
82.57266
 20
135.389809
 30
0.0
 11
82.583801
 21
135.462418
 31
0.0
  0
LINE
  5
1483
100
AcDbEntity
  8
10000_FRONT
370
    50
390
0
  6
CONTINUOUS
 62
     7
100
AcDbLine
 10
127.416199
 20
191.637459
 30
0.0
 11
127.42734
 21
191.71007
 31
0.0
  0
LINE
  5
1484
100
AcDbEntity
  8
10000_FRONT
370
    50
390
0
  6
CONTINUOUS
 62
     7
100
AcDbLine
 10
127.42734
 20
191.71007
 30
0.0
 11
127.437544
 21
191.782776
 31
0.0
  0
LINE
  5
1485
100
AcDbEntity
  8
10000_FRONT
370
    50
390
0
  6
CONTINUOUS
 62
     7
100
AcDbLine
 10
82.562456
 20
135.317101
 30
0.0
 11
82.57266
 21
135.389809
 31
0.0
  0
LINE
  5
1486
100
AcDbEntity
  8
10000_FRONT
370
    50
390
0
  6
CONTINUOUS
 62
     7
100
AcDbLine
 10
91.673569
 20
191.285099
 30
0.0
 11
91.685245
 21
191.370927
 31
0.0
  0
LINE
  5
1487
100
AcDbEntity
  8
10000_FRONT
370
    50
390
0
  6
CONTINUOUS
 62
     7
100
AcDbLine
 10
126.073568
 20
191.285099
 30
0.0
 11
126.085243
 21
191.370927
 31
0.0
  0
LINE
  5
1488
100
AcDbEntity
  8
10000_FRONT
370
    50
390
0
  6
CONTINUOUS
 62
     7
100
AcDbLine
 10
117.473569
 20
191.285099
 30
0.0
 11
117.485244
 21
191.370927
 31
0.0
  0
LINE
  5
1489
100
AcDbEntity
  8
10000_FRONT
370
    50
390
0
  6
CONTINUOUS
 62
     7
100
AcDbLine
 10
108.873569
 20
191.285099
 30
0.0
 11
108.885244
 21
191.370927
 31
0.0
  0
LINE
  5
148A
100
AcDbEntity
  8
10000_FRONT
370
    50
390
0
  6
CONTINUOUS
 62
     7
100
AcDbLine
 10
100.273569
 20
191.285099
 30
0.0
 11
100.285244
 21
191.370927
 31
0.0
  0
LINE
  5
148B
100
AcDbEntity
  8
10000_FRONT
370
    50
390
0
  6
CONTINUOUS
 62
     7
100
AcDbLine
 10
83.914751
 20
135.729038
 30
0.0
 11
83.926424
 21
135.814854
 31
0.0
  0
LINE
  5
148C
100
AcDbEntity
  8
10000_FRONT
370
    50
390
0
  6
CONTINUOUS
 62
     7
100
AcDbLine
 10
118.314752
 20
135.729038
 30
0.0
 11
118.326424
 21
135.814854
 31
0.0
  0
LINE
  5
148D
100
AcDbEntity
  8
10000_FRONT
370
    50
390
0
  6
CONTINUOUS
 62
     7
100
AcDbLine
 10
109.714752
 20
135.729038
 30
0.0
 11
109.726424
 21
135.814854
 31
0.0
  0
LINE
  5
148E
100
AcDbEntity
  8
10000_FRONT
370
    50
390
0
  6
CONTINUOUS
 62
     7
100
AcDbLine
 10
101.114752
 20
135.729038
 30
0.0
 11
101.126424
 21
135.814854
 31
0.0
  0
LINE
  5
148F
100
AcDbEntity
  8
10000_FRONT
370
    50
390
0
  6
CONTINUOUS
 62
     7
100
AcDbLine
 10
92.514746
 20
135.728989
 30
0.0
 11
92.526416
 21
135.814804
 31
0.0
  0
LINE
  5
1490
100
AcDbEntity
  8
10000_FRONT
370
    50
390
0
  6
CONTINUOUS
 62
     7
100
AcDbLine
 10
82.502897
 20
197.802922
 30
0.0
 11
82.506477
 21
197.829385
 31
0.0
  0
LINE
  5
1491
100
AcDbEntity
  8
10000_FRONT
370
    50
390
0
  6
CONTINUOUS
 62
     7
100
AcDbLine
 10
127.437544
 20
191.782776
 30
0.0
 11
127.446842
 21
191.855434
 31
0.0
  0
LINE
  5
1492
100
AcDbEntity
  8
10000_FRONT
370
    50
390
0
  6
CONTINUOUS
 62
     7
100
AcDbLine
 10
82.553158
 20
135.244442
 30
0.0
 11
82.562456
 21
135.317101
 31
0.0
  0
LINE
  5
1493
100
AcDbEntity
  8
10000_FRONT
370
    50
390
0
  6
CONTINUOUS
 62
     7
100
AcDbLine
 10
127.493906
 20
129.172867
 30
0.0
 11
127.498447
 21
129.211189
 31
0.0
  0
LINE
  5
1494
100
AcDbEntity
  8
10000_FRONT
370
    50
390
0
  6
CONTINUOUS
 62
     7
100
AcDbLine
 10
82.544735
 20
135.171974
 30
0.0
 11
82.553158
 21
135.244442
 31
0.0
  0
LINE
  5
1495
100
AcDbEntity
  8
10000_FRONT
370
    50
390
0
  6
CONTINUOUS
 62
     7
100
AcDbLine
 10
127.446842
 20
191.855434
 30
0.0
 11
127.455265
 21
191.927902
 31
0.0
  0
LINE
  5
1496
100
AcDbEntity
  8
10000_FRONT
370
    50
390
0
  6
CONTINUOUS
 62
     7
100
AcDbLine
 10
117.481033
 20
133.936966
 30
0.0
 11
117.491639
 21
134.033821
 31
0.0
  0
LINE
  5
1497
100
AcDbEntity
  8
10000_FRONT
370
    50
390
0
  6
CONTINUOUS
 62
     7
100
AcDbLine
 10
91.681034
 20
133.936966
 30
0.0
 11
91.69164
 21
134.033821
 31
0.0
  0
LINE
  5
1498
100
AcDbEntity
  8
10000_FRONT
370
    50
390
0
  6
CONTINUOUS
 62
     7
100
AcDbLine
 10
126.081034
 20
133.936966
 30
0.0
 11
126.091639
 21
134.033821
 31
0.0
  0
LINE
  5
1499
100
AcDbEntity
  8
10000_FRONT
370
    50
390
0
  6
CONTINUOUS
 62
     7
100
AcDbLine
 10
108.881034
 20
133.936966
 30
0.0
 11
108.891639
 21
134.033821
 31
0.0
  0
LINE
  5
149A
100
AcDbEntity
  8
10000_FRONT
370
    50
390
0
  6
CONTINUOUS
 62
     7
100
AcDbLine
 10
100.281034
 20
133.936966
 30
0.0
 11
100.291639
 21
134.033821
 31
0.0
  0
LINE
  5
149B
100
AcDbEntity
  8
10000_FRONT
370
    50
390
0
  6
CONTINUOUS
 62
     7
100
AcDbLine
 10
118.308357
 20
193.066145
 30
0.0
 11
118.318959
 21
193.162983
 31
0.0
  0
LINE
  5
149C
100
AcDbEntity
  8
10000_FRONT
370
    50
390
0
  6
CONTINUOUS
 62
     7
100
AcDbLine
 10
109.708357
 20
193.066145
 30
0.0
 11
109.718959
 21
193.162983
 31
0.0
  0
LINE
  5
149D
100
AcDbEntity
  8
10000_FRONT
370
    50
390
0
  6
CONTINUOUS
 62
     7
100
AcDbLine
 10
101.108357
 20
193.066145
 30
0.0
 11
101.118959
 21
193.162983
 31
0.0
  0
LINE
  5
149E
100
AcDbEntity
  8
10000_FRONT
370
    50
390
0
  6
CONTINUOUS
 62
     7
100
AcDbLine
 10
83.908358
 20
193.066145
 30
0.0
 11
83.918959
 21
193.162983
 31
0.0
  0
LINE
  5
149F
100
AcDbEntity
  8
10000_FRONT
370
    50
390
0
  6
CONTINUOUS
 62
     7
100
AcDbLine
 10
92.508352
 20
193.066091
 30
0.0
 11
92.51895
 21
193.162926
 31
0.0
  0
LINE
  5
14A0
100
AcDbEntity
  8
10000_FRONT
370
    50
390
0
  6
CONTINUOUS
 62
     7
100
AcDbLine
 10
82.537151
 20
135.099842
 30
0.0
 11
82.544735
 21
135.171974
 31
0.0
  0
LINE
  5
14A1
100
AcDbEntity
  8
10000_FRONT
370
    50
390
0
  6
CONTINUOUS
 62
     7
100
AcDbLine
 10
127.455265
 20
191.927902
 30
0.0
 11
127.462849
 21
192.000036
 31
0.0
  0
LINE
  5
14A2
100
AcDbEntity
  8
10000_FRONT
370
    50
390
0
  6
CONTINUOUS
 62
     7
100
AcDbLine
 10
126.085243
 20
191.370927
 30
0.0
 11
126.093491
 21
191.456365
 31
0.0
  0
LINE
  5
14A3
100
AcDbEntity
  8
10000_FRONT
370
    50
390
0
  6
CONTINUOUS
 62
     7
100
AcDbLine
 10
108.885244
 20
191.370927
 30
0.0
 11
108.893492
 21
191.456365
 31
0.0
  0
LINE
  5
14A4
100
AcDbEntity
  8
10000_FRONT
370
    50
390
0
  6
CONTINUOUS
 62
     7
100
AcDbLine
 10
117.485244
 20
191.370927
 30
0.0
 11
117.493491
 21
191.456365
 31
0.0
  0
LINE
  5
14A5
100
AcDbEntity
  8
10000_FRONT
370
    50
390
0
  6
CONTINUOUS
 62
     7
100
AcDbLine
 10
100.285244
 20
191.370927
 30
0.0
 11
100.293491
 21
191.456365
 31
0.0
  0
LINE
  5
14A6
100
AcDbEntity
  8
10000_FRONT
370
    50
390
0
  6
CONTINUOUS
 62
     7
100
AcDbLine
 10
91.685245
 20
191.370927
 30
0.0
 11
91.693492
 21
191.456365
 31
0.0
  0
LINE
  5
14A7
100
AcDbEntity
  8
10000_FRONT
370
    50
390
0
  6
CONTINUOUS
 62
     7
100
AcDbLine
 10
118.306507
 20
135.643612
 30
0.0
 11
118.314752
 21
135.729038
 31
0.0
  0
LINE
  5
14A8
100
AcDbEntity
  8
10000_FRONT
370
    50
390
0
  6
CONTINUOUS
 62
     7
100
AcDbLine
 10
109.706507
 20
135.643612
 30
0.0
 11
109.714752
 21
135.729038
 31
0.0
  0
LINE
  5
14A9
100
AcDbEntity
  8
10000_FRONT
370
    50
390
0
  6
CONTINUOUS
 62
     7
100
AcDbLine
 10
101.106507
 20
135.643612
 30
0.0
 11
101.114752
 21
135.729038
 31
0.0
  0
LINE
  5
14AA
100
AcDbEntity
  8
10000_FRONT
370
    50
390
0
  6
CONTINUOUS
 62
     7
100
AcDbLine
 10
83.906507
 20
135.643612
 30
0.0
 11
83.914751
 21
135.729038
 31
0.0
  0
LINE
  5
14AB
100
AcDbEntity
  8
10000_FRONT
370
    50
390
0
  6
CONTINUOUS
 62
     7
100
AcDbLine
 10
92.506503
 20
135.64357
 30
0.0
 11
92.514746
 21
135.728989
 31
0.0
  0
LINE
  5
14AC
100
AcDbEntity
  8
10000_FRONT
370
    50
390
0
  6
CONTINUOUS
 62
     7
100
AcDbLine
 10
127.462849
 20
192.000036
 30
0.0
 11
127.469622
 21
192.071692
 31
0.0
  0
LINE
  5
14AD
100
AcDbEntity
  8
10000_FRONT
370
    50
390
0
  6
CONTINUOUS
 62
     7
100
AcDbLine
 10
82.530378
 20
135.028183
 30
0.0
 11
82.537151
 21
135.099842
 31
0.0
  0
LINE
  5
14AE
100
AcDbEntity
  8
10000_FRONT
370
    50
390
0
  6
CONTINUOUS
 62
     7
100
AcDbLine
 10
82.524384
 20
134.95715
 30
0.0
 11
82.530378
 21
135.028183
 31
0.0
  0
LINE
  5
14AF
100
AcDbEntity
  8
10000_FRONT
370
    50
390
0
  6
CONTINUOUS
 62
     7
100
AcDbLine
 10
127.469622
 20
192.071692
 30
0.0
 11
127.475616
 21
192.142729
 31
0.0
  0
LINE
  5
14B0
100
AcDbEntity
  8
10000_FRONT
370
    50
390
0
  6
CONTINUOUS
 62
     7
100
AcDbLine
 10
82.500729
 20
197.776416
 30
0.0
 11
82.502897
 21
197.802922
 31
0.0
  0
LINE
  5
14B1
100
AcDbEntity
  8
10000_FRONT
370
    50
390
0
  6
CONTINUOUS
 62
     7
100
AcDbLine
 10
127.475616
 20
192.142729
 30
0.0
 11
127.480867
 21
192.213002
 31
0.0
  0
LINE
  5
14B2
100
AcDbEntity
  8
10000_FRONT
370
    50
390
0
  6
CONTINUOUS
 62
     7
100
AcDbLine
 10
82.519133
 20
134.886875
 30
0.0
 11
82.524384
 21
134.95715
 31
0.0
  0
LINE
  5
14B3
100
AcDbEntity
  8
10000_FRONT
370
    50
390
0
  6
CONTINUOUS
 62
     7
100
AcDbLine
 10
82.514595
 20
134.817509
 30
0.0
 11
82.519133
 21
134.886875
 31
0.0
  0
LINE
  5
14B4
100
AcDbEntity
  8
10000_FRONT
370
    50
390
0
  6
CONTINUOUS
 62
     7
100
AcDbLine
 10
127.480867
 20
192.213002
 30
0.0
 11
127.485405
 21
192.282369
 31
0.0
  0
LINE
  5
14B5
100
AcDbEntity
  8
10000_FRONT
370
    50
390
0
  6
CONTINUOUS
 62
     7
100
AcDbLine
 10
126.091639
 20
134.033821
 30
0.0
 11
126.097927
 21
134.129959
 31
0.0
  0
LINE
  5
14B6
100
AcDbEntity
  8
10000_FRONT
370
    50
390
0
  6
CONTINUOUS
 62
     7
100
AcDbLine
 10
117.491639
 20
134.033821
 30
0.0
 11
117.497927
 21
134.129959
 31
0.0
  0
LINE
  5
14B7
100
AcDbEntity
  8
10000_FRONT
370
    50
390
0
  6
CONTINUOUS
 62
     7
100
AcDbLine
 10
108.891639
 20
134.033821
 30
0.0
 11
108.897927
 21
134.129959
 31
0.0
  0
LINE
  5
14B8
100
AcDbEntity
  8
10000_FRONT
370
    50
390
0
  6
CONTINUOUS
 62
     7
100
AcDbLine
 10
100.291639
 20
134.033821
 30
0.0
 11
100.297927
 21
134.129959
 31
0.0
  0
LINE
  5
14B9
100
AcDbEntity
  8
10000_FRONT
370
    50
390
0
  6
CONTINUOUS
 62
     7
100
AcDbLine
 10
91.69164
 20
134.033821
 30
0.0
 11
91.697927
 21
134.129959
 31
0.0
  0
LINE
  5
14BA
100
AcDbEntity
  8
10000_FRONT
370
    50
390
0
  6
CONTINUOUS
 62
     7
100
AcDbLine
 10
109.702072
 20
192.970023
 30
0.0
 11
109.708357
 21
193.066145
 31
0.0
  0
LINE
  5
14BB
100
AcDbEntity
  8
10000_FRONT
370
    50
390
0
  6
CONTINUOUS
 62
     7
100
AcDbLine
 10
101.102072
 20
192.970023
 30
0.0
 11
101.108357
 21
193.066145
 31
0.0
  0
LINE
  5
14BC
100
AcDbEntity
  8
10000_FRONT
370
    50
390
0
  6
CONTINUOUS
 62
     7
100
AcDbLine
 10
83.902073
 20
192.970023
 30
0.0
 11
83.908358
 21
193.066145
 31
0.0
  0
LINE
  5
14BD
100
AcDbEntity
  8
10000_FRONT
370
    50
390
0
  6
CONTINUOUS
 62
     7
100
AcDbLine
 10
118.302073
 20
192.970023
 30
0.0
 11
118.308357
 21
193.066145
 31
0.0
  0
LINE
  5
14BE
100
AcDbEntity
  8
10000_FRONT
370
    50
390
0
  6
CONTINUOUS
 62
     7
100
AcDbLine
 10
92.50207
 20
192.969986
 30
0.0
 11
92.508352
 21
193.066091
 31
0.0
  0
LINE
  5
14BF
100
AcDbEntity
  8
10000_FRONT
370
    50
390
0
  6
CONTINUOUS
 62
     7
100
AcDbLine
 10
126.093491
 20
191.456365
 30
0.0
 11
126.098385
 21
191.541144
 31
0.0
  0
LINE
  5
14C0
100
AcDbEntity
  8
10000_FRONT
370
    50
390
0
  6
CONTINUOUS
 62
     7
100
AcDbLine
 10
117.493491
 20
191.456365
 30
0.0
 11
117.498385
 21
191.541144
 31
0.0
  0
LINE
  5
14C1
100
AcDbEntity
  8
10000_FRONT
370
    50
390
0
  6
CONTINUOUS
 62
     7
100
AcDbLine
 10
100.293491
 20
191.456365
 30
0.0
 11
100.298385
 21
191.541144
 31
0.0
  0
LINE
  5
14C2
100
AcDbEntity
  8
10000_FRONT
370
    50
390
0
  6
CONTINUOUS
 62
     7
100
AcDbLine
 10
118.301614
 20
135.558846
 30
0.0
 11
118.306507
 21
135.643612
 31
0.0
  0
LINE
  5
14C3
100
AcDbEntity
  8
10000_FRONT
370
    50
390
0
  6
CONTINUOUS
 62
     7
100
AcDbLine
 10
109.701614
 20
135.558846
 30
0.0
 11
109.706507
 21
135.643612
 31
0.0
  0
LINE
  5
14C4
100
AcDbEntity
  8
10000_FRONT
370
    50
390
0
  6
CONTINUOUS
 62
     7
100
AcDbLine
 10
101.101614
 20
135.558846
 30
0.0
 11
101.106507
 21
135.643612
 31
0.0
  0
LINE
  5
14C5
100
AcDbEntity
  8
10000_FRONT
370
    50
390
0
  6
CONTINUOUS
 62
     7
100
AcDbLine
 10
108.893492
 20
191.456365
 30
0.0
 11
108.898385
 21
191.541144
 31
0.0
  0
LINE
  5
14C6
100
AcDbEntity
  8
10000_FRONT
370
    50
390
0
  6
CONTINUOUS
 62
     7
100
AcDbLine
 10
91.693492
 20
191.456365
 30
0.0
 11
91.698385
 21
191.541144
 31
0.0
  0
LINE
  5
14C7
100
AcDbEntity
  8
10000_FRONT
370
    50
390
0
  6
CONTINUOUS
 62
     7
100
AcDbLine
 10
83.901615
 20
135.558846
 30
0.0
 11
83.906507
 21
135.643612
 31
0.0
  0
LINE
  5
14C8
100
AcDbEntity
  8
10000_FRONT
370
    50
390
0
  6
CONTINUOUS
 62
     7
100
AcDbLine
 10
92.501614
 20
135.558815
 30
0.0
 11
92.506503
 21
135.64357
 31
0.0
  0
LINE
  5
14C9
100
AcDbEntity
  8
10000_FRONT
370
    50
390
0
  6
CONTINUOUS
 62
     7
100
AcDbLine
 10
127.485405
 20
192.282369
 30
0.0
 11
127.489262
 21
192.350686
 31
0.0
  0
LINE
  5
14CA
100
AcDbEntity
  8
10000_FRONT
370
    50
390
0
  6
CONTINUOUS
 62
     7
100
AcDbLine
 10
82.510738
 20
134.749191
 30
0.0
 11
82.514595
 21
134.817509
 31
0.0
  0
LINE
  5
14CB
100
AcDbEntity
  8
10000_FRONT
370
    50
390
0
  6
CONTINUOUS
 62
     7
100
AcDbLine
 10
82.507513
 20
134.681698
 30
0.0
 11
82.510738
 21
134.749191
 31
0.0
  0
LINE
  5
14CC
100
AcDbEntity
  8
10000_FRONT
370
    50
390
0
  6
CONTINUOUS
 62
     7
100
AcDbLine
 10
127.489262
 20
192.350686
 30
0.0
 11
127.492487
 21
192.41818
 31
0.0
  0
LINE
  5
14CD
100
AcDbEntity
  8
10000_FRONT
370
    50
390
0
  6
CONTINUOUS
 62
     7
100
AcDbLine
 10
127.498447
 20
129.211189
 30
0.0
 11
127.5
 21
129.25
 31
0.0
  0
LINE
  5
14CE
100
AcDbEntity
  8
10000_FRONT
370
    50
390
0
  6
CONTINUOUS
 62
     7
100
AcDbLine
 10
82.504839
 20
134.613636
 30
0.0
 11
82.507513
 21
134.681698
 31
0.0
  0
LINE
  5
14CF
100
AcDbEntity
  8
10000_FRONT
370
    50
390
0
  6
CONTINUOUS
 62
     7
100
AcDbLine
 10
127.492487
 20
192.41818
 30
0.0
 11
127.495161
 21
192.486242
 31
0.0
  0
LINE
  5
14D0
100
AcDbEntity
  8
10000_FRONT
370
    50
390
0
  6
CONTINUOUS
 62
     7
100
AcDbLine
 10
82.502726
 20
134.544914
 30
0.0
 11
82.504839
 21
134.613636
 31
0.0
  0
LINE
  5
14D1
100
AcDbEntity
  8
10000_FRONT
370
    50
390
0
  6
CONTINUOUS
 62
     7
100
AcDbLine
 10
127.495161
 20
192.486242
 30
0.0
 11
127.497274
 21
192.554964
 31
0.0
  0
LINE
  5
14D2
100
AcDbEntity
  8
10000_FRONT
370
    50
390
0
  6
CONTINUOUS
 62
     7
100
AcDbLine
 10
82.5
 20
197.75
 30
0.0
 11
82.500729
 21
197.776416
 31
0.0
  0
LINE
  5
14D3
100
AcDbEntity
  8
10000_FRONT
370
    50
390
0
  6
CONTINUOUS
 62
     7
100
AcDbLine
 10
127.497274
 20
192.554964
 30
0.0
 11
127.49881
 21
192.624279
 31
0.0
  0
LINE
  5
14D4
100
AcDbEntity
  8
10000_FRONT
370
    50
390
0
  6
CONTINUOUS
 62
     7
100
AcDbLine
 10
82.50119
 20
134.475597
 30
0.0
 11
82.502726
 21
134.544914
 31
0.0
  0
LINE
  5
14D5
100
AcDbEntity
  8
10000_FRONT
370
    50
390
0
  6
CONTINUOUS
 62
     7
100
AcDbLine
 10
118.3
 20
192.875
 30
0.0
 11
118.302073
 21
192.970023
 31
0.0
  0
LINE
  5
14D6
100
AcDbEntity
  8
10000_FRONT
370
    50
390
0
  6
CONTINUOUS
 62
     7
100
AcDbLine
 10
83.9
 20
192.875
 30
0.0
 11
83.902073
 21
192.970023
 31
0.0
  0
LINE
  5
14D7
100
AcDbEntity
  8
10000_FRONT
370
    50
390
0
  6
CONTINUOUS
 62
     7
100
AcDbLine
 10
126.097927
 20
134.129959
 30
0.0
 11
126.1
 21
134.224998
 31
0.0
  0
LINE
  5
14D8
100
AcDbEntity
  8
10000_FRONT
370
    50
390
0
  6
CONTINUOUS
 62
     7
100
AcDbLine
 10
117.497927
 20
134.129959
 30
0.0
 11
117.5
 21
134.224998
 31
0.0
  0
LINE
  5
14D9
100
AcDbEntity
  8
10000_FRONT
370
    50
390
0
  6
CONTINUOUS
 62
     7
100
AcDbLine
 10
108.897927
 20
134.129959
 30
0.0
 11
108.9
 21
134.224998
 31
0.0
  0
LINE
  5
14DA
100
AcDbEntity
  8
10000_FRONT
370
    50
390
0
  6
CONTINUOUS
 62
     7
100
AcDbLine
 10
100.297927
 20
134.129959
 30
0.0
 11
100.3
 21
134.224998
 31
0.0
  0
LINE
  5
14DB
100
AcDbEntity
  8
10000_FRONT
370
    50
390
0
  6
CONTINUOUS
 62
     7
100
AcDbLine
 10
91.697927
 20
134.129959
 30
0.0
 11
91.7
 21
134.224998
 31
0.0
  0
LINE
  5
14DC
100
AcDbEntity
  8
10000_FRONT
370
    50
390
0
  6
CONTINUOUS
 62
     7
100
AcDbLine
 10
109.7
 20
192.875
 30
0.0
 11
109.702072
 21
192.970023
 31
0.0
  0
LINE
  5
14DD
100
AcDbEntity
  8
10000_FRONT
370
    50
390
0
  6
CONTINUOUS
 62
     7
100
AcDbLine
 10
101.1
 20
192.875
 30
0.0
 11
101.102072
 21
192.970023
 31
0.0
  0
LINE
  5
14DE
100
AcDbEntity
  8
10000_FRONT
370
    50
390
0
  6
CONTINUOUS
 62
     7
100
AcDbLine
 10
92.5
 20
192.875
 30
0.0
 11
92.50207
 21
192.969986
 31
0.0
  0
LINE
  5
14DF
100
AcDbEntity
  8
10000_FRONT
370
    50
390
0
  6
CONTINUOUS
 62
     7
100
AcDbLine
 10
83.9
 20
135.474998
 30
0.0
 11
83.901615
 21
135.558846
 31
0.0
  0
LINE
  5
14E0
100
AcDbEntity
  8
10000_FRONT
370
    50
390
0
  6
CONTINUOUS
 62
     7
100
AcDbLine
 10
126.098385
 20
191.541144
 30
0.0
 11
126.1
 21
191.625
 31
0.0
  0
LINE
  5
14E1
100
AcDbEntity
  8
10000_FRONT
370
    50
390
0
  6
CONTINUOUS
 62
     7
100
AcDbLine
 10
117.498385
 20
191.541144
 30
0.0
 11
117.5
 21
191.625
 31
0.0
  0
LINE
  5
14E2
100
AcDbEntity
  8
10000_FRONT
370
    50
390
0
  6
CONTINUOUS
 62
     7
100
AcDbLine
 10
108.898385
 20
191.541144
 30
0.0
 11
108.9
 21
191.625
 31
0.0
  0
LINE
  5
14E3
100
AcDbEntity
  8
10000_FRONT
370
    50
390
0
  6
CONTINUOUS
 62
     7
100
AcDbLine
 10
100.298385
 20
191.541144
 30
0.0
 11
100.3
 21
191.625
 31
0.0
  0
LINE
  5
14E4
100
AcDbEntity
  8
10000_FRONT
370
    50
390
0
  6
CONTINUOUS
 62
     7
100
AcDbLine
 10
91.698385
 20
191.541144
 30
0.0
 11
91.7
 21
191.625
 31
0.0
  0
LINE
  5
14E5
100
AcDbEntity
  8
10000_FRONT
370
    50
390
0
  6
CONTINUOUS
 62
     7
100
AcDbLine
 10
92.5
 20
135.474998
 30
0.0
 11
92.501614
 21
135.558815
 31
0.0
  0
LINE
  5
14E6
100
AcDbEntity
  8
10000_FRONT
370
    50
390
0
  6
CONTINUOUS
 62
     7
100
AcDbLine
 10
118.3
 20
135.474998
 30
0.0
 11
118.301614
 21
135.558846
 31
0.0
  0
LINE
  5
14E7
100
AcDbEntity
  8
10000_FRONT
370
    50
390
0
  6
CONTINUOUS
 62
     7
100
AcDbLine
 10
109.7
 20
135.474998
 30
0.0
 11
109.701614
 21
135.558846
 31
0.0
  0
LINE
  5
14E8
100
AcDbEntity
  8
10000_FRONT
370
    50
390
0
  6
CONTINUOUS
 62
     7
100
AcDbLine
 10
101.1
 20
135.474998
 30
0.0
 11
101.101614
 21
135.558846
 31
0.0
  0
LINE
  5
14E9
100
AcDbEntity
  8
10000_FRONT
370
    50
390
0
  6
CONTINUOUS
 62
     7
100
AcDbLine
 10
82.500248
 20
134.405758
 30
0.0
 11
82.50119
 21
134.475597
 31
0.0
  0
LINE
  5
14EA
100
AcDbEntity
  8
10000_FRONT
370
    50
390
0
  6
CONTINUOUS
 62
     7
100
AcDbLine
 10
127.49881
 20
192.624279
 30
0.0
 11
127.499752
 21
192.694119
 31
0.0
  0
LINE
  5
14EB
100
AcDbEntity
  8
10000_FRONT
370
    50
390
0
  6
CONTINUOUS
 62
     7
100
AcDbLine
 10
82.499918
 20
134.335457
 30
0.0
 11
82.500248
 21
134.405758
 31
0.0
  0
LINE
  5
14EC
100
AcDbEntity
  8
10000_FRONT
370
    50
390
0
  6
CONTINUOUS
 62
     7
100
AcDbLine
 10
127.499752
 20
192.694119
 30
0.0
 11
127.5
 21
192.764427
 31
0.0
  0
LINE
  5
14ED
100
AcDbEntity
  8
10000_FRONT
370
    50
390
0
  6
CONTINUOUS
 62
     7
100
AcDbLine
 10
82.5
 20
128.75
 30
0.0
 11
82.5
 21
197.75
 31
0.0
  0
LINE
  5
14EE
100
AcDbEntity
  8
10000_FRONT
370
    50
390
0
  6
CONTINUOUS
 62
     7
100
AcDbLine
 10
82.5
 20
197.750048
 30
0.0
 11
82.5
 21
198.25
 31
0.0
  0
LINE
  5
14EF
100
AcDbEntity
  8
10000_FRONT
370
    50
390
0
  6
CONTINUOUS
 62
     7
100
AcDbLine
 10
82.993998
 20
136.404861
 30
0.0
 11
82.993998
 21
190.695016
 31
0.0
  0
LINE
  5
14F0
100
AcDbEntity
  8
10000_FRONT
370
    50
390
0
  6
CONTINUOUS
 62
     7
100
AcDbLine
 10
83.466267
 20
149.255001
 30
0.0
 11
83.466267
 21
149.3922
 31
0.0
  0
LINE
  5
14F1
100
AcDbEntity
  8
10000_FRONT
370
    50
390
0
  6
CONTINUOUS
 62
     7
100
AcDbLine
 10
83.6
 20
174.450001
 30
0.0
 11
83.6
 21
178.65
 31
0.0
  0
LINE
  5
14F2
100
AcDbEntity
  8
10000_FRONT
370
    50
390
0
  6
CONTINUOUS
 62
     7
100
AcDbLine
 10
83.700001
 20
142.400002
 30
0.0
 11
83.700001
 21
146.650002
 31
0.0
  0
LINE
  5
14F3
100
AcDbEntity
  8
10000_FRONT
370
    50
390
0
  6
CONTINUOUS
 62
     7
100
AcDbLine
 10
83.700001
 20
180.4
 30
0.0
 11
83.700001
 21
184.65
 31
0.0
  0
LINE
  5
14F4
100
AcDbEntity
  8
10000_FRONT
370
    50
390
0
  6
CONTINUOUS
 62
     7
100
AcDbLine
 10
83.700001
 20
137.950001
 30
0.0
 11
83.700001
 21
141.549999
 31
0.0
  0
LINE
  5
14F5
100
AcDbEntity
  8
10000_FRONT
370
    50
390
0
  6
CONTINUOUS
 62
     7
100
AcDbLine
 10
83.700001
 20
185.45
 30
0.0
 11
83.700001
 21
189.05
 31
0.0
  0
LINE
  5
14F6
100
AcDbEntity
  8
10000_FRONT
370
    50
390
0
  6
CONTINUOUS
 62
     7
100
AcDbLine
 10
83.700001
 20
174.65
 30
0.0
 11
83.700001
 21
178.450001
 31
0.0
  0
LINE
  5
14F7
100
AcDbEntity
  8
10000_FRONT
370
    50
390
0
  6
CONTINUOUS
 62
     7
100
AcDbLine
 10
83.9
 20
134.224998
 30
0.0
 11
83.9
 21
135.474998
 31
0.0
  0
LINE
  5
14F8
100
AcDbEntity
  8
10000_FRONT
370
    50
390
0
  6
CONTINUOUS
 62
     7
100
AcDbLine
 10
83.9
 20
191.625
 30
0.0
 11
83.9
 21
192.875
 31
0.0
  0
LINE
  5
14F9
100
AcDbEntity
  8
10000_FRONT
370
    50
390
0
  6
CONTINUOUS
 62
     7
100
AcDbLine
 10
84.25
 20
133.034416
 30
0.0
 11
84.25
 21
136.665585
 31
0.0
  0
LINE
  5
14FA
100
AcDbEntity
  8
10000_FRONT
370
    50
390
0
  6
CONTINUOUS
 62
     7
100
AcDbLine
 10
84.25
 20
190.434421
 30
0.0
 11
84.25
 21
194.065586
 31
0.0
  0
LINE
  5
14FB
100
AcDbEntity
  8
10000_FRONT
370
    50
390
0
  6
CONTINUOUS
 62
     7
100
AcDbLine
 10
84.5
 20
175.496294
 30
0.0
 11
84.5
 21
175.934553
 31
0.0
  0
LINE
  5
14FC
100
AcDbEntity
  8
10000_FRONT
370
    50
390
0
  6
CONTINUOUS
 62
     7
100
AcDbLine
 10
84.523403
 20
147.934143
 30
0.0
 11
84.523403
 21
148.023876
 31
0.0
  0
LINE
  5
14FD
100
AcDbEntity
  8
10000_FRONT
370
    50
390
0
  6
CONTINUOUS
 62
     7
100
AcDbLine
 10
84.662746
 20
147.928326
 30
0.0
 11
84.662746
 21
148.029999
 31
0.0
  0
LINE
  5
14FE
100
AcDbEntity
  8
10000_FRONT
370
    50
390
0
  6
CONTINUOUS
 62
     7
100
AcDbLine
 10
84.75
 20
138.75
 30
0.0
 11
84.75
 21
140.75
 31
0.0
  0
LINE
  5
14FF
100
AcDbEntity
  8
10000_FRONT
370
    50
390
0
  6
CONTINUOUS
 62
     7
100
AcDbLine
 10
84.75
 20
186.35
 30
0.0
 11
84.75
 21
188.35
 31
0.0
  0
LINE
  5
1500
100
AcDbEntity
  8
10000_FRONT
370
    50
390
0
  6
CONTINUOUS
 62
     7
100
AcDbLine
 10
85.01
 20
151.349998
 30
0.0
 11
85.01
 21
158.849998
 31
0.0
  0
LINE
  5
1501
100
AcDbEntity
  8
10000_FRONT
370
    50
390
0
  6
CONTINUOUS
 62
     7
100
AcDbLine
 10
85.02545
 20
147.334202
 30
0.0
 11
85.02545
 21
149.3922
 31
0.0
  0
LINE
  5
1502
100
AcDbEntity
  8
10000_FRONT
370
    50
390
0
  6
CONTINUOUS
 62
     7
100
AcDbLine
 10
85.1
 20
151.599998
 30
0.0
 11
85.1
 21
158.599998
 31
0.0
  0
LINE
  5
1503
100
AcDbEntity
  8
10000_FRONT
370
    50
390
0
  6
CONTINUOUS
 62
     7
100
AcDbLine
 10
85.162649
 20
147.334202
 30
0.0
 11
85.162649
 21
148.294601
 31
0.0
  0
LINE
  5
1504
100
AcDbEntity
  8
10000_FRONT
370
    50
390
0
  6
CONTINUOUS
 62
     7
100
AcDbLine
 10
85.162649
 20
148.431801
 30
0.0
 11
85.162649
 21
149.255001
 31
0.0
  0
LINE
  5
1505
100
AcDbEntity
  8
10000_FRONT
370
    50
390
0
  6
CONTINUOUS
 62
     7
100
AcDbLine
 10
85.958288
 20
177.155195
 30
0.0
 11
85.958288
 21
177.564133
 31
0.0
  0
LINE
  5
1506
100
AcDbEntity
  8
10000_FRONT
370
    50
390
0
  6
CONTINUOUS
 62
     7
100
AcDbLine
 10
86.1745
 20
148.704361
 30
0.0
 11
86.1745
 21
148.982437
 31
0.0
  0
LINE
  5
1507
100
AcDbEntity
  8
10000_FRONT
370
    50
390
0
  6
CONTINUOUS
 62
     7
100
AcDbLine
 10
86.311701
 20
148.694256
 30
0.0
 11
86.311701
 21
148.992542
 31
0.0
  0
LINE
  5
1508
100
AcDbEntity
  8
10000_FRONT
370
    50
390
0
  6
CONTINUOUS
 62
     7
100
AcDbLine
 10
86.440001
 20
175.450001
 30
0.0
 11
86.440001
 21
177.579565
 31
0.0
  0
LINE
  5
1509
100
AcDbEntity
  8
10000_FRONT
370
    50
390
0
  6
CONTINUOUS
 62
     7
100
AcDbLine
 10
86.673599
 20
147.334202
 30
0.0
 11
86.673599
 21
149.3922
 31
0.0
  0
LINE
  5
150A
100
AcDbEntity
  8
10000_FRONT
370
    50
390
0
  6
CONTINUOUS
 62
     7
100
AcDbLine
 10
86.810801
 20
147.334202
 30
0.0
 11
86.810801
 21
148.294601
 31
0.0
  0
LINE
  5
150B
100
AcDbEntity
  8
10000_FRONT
370
    50
390
0
  6
CONTINUOUS
 62
     7
100
AcDbLine
 10
86.810801
 20
148.431801
 30
0.0
 11
86.810801
 21
149.3922
 31
0.0
  0
LINE
  5
150C
100
AcDbEntity
  8
10000_FRONT
370
    50
390
0
  6
CONTINUOUS
 62
     7
100
AcDbLine
 10
87.049999
 20
138.75
 30
0.0
 11
87.049999
 21
140.75
 31
0.0
  0
LINE
  5
150D
100
AcDbEntity
  8
10000_FRONT
370
    50
390
0
  6
CONTINUOUS
 62
     7
100
AcDbLine
 10
87.049999
 20
186.35
 30
0.0
 11
87.049999
 21
188.35
 31
0.0
  0
LINE
  5
150E
100
AcDbEntity
  8
10000_FRONT
370
    50
390
0
  6
CONTINUOUS
 62
     7
100
AcDbLine
 10
87.061895
 20
175.450001
 30
0.0
 11
87.061895
 21
177.579565
 31
0.0
  0
LINE
  5
150F
100
AcDbEntity
  8
10000_FRONT
370
    50
390
0
  6
CONTINUOUS
 62
     7
100
AcDbLine
 10
87.563999
 20
175.450001
 30
0.0
 11
87.563999
 21
177.579565
 31
0.0
  0
LINE
  5
1510
100
AcDbEntity
  8
10000_FRONT
370
    50
390
0
  6
CONTINUOUS
 62
     7
100
AcDbLine
 10
87.700001
 20
142.400002
 30
0.0
 11
87.700001
 21
146.650002
 31
0.0
  0
LINE
  5
1511
100
AcDbEntity
  8
10000_FRONT
370
    50
390
0
  6
CONTINUOUS
 62
     7
100
AcDbLine
 10
87.700001
 20
180.4
 30
0.0
 11
87.700001
 21
184.65
 31
0.0
  0
LINE
  5
1512
100
AcDbEntity
  8
10000_FRONT
370
    50
390
0
  6
CONTINUOUS
 62
     7
100
AcDbLine
 10
87.799999
 20
142.400002
 30
0.0
 11
87.799999
 21
146.650002
 31
0.0
  0
LINE
  5
1513
100
AcDbEntity
  8
10000_FRONT
370
    50
390
0
  6
CONTINUOUS
 62
     7
100
AcDbLine
 10
87.799999
 20
180.4
 30
0.0
 11
87.799999
 21
184.65
 31
0.0
  0
LINE
  5
1514
100
AcDbEntity
  8
10000_FRONT
370
    50
390
0
  6
CONTINUOUS
 62
     7
100
AcDbLine
 10
87.92555
 20
147.334202
 30
0.0
 11
87.92555
 21
148.294601
 31
0.0
  0
LINE
  5
1515
100
AcDbEntity
  8
10000_FRONT
370
    50
390
0
  6
CONTINUOUS
 62
     7
100
AcDbLine
 10
87.92555
 20
148.431801
 30
0.0
 11
87.92555
 21
149.3922
 31
0.0
  0
LINE
  5
1516
100
AcDbEntity
  8
10000_FRONT
370
    50
390
0
  6
CONTINUOUS
 62
     7
100
AcDbLine
 10
88.06275
 20
147.334202
 30
0.0
 11
88.06275
 21
149.3922
 31
0.0
  0
LINE
  5
1517
100
AcDbEntity
  8
10000_FRONT
370
    50
390
0
  6
CONTINUOUS
 62
     7
100
AcDbLine
 10
88.185894
 20
176.71385
 30
0.0
 11
88.185894
 21
177.198402
 31
0.0
  0
LINE
  5
1518
100
AcDbEntity
  8
10000_FRONT
370
    50
390
0
  6
CONTINUOUS
 62
     7
100
AcDbLine
 10
88.185894
 20
175.848135
 30
0.0
 11
88.185894
 21
176.349665
 31
0.0
  0
LINE
  5
1519
100
AcDbEntity
  8
10000_FRONT
370
    50
390
0
  6
CONTINUOUS
 62
     7
100
AcDbLine
 10
88.476236
 20
148.87035
 30
0.0
 11
88.476236
 21
148.993771
 31
0.0
  0
LINE
  5
151A
100
AcDbEntity
  8
10000_FRONT
370
    50
390
0
  6
CONTINUOUS
 62
     7
100
AcDbLine
 10
88.615582
 20
148.87035
 30
0.0
 11
88.615582
 21
148.983051
 31
0.0
  0
LINE
  5
151B
100
AcDbEntity
  8
10000_FRONT
370
    50
390
0
  6
CONTINUOUS
 62
     7
100
AcDbLine
 10
88.65
 20
138.75
 30
0.0
 11
88.65
 21
140.75
 31
0.0
  0
LINE
  5
151C
100
AcDbEntity
  8
10000_FRONT
370
    50
390
0
  6
CONTINUOUS
 62
     7
100
AcDbLine
 10
88.65
 20
186.35
 30
0.0
 11
88.65
 21
188.35
 31
0.0
  0
LINE
  5
151D
100
AcDbEntity
  8
10000_FRONT
370
    50
390
0
  6
CONTINUOUS
 62
     7
100
AcDbLine
 10
88.808001
 20
151.349998
 30
0.0
 11
88.808001
 21
151.599998
 31
0.0
  0
LINE
  5
151E
100
AcDbEntity
  8
10000_FRONT
370
    50
390
0
  6
CONTINUOUS
 62
     7
100
AcDbLine
 10
88.808001
 20
158.599998
 30
0.0
 11
88.808001
 21
158.849998
 31
0.0
  0
LINE
  5
151F
100
AcDbEntity
  8
10000_FRONT
370
    50
390
0
  6
CONTINUOUS
 62
     7
100
AcDbLine
 10
89.017659
 20
176.349665
 30
0.0
 11
89.017659
 21
176.71385
 31
0.0
  0
LINE
  5
1520
100
AcDbEntity
  8
10000_FRONT
370
    50
390
0
  6
CONTINUOUS
 62
     7
100
AcDbLine
 10
89.138026
 20
177.198402
 30
0.0
 11
89.138026
 21
177.579565
 31
0.0
  0
LINE
  5
1521
100
AcDbEntity
  8
10000_FRONT
370
    50
390
0
  6
CONTINUOUS
 62
     7
100
AcDbLine
 10
89.138026
 20
175.450001
 30
0.0
 11
89.138026
 21
175.848135
 31
0.0
  0
LINE
  5
1522
100
AcDbEntity
  8
10000_FRONT
370
    50
390
0
  6
CONTINUOUS
 62
     7
100
AcDbLine
 10
89.52
 20
175.450001
 30
0.0
 11
89.52
 21
177.579565
 31
0.0
  0
LINE
  5
1523
100
AcDbEntity
  8
10000_FRONT
370
    50
390
0
  6
CONTINUOUS
 62
     7
100
AcDbLine
 10
89.532034
 20
148.802364
 30
0.0
 11
89.532034
 21
148.983051
 31
0.0
  0
LINE
  5
1524
100
AcDbEntity
  8
10000_FRONT
370
    50
390
0
  6
CONTINUOUS
 62
     7
100
AcDbLine
 10
89.672717
 20
148.787968
 30
0.0
 11
89.672717
 21
148.991627
 31
0.0
  0
LINE
  5
1525
100
AcDbEntity
  8
10000_FRONT
370
    50
390
0
  6
CONTINUOUS
 62
     7
100
AcDbLine
 10
89.767846
 20
147.334202
 30
0.0
 11
89.767846
 21
147.471401
 31
0.0
  0
LINE
  5
1526
100
AcDbEntity
  8
10000_FRONT
370
    50
390
0
  6
CONTINUOUS
 62
     7
100
AcDbLine
 10
89.935111
 20
175.450001
 30
0.0
 11
89.935111
 21
176.852736
 31
0.0
  0
LINE
  5
1527
100
AcDbEntity
  8
10000_FRONT
370
    50
390
0
  6
CONTINUOUS
 62
     7
100
AcDbLine
 10
90.311965
 20
148.855652
 30
0.0
 11
90.311965
 21
149.000198
 31
0.0
  0
LINE
  5
1528
100
AcDbEntity
  8
10000_FRONT
370
    50
390
0
  6
CONTINUOUS
 62
     7
100
AcDbLine
 10
90.392
 20
151.349998
 30
0.0
 11
90.392
 21
151.599998
 31
0.0
  0
LINE
  5
1529
100
AcDbEntity
  8
10000_FRONT
370
    50
390
0
  6
CONTINUOUS
 62
     7
100
AcDbLine
 10
90.392
 20
158.599998
 30
0.0
 11
90.392
 21
158.849998
 31
0.0
  0
LINE
  5
152A
100
AcDbEntity
  8
10000_FRONT
370
    50
390
0
  6
CONTINUOUS
 62
     7
100
AcDbLine
 10
90.6965
 20
147.334202
 30
0.0
 11
90.6965
 21
149.126068
 31
0.0
  0
LINE
  5
152B
100
AcDbEntity
  8
10000_FRONT
370
    50
390
0
  6
CONTINUOUS
 62
     7
100
AcDbLine
 10
90.8337
 20
147.334202
 30
0.0
 11
90.8337
 21
149.3922
 31
0.0
  0
LINE
  5
152C
100
AcDbEntity
  8
10000_FRONT
370
    50
390
0
  6
CONTINUOUS
 62
     7
100
AcDbLine
 10
90.95
 20
138.75
 30
0.0
 11
90.95
 21
140.75
 31
0.0
  0
LINE
  5
152D
100
AcDbEntity
  8
10000_FRONT
370
    50
390
0
  6
CONTINUOUS
 62
     7
100
AcDbLine
 10
90.95
 20
186.35
 30
0.0
 11
90.95
 21
188.35
 31
0.0
  0
LINE
  5
152E
100
AcDbEntity
  8
10000_FRONT
370
    50
390
0
  6
CONTINUOUS
 62
     7
100
AcDbLine
 10
91.35
 20
133.034409
 30
0.0
 11
91.35
 21
136.665596
 31
0.0
  0
LINE
  5
152F
100
AcDbEntity
  8
10000_FRONT
370
    50
390
0
  6
CONTINUOUS
 62
     7
100
AcDbLine
 10
91.35
 20
190.43441
 30
0.0
 11
91.35
 21
194.065596
 31
0.0
  0
LINE
  5
1530
100
AcDbEntity
  8
10000_FRONT
370
    50
390
0
  6
CONTINUOUS
 62
     7
100
AcDbLine
 10
91.532284
 20
175.450001
 30
0.0
 11
91.532284
 21
176.857365
 31
0.0
  0
LINE
  5
1531
100
AcDbEntity
  8
10000_FRONT
370
    50
390
0
  6
CONTINUOUS
 62
     7
100
AcDbLine
 10
91.695
 20
160.150002
 30
0.0
 11
91.695
 21
173.15
 31
0.0
  0
LINE
  5
1532
100
AcDbEntity
  8
10000_FRONT
370
    50
390
0
  6
CONTINUOUS
 62
     7
100
AcDbLine
 10
91.7
 20
134.224998
 30
0.0
 11
91.7
 21
135.474998
 31
0.0
  0
LINE
  5
1533
100
AcDbEntity
  8
10000_FRONT
370
    50
390
0
  6
CONTINUOUS
 62
     7
100
AcDbLine
 10
91.7
 20
191.625
 30
0.0
 11
91.7
 21
192.875
 31
0.0
  0
LINE
  5
1534
100
AcDbEntity
  8
10000_FRONT
370
    50
390
0
  6
CONTINUOUS
 62
     7
100
AcDbLine
 10
91.8
 20
142.400002
 30
0.0
 11
91.8
 21
146.650002
 31
0.0
  0
LINE
  5
1535
100
AcDbEntity
  8
10000_FRONT
370
    50
390
0
  6
CONTINUOUS
 62
     7
100
AcDbLine
 10
91.8
 20
180.4
 30
0.0
 11
91.8
 21
184.65
 31
0.0
  0
LINE
  5
1536
100
AcDbEntity
  8
10000_FRONT
370
    50
390
0
  6
CONTINUOUS
 62
     7
100
AcDbLine
 10
91.9
 20
137.950001
 30
0.0
 11
91.9
 21
141.549999
 31
0.0
  0
LINE
  5
1537
100
AcDbEntity
  8
10000_FRONT
370
    50
390
0
  6
CONTINUOUS
 62
     7
100
AcDbLine
 10
91.9
 20
185.45
 30
0.0
 11
91.9
 21
189.05
 31
0.0
  0
LINE
  5
1538
100
AcDbEntity
  8
10000_FRONT
370
    50
390
0
  6
CONTINUOUS
 62
     7
100
AcDbLine
 10
92.151093
 20
175.450001
 30
0.0
 11
92.151093
 21
177.579565
 31
0.0
  0
LINE
  5
1539
100
AcDbEntity
  8
10000_FRONT
370
    50
390
0
  6
CONTINUOUS
 62
     7
100
AcDbLine
 10
92.3
 20
142.400002
 30
0.0
 11
92.3
 21
146.650002
 31
0.0
  0
LINE
  5
153A
100
AcDbEntity
  8
10000_FRONT
370
    50
390
0
  6
CONTINUOUS
 62
     7
100
AcDbLine
 10
92.3
 20
180.4
 30
0.0
 11
92.3
 21
184.65
 31
0.0
  0
LINE
  5
153B
100
AcDbEntity
  8
10000_FRONT
370
    50
390
0
  6
CONTINUOUS
 62
     7
100
AcDbLine
 10
92.3
 20
137.950001
 30
0.0
 11
92.3
 21
141.549999
 31
0.0
  0
LINE
  5
153C
100
AcDbEntity
  8
10000_FRONT
370
    50
390
0
  6
CONTINUOUS
 62
     7
100
AcDbLine
 10
92.3
 20
185.45
 30
0.0
 11
92.3
 21
189.05
 31
0.0
  0
LINE
  5
153D
100
AcDbEntity
  8
10000_FRONT
370
    50
390
0
  6
CONTINUOUS
 62
     7
100
AcDbLine
 10
92.5
 20
134.224998
 30
0.0
 11
92.5
 21
135.474998
 31
0.0
  0
LINE
  5
153E
100
AcDbEntity
  8
10000_FRONT
370
    50
390
0
  6
CONTINUOUS
 62
     7
100
AcDbLine
 10
92.5
 20
191.625
 30
0.0
 11
92.5
 21
192.875
 31
0.0
  0
LINE
  5
153F
100
AcDbEntity
  8
10000_FRONT
370
    50
390
0
  6
CONTINUOUS
 62
     7
100
AcDbLine
 10
92.55
 20
170.049999
 30
0.0
 11
92.55
 21
172.549999
 31
0.0
  0
LINE
  5
1540
100
AcDbEntity
  8
10000_FRONT
370
    50
390
0
  6
CONTINUOUS
 62
     7
100
AcDbLine
 10
92.628
 20
175.450001
 30
0.0
 11
92.628
 21
177.579565
 31
0.0
  0
LINE
  5
1541
100
AcDbEntity
  8
10000_FRONT
370
    50
390
0
  6
CONTINUOUS
 62
     7
100
AcDbLine
 10
92.75
 20
170.049999
 30
0.0
 11
92.75
 21
172.549999
 31
0.0
  0
LINE
  5
1542
100
AcDbEntity
  8
10000_FRONT
370
    50
390
0
  6
CONTINUOUS
 62
     7
100
AcDbLine
 10
92.85
 20
133.034416
 30
0.0
 11
92.85
 21
136.665585
 31
0.0
  0
LINE
  5
1543
100
AcDbEntity
  8
10000_FRONT
370
    50
390
0
  6
CONTINUOUS
 62
     7
100
AcDbLine
 10
92.85
 20
190.434421
 30
0.0
 11
92.85
 21
194.065586
 31
0.0
  0
LINE
  5
1544
100
AcDbEntity
  8
10000_FRONT
370
    50
390
0
  6
CONTINUOUS
 62
     7
100
AcDbLine
 10
93.05
 20
172.85
 30
0.0
 11
93.05
 21
173.049999
 31
0.0
  0
LINE
  5
1545
100
AcDbEntity
  8
10000_FRONT
370
    50
390
0
  6
CONTINUOUS
 62
     7
100
AcDbLine
 10
93.05
 20
169.549999
 30
0.0
 11
93.05
 21
169.75
 31
0.0
  0
LINE
  5
1546
100
AcDbEntity
  8
10000_FRONT
370
    50
390
0
  6
CONTINUOUS
 62
     7
100
AcDbLine
 10
93.249894
 20
176.71385
 30
0.0
 11
93.249894
 21
177.198402
 31
0.0
  0
LINE
  5
1547
100
AcDbEntity
  8
10000_FRONT
370
    50
390
0
  6
CONTINUOUS
 62
     7
100
AcDbLine
 10
93.249894
 20
175.848135
 30
0.0
 11
93.249894
 21
176.349665
 31
0.0
  0
LINE
  5
1548
100
AcDbEntity
  8
10000_FRONT
370
    50
390
0
  6
CONTINUOUS
 62
     7
100
AcDbLine
 10
93.35
 20
138.75
 30
0.0
 11
93.35
 21
140.75
 31
0.0
  0
LINE
  5
1549
100
AcDbEntity
  8
10000_FRONT
370
    50
390
0
  6
CONTINUOUS
 62
     7
100
AcDbLine
 10
93.35
 20
186.35
 30
0.0
 11
93.35
 21
188.35
 31
0.0
  0
LINE
  5
154A
100
AcDbEntity
  8
10000_FRONT
370
    50
390
0
  6
CONTINUOUS
 62
     7
100
AcDbLine
 10
93.55
 20
172.85
 30
0.0
 11
93.55
 21
173.049999
 31
0.0
  0
LINE
  5
154B
100
AcDbEntity
  8
10000_FRONT
370
    50
390
0
  6
CONTINUOUS
 62
     7
100
AcDbLine
 10
93.55
 20
169.549999
 30
0.0
 11
93.55
 21
169.75
 31
0.0
  0
LINE
  5
154C
100
AcDbEntity
  8
10000_FRONT
370
    50
390
0
  6
CONTINUOUS
 62
     7
100
AcDbLine
 10
93.65
 20
159.650002
 30
0.0
 11
93.65
 21
165.900002
 31
0.0
  0
LINE
  5
154D
100
AcDbEntity
  8
10000_FRONT
370
    50
390
0
  6
CONTINUOUS
 62
     7
100
AcDbLine
 10
93.85
 20
170.049999
 30
0.0
 11
93.85
 21
172.549999
 31
0.0
  0
LINE
  5
154E
100
AcDbEntity
  8
10000_FRONT
370
    50
390
0
  6
CONTINUOUS
 62
     7
100
AcDbLine
 10
94.05
 20
170.049999
 30
0.0
 11
94.05
 21
172.549999
 31
0.0
  0
LINE
  5
154F
100
AcDbEntity
  8
10000_FRONT
370
    50
390
0
  6
CONTINUOUS
 62
     7
100
AcDbLine
 10
94.081659
 20
176.349665
 30
0.0
 11
94.081659
 21
176.71385
 31
0.0
  0
LINE
  5
1550
100
AcDbEntity
  8
10000_FRONT
370
    50
390
0
  6
CONTINUOUS
 62
     7
100
AcDbLine
 10
94.202025
 20
177.198402
 30
0.0
 11
94.202025
 21
177.579565
 31
0.0
  0
LINE
  5
1551
100
AcDbEntity
  8
10000_FRONT
370
    50
390
0
  6
CONTINUOUS
 62
     7
100
AcDbLine
 10
94.202025
 20
175.450001
 30
0.0
 11
94.202025
 21
175.848135
 31
0.0
  0
LINE
  5
1552
100
AcDbEntity
  8
10000_FRONT
370
    50
390
0
  6
CONTINUOUS
 62
     7
100
AcDbLine
 10
94.584
 20
175.450001
 30
0.0
 11
94.584
 21
177.579565
 31
0.0
  0
LINE
  5
1553
100
AcDbEntity
  8
10000_FRONT
370
    50
390
0
  6
CONTINUOUS
 62
     7
100
AcDbLine
 10
95.017629
 20
175.450001
 30
0.0
 11
95.017629
 21
176.800268
 31
0.0
  0
LINE
  5
1554
100
AcDbEntity
  8
10000_FRONT
370
    50
390
0
  6
CONTINUOUS
 62
     7
100
AcDbLine
 10
95.25
 20
165.900002
 30
0.0
 11
95.25
 21
168.85
 31
0.0
  0
LINE
  5
1555
100
AcDbEntity
  8
10000_FRONT
370
    50
390
0
  6
CONTINUOUS
 62
     7
100
AcDbLine
 10
95.65
 20
138.75
 30
0.0
 11
95.65
 21
140.75
 31
0.0
  0
LINE
  5
1556
100
AcDbEntity
  8
10000_FRONT
370
    50
390
0
  6
CONTINUOUS
 62
     7
100
AcDbLine
 10
95.65
 20
186.35
 30
0.0
 11
95.65
 21
188.35
 31
0.0
  0
LINE
  5
1557
100
AcDbEntity
  8
10000_FRONT
370
    50
390
0
  6
CONTINUOUS
 62
     7
100
AcDbLine
 10
95.845
 20
160.150002
 30
0.0
 11
95.845
 21
173.15
 31
0.0
  0
LINE
  5
1558
100
AcDbEntity
  8
10000_FRONT
370
    50
390
0
  6
CONTINUOUS
 62
     7
100
AcDbLine
 10
96.040746
 20
176.246271
 30
0.0
 11
96.040746
 21
177.579565
 31
0.0
  0
LINE
  5
1559
100
AcDbEntity
  8
10000_FRONT
370
    50
390
0
  6
CONTINUOUS
 62
     7
100
AcDbLine
 10
96.3
 20
142.400002
 30
0.0
 11
96.3
 21
146.650002
 31
0.0
  0
LINE
  5
155A
100
AcDbEntity
  8
10000_FRONT
370
    50
390
0
  6
CONTINUOUS
 62
     7
100
AcDbLine
 10
96.3
 20
180.4
 30
0.0
 11
96.3
 21
184.65
 31
0.0
  0
LINE
  5
155B
100
AcDbEntity
  8
10000_FRONT
370
    50
390
0
  6
CONTINUOUS
 62
     7
100
AcDbLine
 10
96.4
 20
142.400002
 30
0.0
 11
96.4
 21
146.650002
 31
0.0
  0
LINE
  5
155C
100
AcDbEntity
  8
10000_FRONT
370
    50
390
0
  6
CONTINUOUS
 62
     7
100
AcDbLine
 10
96.4
 20
180.4
 30
0.0
 11
96.4
 21
184.65
 31
0.0
  0
LINE
  5
155D
100
AcDbEntity
  8
10000_FRONT
370
    50
390
0
  6
CONTINUOUS
 62
     7
100
AcDbLine
 10
96.451227
 20
175.450001
 30
0.0
 11
96.451227
 21
177.579565
 31
0.0
  0
LINE
  5
155E
100
AcDbEntity
  8
10000_FRONT
370
    50
390
0
  6
CONTINUOUS
 62
     7
100
AcDbLine
 10
96.836
 20
175.496294
 30
0.0
 11
96.836
 21
175.934553
 31
0.0
  0
LINE
  5
155F
100
AcDbEntity
  8
10000_FRONT
370
    50
390
0
  6
CONTINUOUS
 62
     7
100
AcDbLine
 10
96.85
 20
160.150002
 30
0.0
 11
96.85
 21
173.15
 31
0.0
  0
LINE
  5
1560
100
AcDbEntity
  8
10000_FRONT
370
    50
390
0
  6
CONTINUOUS
 62
     7
100
AcDbLine
 10
96.95
 20
159.849998
 30
0.0
 11
96.95
 21
168.85
 31
0.0
  0
LINE
  5
1561
100
AcDbEntity
  8
10000_FRONT
370
    50
390
0
  6
CONTINUOUS
 62
     7
100
AcDbLine
 10
97.25
 20
138.75
 30
0.0
 11
97.25
 21
140.75
 31
0.0
  0
LINE
  5
1562
100
AcDbEntity
  8
10000_FRONT
370
    50
390
0
  6
CONTINUOUS
 62
     7
100
AcDbLine
 10
97.25
 20
186.35
 30
0.0
 11
97.25
 21
188.35
 31
0.0
  0
LINE
  5
1563
100
AcDbEntity
  8
10000_FRONT
370
    50
390
0
  6
CONTINUOUS
 62
     7
100
AcDbLine
 10
97.4
 20
171.549999
 30
0.0
 11
97.4
 21
172.549999
 31
0.0
  0
LINE
  5
1564
100
AcDbEntity
  8
10000_FRONT
370
    50
390
0
  6
CONTINUOUS
 62
     7
100
AcDbLine
 10
98.294289
 20
177.155195
 30
0.0
 11
98.294289
 21
177.564133
 31
0.0
  0
LINE
  5
1565
100
AcDbEntity
  8
10000_FRONT
370
    50
390
0
  6
CONTINUOUS
 62
     7
100
AcDbLine
 10
98.6
 20
171.549999
 30
0.0
 11
98.6
 21
172.549999
 31
0.0
  0
LINE
  5
1566
100
AcDbEntity
  8
10000_FRONT
370
    50
390
0
  6
CONTINUOUS
 62
     7
100
AcDbLine
 10
98.856874
 20
160.950001
 30
0.0
 11
98.856874
 21
165.950001
 31
0.0
  0
LINE
  5
1567
100
AcDbEntity
  8
10000_FRONT
370
    50
390
0
  6
CONTINUOUS
 62
     7
100
AcDbLine
 10
98.86
 20
160.950001
 30
0.0
 11
98.86
 21
165.950001
 31
0.0
  0
LINE
  5
1568
100
AcDbEntity
  8
10000_FRONT
370
    50
390
0
  6
CONTINUOUS
 62
     7
100
AcDbLine
 10
98.96
 20
160.950001
 30
0.0
 11
98.96
 21
165.950001
 31
0.0
  0
LINE
  5
1569
100
AcDbEntity
  8
10000_FRONT
370
    50
390
0
  6
CONTINUOUS
 62
     7
100
AcDbLine
 10
99.26
 20
160.950001
 30
0.0
 11
99.26
 21
165.950001
 31
0.0
  0
LINE
  5
156A
100
AcDbEntity
  8
10000_FRONT
370
    50
390
0
  6
CONTINUOUS
 62
     7
100
AcDbLine
 10
99.3
 20
174.65
 30
0.0
 11
99.3
 21
178.450001
 31
0.0
  0
LINE
  5
156B
100
AcDbEntity
  8
10000_FRONT
370
    50
390
0
  6
CONTINUOUS
 62
     7
100
AcDbLine
 10
99.4
 20
174.450001
 30
0.0
 11
99.4
 21
178.65
 31
0.0
  0
LINE
  5
156C
100
AcDbEntity
  8
10000_FRONT
370
    50
390
0
  6
CONTINUOUS
 62
     7
100
AcDbLine
 10
99.55
 20
138.75
 30
0.0
 11
99.55
 21
140.75
 31
0.0
  0
LINE
  5
156D
100
AcDbEntity
  8
10000_FRONT
370
    50
390
0
  6
CONTINUOUS
 62
     7
100
AcDbLine
 10
99.55
 20
186.35
 30
0.0
 11
99.55
 21
188.35
 31
0.0
  0
LINE
  5
156E
100
AcDbEntity
  8
10000_FRONT
370
    50
390
0
  6
CONTINUOUS
 62
     7
100
AcDbLine
 10
99.808
 20
151.349998
 30
0.0
 11
99.808
 21
151.599998
 31
0.0
  0
LINE
  5
156F
100
AcDbEntity
  8
10000_FRONT
370
    50
390
0
  6
CONTINUOUS
 62
     7
100
AcDbLine
 10
99.808
 20
158.599998
 30
0.0
 11
99.808
 21
158.849998
 31
0.0
  0
LINE
  5
1570
100
AcDbEntity
  8
10000_FRONT
370
    50
390
0
  6
CONTINUOUS
 62
     7
100
AcDbLine
 10
99.95
 20
133.034409
 30
0.0
 11
99.95
 21
136.665596
 31
0.0
  0
LINE
  5
1571
100
AcDbEntity
  8
10000_FRONT
370
    50
390
0
  6
CONTINUOUS
 62
     7
100
AcDbLine
 10
99.95
 20
190.43441
 30
0.0
 11
99.95
 21
194.065596
 31
0.0
  0
LINE
  5
1572
100
AcDbEntity
  8
10000_FRONT
370
    50
390
0
  6
CONTINUOUS
 62
     7
100
AcDbLine
 10
100.15
 20
173.65
 30
0.0
 11
100.15
 21
174.049999
 31
0.0
  0
LINE
  5
1573
100
AcDbEntity
  8
10000_FRONT
370
    50
390
0
  6
CONTINUOUS
 62
     7
100
AcDbLine
 10
100.3
 20
134.224998
 30
0.0
 11
100.3
 21
135.474998
 31
0.0
  0
LINE
  5
1574
100
AcDbEntity
  8
10000_FRONT
370
    50
390
0
  6
CONTINUOUS
 62
     7
100
AcDbLine
 10
100.3
 20
191.625
 30
0.0
 11
100.3
 21
192.875
 31
0.0
  0
LINE
  5
1575
100
AcDbEntity
  8
10000_FRONT
370
    50
390
0
  6
CONTINUOUS
 62
     7
100
AcDbLine
 10
100.4
 20
142.400002
 30
0.0
 11
100.4
 21
146.650002
 31
0.0
  0
LINE
  5
1576
100
AcDbEntity
  8
10000_FRONT
370
    50
390
0
  6
CONTINUOUS
 62
     7
100
AcDbLine
 10
100.4
 20
180.4
 30
0.0
 11
100.4
 21
184.65
 31
0.0
  0
LINE
  5
1577
100
AcDbEntity
  8
10000_FRONT
370
    50
390
0
  6
CONTINUOUS
 62
     7
100
AcDbLine
 10
100.5
 20
137.950001
 30
0.0
 11
100.5
 21
141.549999
 31
0.0
  0
LINE
  5
1578
100
AcDbEntity
  8
10000_FRONT
370
    50
390
0
  6
CONTINUOUS
 62
     7
100
AcDbLine
 10
100.5
 20
185.45
 30
0.0
 11
100.5
 21
189.05
 31
0.0
  0
LINE
  5
1579
100
AcDbEntity
  8
10000_FRONT
370
    50
390
0
  6
CONTINUOUS
 62
     7
100
AcDbLine
 10
100.9
 20
142.400002
 30
0.0
 11
100.9
 21
146.650002
 31
0.0
  0
LINE
  5
157A
100
AcDbEntity
  8
10000_FRONT
370
    50
390
0
  6
CONTINUOUS
 62
     7
100
AcDbLine
 10
100.9
 20
180.4
 30
0.0
 11
100.9
 21
184.65
 31
0.0
  0
LINE
  5
157B
100
AcDbEntity
  8
10000_FRONT
370
    50
390
0
  6
CONTINUOUS
 62
     7
100
AcDbLine
 10
100.9
 20
137.950001
 30
0.0
 11
100.9
 21
141.549999
 31
0.0
  0
LINE
  5
157C
100
AcDbEntity
  8
10000_FRONT
370
    50
390
0
  6
CONTINUOUS
 62
     7
100
AcDbLine
 10
100.9
 20
185.45
 30
0.0
 11
100.9
 21
189.05
 31
0.0
  0
LINE
  5
157D
100
AcDbEntity
  8
10000_FRONT
370
    50
390
0
  6
CONTINUOUS
 62
     7
100
AcDbLine
 10
101.1
 20
191.625
 30
0.0
 11
101.1
 21
192.875
 31
0.0
  0
LINE
  5
157E
100
AcDbEntity
  8
10000_FRONT
370
    50
390
0
  6
CONTINUOUS
 62
     7
100
AcDbLine
 10
101.1
 20
134.224998
 30
0.0
 11
101.1
 21
135.474998
 31
0.0
  0
LINE
  5
157F
100
AcDbEntity
  8
10000_FRONT
370
    50
390
0
  6
CONTINUOUS
 62
     7
100
AcDbLine
 10
101.392
 20
151.349998
 30
0.0
 11
101.392
 21
151.599998
 31
0.0
  0
LINE
  5
1580
100
AcDbEntity
  8
10000_FRONT
370
    50
390
0
  6
CONTINUOUS
 62
     7
100
AcDbLine
 10
101.392
 20
158.599998
 30
0.0
 11
101.392
 21
158.849998
 31
0.0
  0
LINE
  5
1581
100
AcDbEntity
  8
10000_FRONT
370
    50
390
0
  6
CONTINUOUS
 62
     7
100
AcDbLine
 10
101.45
 20
133.034416
 30
0.0
 11
101.45
 21
136.665585
 31
0.0
  0
LINE
  5
1582
100
AcDbEntity
  8
10000_FRONT
370
    50
390
0
  6
CONTINUOUS
 62
     7
100
AcDbLine
 10
101.45
 20
190.434421
 30
0.0
 11
101.45
 21
194.065586
 31
0.0
  0
LINE
  5
1583
100
AcDbEntity
  8
10000_FRONT
370
    50
390
0
  6
CONTINUOUS
 62
     7
100
AcDbLine
 10
101.95
 20
138.75
 30
0.0
 11
101.95
 21
140.75
 31
0.0
  0
LINE
  5
1584
100
AcDbEntity
  8
10000_FRONT
370
    50
390
0
  6
CONTINUOUS
 62
     7
100
AcDbLine
 10
101.95
 20
186.35
 30
0.0
 11
101.95
 21
188.35
 31
0.0
  0
LINE
  5
1585
100
AcDbEntity
  8
10000_FRONT
370
    50
390
0
  6
CONTINUOUS
 62
     7
100
AcDbLine
 10
102.36
 20
160.950001
 30
0.0
 11
102.36
 21
165.950001
 31
0.0
  0
LINE
  5
1586
100
AcDbEntity
  8
10000_FRONT
370
    50
390
0
  6
CONTINUOUS
 62
     7
100
AcDbLine
 10
102.66
 20
160.950001
 30
0.0
 11
102.66
 21
165.950001
 31
0.0
  0
LINE
  5
1587
100
AcDbEntity
  8
10000_FRONT
370
    50
390
0
  6
CONTINUOUS
 62
     7
100
AcDbLine
 10
102.76
 20
160.950001
 30
0.0
 11
102.76
 21
165.950001
 31
0.0
  0
LINE
  5
1588
100
AcDbEntity
  8
10000_FRONT
370
    50
390
0
  6
CONTINUOUS
 62
     7
100
AcDbLine
 10
102.760211
 20
160.950001
 30
0.0
 11
102.760211
 21
165.950001
 31
0.0
  0
LINE
  5
1589
100
AcDbEntity
  8
10000_FRONT
370
    50
390
0
  6
CONTINUOUS
 62
     7
100
AcDbLine
 10
103.0
 20
171.549999
 30
0.0
 11
103.0
 21
172.549999
 31
0.0
  0
LINE
  5
158A
100
AcDbEntity
  8
10000_FRONT
370
    50
390
0
  6
CONTINUOUS
 62
     7
100
AcDbLine
 10
104.2
 20
171.549999
 30
0.0
 11
104.2
 21
172.549999
 31
0.0
  0
LINE
  5
158B
100
AcDbEntity
  8
10000_FRONT
370
    50
390
0
  6
CONTINUOUS
 62
     7
100
AcDbLine
 10
104.25
 20
138.75
 30
0.0
 11
104.25
 21
140.75
 31
0.0
  0
LINE
  5
158C
100
AcDbEntity
  8
10000_FRONT
370
    50
390
0
  6
CONTINUOUS
 62
     7
100
AcDbLine
 10
104.25
 20
186.35
 30
0.0
 11
104.25
 21
188.35
 31
0.0
  0
LINE
  5
158D
100
AcDbEntity
  8
10000_FRONT
370
    50
390
0
  6
CONTINUOUS
 62
     7
100
AcDbLine
 10
104.45
 20
159.849998
 30
0.0
 11
104.45
 21
168.85
 31
0.0
  0
LINE
  5
158E
100
AcDbEntity
  8
10000_FRONT
370
    50
390
0
  6
CONTINUOUS
 62
     7
100
AcDbLine
 10
104.55
 20
160.150002
 30
0.0
 11
104.55
 21
174.049999
 31
0.0
  0
LINE
  5
158F
100
AcDbEntity
  8
10000_FRONT
370
    50
390
0
  6
CONTINUOUS
 62
     7
100
AcDbLine
 10
104.9
 20
142.400002
 30
0.0
 11
104.9
 21
146.650002
 31
0.0
  0
LINE
  5
1590
100
AcDbEntity
  8
10000_FRONT
370
    50
390
0
  6
CONTINUOUS
 62
     7
100
AcDbLine
 10
104.9
 20
180.4
 30
0.0
 11
104.9
 21
184.65
 31
0.0
  0
LINE
  5
1591
100
AcDbEntity
  8
10000_FRONT
370
    50
390
0
  6
CONTINUOUS
 62
     7
100
AcDbLine
 10
105.0
 20
142.400002
 30
0.0
 11
105.0
 21
146.650002
 31
0.0
  0
LINE
  5
1592
100
AcDbEntity
  8
10000_FRONT
370
    50
390
0
  6
CONTINUOUS
 62
     7
100
AcDbLine
 10
105.0
 20
180.4
 30
0.0
 11
105.0
 21
184.65
 31
0.0
  0
LINE
  5
1593
100
AcDbEntity
  8
10000_FRONT
370
    50
390
0
  6
CONTINUOUS
 62
     7
100
AcDbLine
 10
105.1
 20
151.599998
 30
0.0
 11
105.1
 21
158.599998
 31
0.0
  0
LINE
  5
1594
100
AcDbEntity
  8
10000_FRONT
370
    50
390
0
  6
CONTINUOUS
 62
     7
100
AcDbLine
 10
105.21
 20
157.549999
 30
0.0
 11
105.21
 21
158.849998
 31
0.0
  0
LINE
  5
1595
100
AcDbEntity
  8
10000_FRONT
370
    50
390
0
  6
CONTINUOUS
 62
     7
100
AcDbLine
 10
105.55
 20
160.150024
 30
0.0
 11
105.55
 21
173.150013
 31
0.0
  0
LINE
  5
1596
100
AcDbEntity
  8
10000_FRONT
370
    50
390
0
  6
CONTINUOUS
 62
     7
100
AcDbLine
 10
105.85
 20
138.75
 30
0.0
 11
105.85
 21
140.75
 31
0.0
  0
LINE
  5
1597
100
AcDbEntity
  8
10000_FRONT
370
    50
390
0
  6
CONTINUOUS
 62
     7
100
AcDbLine
 10
105.85
 20
186.35
 30
0.0
 11
105.85
 21
188.35
 31
0.0
  0
LINE
  5
1598
100
AcDbEntity
  8
10000_FRONT
370
    50
390
0
  6
CONTINUOUS
 62
     7
100
AcDbLine
 10
106.15
 20
165.900002
 30
0.0
 11
106.15
 21
168.85
 31
0.0
  0
LINE
  5
1599
100
AcDbEntity
  8
10000_FRONT
370
    50
390
0
  6
CONTINUOUS
 62
     7
100
AcDbLine
 10
106.396594
 20
177.370625
 30
0.0
 11
106.396594
 21
177.665501
 31
0.0
  0
LINE
  5
159A
100
AcDbEntity
  8
10000_FRONT
370
    50
390
0
  6
CONTINUOUS
 62
     7
100
AcDbLine
 10
106.595656
 20
177.389
 30
0.0
 11
106.595656
 21
177.643625
 31
0.0
  0
LINE
  5
159B
100
AcDbEntity
  8
10000_FRONT
370
    50
390
0
  6
CONTINUOUS
 62
     7
100
AcDbLine
 10
106.71
 20
151.349998
 30
0.0
 11
106.71
 21
157.549999
 31
0.0
  0
LINE
  5
159C
100
AcDbEntity
  8
10000_FRONT
370
    50
390
0
  6
CONTINUOUS
 62
     7
100
AcDbLine
 10
107.55
 20
170.049999
 30
0.0
 11
107.55
 21
172.549999
 31
0.0
  0
LINE
  5
159D
100
AcDbEntity
  8
10000_FRONT
370
    50
390
0
  6
CONTINUOUS
 62
     7
100
AcDbLine
 10
107.600003
 20
157.00922
 30
0.0
 11
107.600003
 21
159.550026
 31
0.0
  0
LINE
  5
159E
100
AcDbEntity
  8
10000_FRONT
370
    50
390
0
  6
CONTINUOUS
 62
     7
100
AcDbLine
 10
107.75
 20
170.049999
 30
0.0
 11
107.75
 21
172.549999
 31
0.0
  0
LINE
  5
159F
100
AcDbEntity
  8
10000_FRONT
370
    50
390
0
  6
CONTINUOUS
 62
     7
100
AcDbLine
 10
107.850003
 20
152.902538
 30
0.0
 11
107.850003
 21
156.076206
 31
0.0
  0
LINE
  5
15A0
100
AcDbEntity
  8
10000_FRONT
370
    50
390
0
  6
CONTINUOUS
 62
     7
100
AcDbLine
 10
107.95
 20
158.700001
 30
0.0
 11
107.95
 21
165.900002
 31
0.0
  0
LINE
  5
15A1
100
AcDbEntity
  8
10000_FRONT
370
    50
390
0
  6
CONTINUOUS
 62
     7
100
AcDbLine
 10
108.05
 20
172.85
 30
0.0
 11
108.05
 21
173.049999
 31
0.0
  0
LINE
  5
15A2
100
AcDbEntity
  8
10000_FRONT
370
    50
390
0
  6
CONTINUOUS
 62
     7
100
AcDbLine
 10
108.05
 20
169.549999
 30
0.0
 11
108.05
 21
169.75
 31
0.0
  0
LINE
  5
15A3
100
AcDbEntity
  8
10000_FRONT
370
    50
390
0
  6
CONTINUOUS
 62
     7
100
AcDbLine
 10
108.15
 20
138.75
 30
0.0
 11
108.15
 21
140.75
 31
0.0
  0
LINE
  5
15A4
100
AcDbEntity
  8
10000_FRONT
370
    50
390
0
  6
CONTINUOUS
 62
     7
100
AcDbLine
 10
108.15
 20
186.35
 30
0.0
 11
108.15
 21
188.35
 31
0.0
  0
LINE
  5
15A5
100
AcDbEntity
  8
10000_FRONT
370
    50
390
0
  6
CONTINUOUS
 62
     7
100
AcDbLine
 10
108.1805
 20
175.608376
 30
0.0
 11
108.1805
 21
175.998625
 31
0.0
  0
LINE
  5
15A6
100
AcDbEntity
  8
10000_FRONT
370
    50
390
0
  6
CONTINUOUS
 62
     7
100
AcDbLine
 10
108.3765
 20
175.5865
 30
0.0
 11
108.3765
 21
176.019188
 31
0.0
  0
LINE
  5
15A7
100
AcDbEntity
  8
10000_FRONT
370
    50
390
0
  6
CONTINUOUS
 62
     7
100
AcDbLine
 10
108.55
 20
133.034409
 30
0.0
 11
108.55
 21
136.665596
 31
0.0
  0
LINE
  5
15A8
100
AcDbEntity
  8
10000_FRONT
370
    50
390
0
  6
CONTINUOUS
 62
     7
100
AcDbLine
 10
108.55
 20
190.43441
 30
0.0
 11
108.55
 21
194.065596
 31
0.0
  0
LINE
  5
15A9
100
AcDbEntity
  8
10000_FRONT
370
    50
390
0
  6
CONTINUOUS
 62
     7
100
AcDbLine
 10
108.55
 20
172.85
 30
0.0
 11
108.55
 21
173.049999
 31
0.0
  0
LINE
  5
15AA
100
AcDbEntity
  8
10000_FRONT
370
    50
390
0
  6
CONTINUOUS
 62
     7
100
AcDbLine
 10
108.55
 20
169.549999
 30
0.0
 11
108.55
 21
169.75
 31
0.0
  0
LINE
  5
15AB
100
AcDbEntity
  8
10000_FRONT
370
    50
390
0
  6
CONTINUOUS
 62
     7
100
AcDbLine
 10
108.85
 20
170.049999
 30
0.0
 11
108.85
 21
172.549999
 31
0.0
  0
LINE
  5
15AC
100
AcDbEntity
  8
10000_FRONT
370
    50
390
0
  6
CONTINUOUS
 62
     7
100
AcDbLine
 10
108.9
 20
134.224998
 30
0.0
 11
108.9
 21
135.474998
 31
0.0
  0
LINE
  5
15AD
100
AcDbEntity
  8
10000_FRONT
370
    50
390
0
  6
CONTINUOUS
 62
     7
100
AcDbLine
 10
108.9
 20
191.625
 30
0.0
 11
108.9
 21
192.875
 31
0.0
  0
LINE
  5
15AE
100
AcDbEntity
  8
10000_FRONT
370
    50
390
0
  6
CONTINUOUS
 62
     7
100
AcDbLine
 10
109.0
 20
142.400002
 30
0.0
 11
109.0
 21
146.650002
 31
0.0
  0
LINE
  5
15AF
100
AcDbEntity
  8
10000_FRONT
370
    50
390
0
  6
CONTINUOUS
 62
     7
100
AcDbLine
 10
109.0
 20
180.4
 30
0.0
 11
109.0
 21
184.65
 31
0.0
  0
LINE
  5
15B0
100
AcDbEntity
  8
10000_FRONT
370
    50
390
0
  6
CONTINUOUS
 62
     7
100
AcDbLine
 10
109.05
 20
170.049999
 30
0.0
 11
109.05
 21
172.549999
 31
0.0
  0
LINE
  5
15B1
100
AcDbEntity
  8
10000_FRONT
370
    50
390
0
  6
CONTINUOUS
 62
     7
100
AcDbLine
 10
109.1
 20
137.950001
 30
0.0
 11
109.1
 21
141.549999
 31
0.0
  0
LINE
  5
15B2
100
AcDbEntity
  8
10000_FRONT
370
    50
390
0
  6
CONTINUOUS
 62
     7
100
AcDbLine
 10
109.1
 20
185.45
 30
0.0
 11
109.1
 21
189.05
 31
0.0
  0
LINE
  5
15B3
100
AcDbEntity
  8
10000_FRONT
370
    50
390
0
  6
CONTINUOUS
 62
     7
100
AcDbLine
 10
109.339
 20
175.156
 30
0.0
 11
109.339
 21
178.096001
 31
0.0
  0
LINE
  5
15B4
100
AcDbEntity
  8
10000_FRONT
370
    50
390
0
  6
CONTINUOUS
 62
     7
100
AcDbLine
 10
109.449999
 20
152.902534
 30
0.0
 11
109.449999
 21
156.076202
 31
0.0
  0
LINE
  5
15B5
100
AcDbEntity
  8
10000_FRONT
370
    50
390
0
  6
CONTINUOUS
 62
     7
100
AcDbLine
 10
109.5
 20
142.400002
 30
0.0
 11
109.5
 21
146.650002
 31
0.0
  0
LINE
  5
15B6
100
AcDbEntity
  8
10000_FRONT
370
    50
390
0
  6
CONTINUOUS
 62
     7
100
AcDbLine
 10
109.5
 20
180.4
 30
0.0
 11
109.5
 21
184.65
 31
0.0
  0
LINE
  5
15B7
100
AcDbEntity
  8
10000_FRONT
370
    50
390
0
  6
CONTINUOUS
 62
     7
100
AcDbLine
 10
109.5
 20
137.950001
 30
0.0
 11
109.5
 21
141.549999
 31
0.0
  0
LINE
  5
15B8
100
AcDbEntity
  8
10000_FRONT
370
    50
390
0
  6
CONTINUOUS
 62
     7
100
AcDbLine
 10
109.5
 20
185.45
 30
0.0
 11
109.5
 21
189.05
 31
0.0
  0
LINE
  5
15B9
100
AcDbEntity
  8
10000_FRONT
370
    50
390
0
  6
CONTINUOUS
 62
     7
100
AcDbLine
 10
109.535
 20
175.156
 30
0.0
 11
109.535
 21
178.096001
 31
0.0
  0
LINE
  5
15BA
100
AcDbEntity
  8
10000_FRONT
370
    50
390
0
  6
CONTINUOUS
 62
     7
100
AcDbLine
 10
109.7
 20
134.224998
 30
0.0
 11
109.7
 21
135.474998
 31
0.0
  0
LINE
  5
15BB
100
AcDbEntity
  8
10000_FRONT
370
    50
390
0
  6
CONTINUOUS
 62
     7
100
AcDbLine
 10
109.7
 20
191.625
 30
0.0
 11
109.7
 21
192.875
 31
0.0
  0
LINE
  5
15BC
100
AcDbEntity
  8
10000_FRONT
370
    50
390
0
  6
CONTINUOUS
 62
     7
100
AcDbLine
 10
110.05
 20
133.034416
 30
0.0
 11
110.05
 21
136.665585
 31
0.0
  0
LINE
  5
15BD
100
AcDbEntity
  8
10000_FRONT
370
    50
390
0
  6
CONTINUOUS
 62
     7
100
AcDbLine
 10
110.05
 20
190.434421
 30
0.0
 11
110.05
 21
194.065586
 31
0.0
  0
LINE
  5
15BE
100
AcDbEntity
  8
10000_FRONT
370
    50
390
0
  6
CONTINUOUS
 62
     7
100
AcDbLine
 10
110.539
 20
175.156
 30
0.0
 11
110.539
 21
178.096001
 31
0.0
  0
LINE
  5
15BF
100
AcDbEntity
  8
10000_FRONT
370
    50
390
0
  6
CONTINUOUS
 62
     7
100
AcDbLine
 10
110.55
 20
138.75
 30
0.0
 11
110.55
 21
140.75
 31
0.0
  0
LINE
  5
15C0
100
AcDbEntity
  8
10000_FRONT
370
    50
390
0
  6
CONTINUOUS
 62
     7
100
AcDbLine
 10
110.55
 20
186.35
 30
0.0
 11
110.55
 21
188.35
 31
0.0
  0
LINE
  5
15C1
100
AcDbEntity
  8
10000_FRONT
370
    50
390
0
  6
CONTINUOUS
 62
     7
100
AcDbLine
 10
110.735
 20
176.724001
 30
0.0
 11
110.735
 21
177.9
 31
0.0
  0
LINE
  5
15C2
100
AcDbEntity
  8
10000_FRONT
370
    50
390
0
  6
CONTINUOUS
 62
     7
100
AcDbLine
 10
110.735
 20
175.156
 30
0.0
 11
110.735
 21
176.528
 31
0.0
  0
LINE
  5
15C3
100
AcDbEntity
  8
10000_FRONT
370
    50
390
0
  6
CONTINUOUS
 62
     7
100
AcDbLine
 10
112.1805
 20
177.113375
 30
0.0
 11
112.1805
 21
177.510626
 31
0.0
  0
LINE
  5
15C4
100
AcDbEntity
  8
10000_FRONT
370
    50
390
0
  6
CONTINUOUS
 62
     7
100
AcDbLine
 10
112.3765
 20
177.098938
 30
0.0
 11
112.3765
 21
177.525063
 31
0.0
  0
LINE
  5
15C5
100
AcDbEntity
  8
10000_FRONT
370
    50
390
0
  6
CONTINUOUS
 62
     7
100
AcDbLine
 10
112.85
 20
138.75
 30
0.0
 11
112.85
 21
140.75
 31
0.0
  0
LINE
  5
15C6
100
AcDbEntity
  8
10000_FRONT
370
    50
390
0
  6
CONTINUOUS
 62
     7
100
AcDbLine
 10
112.85
 20
186.35
 30
0.0
 11
112.85
 21
188.35
 31
0.0
  0
LINE
  5
15C7
100
AcDbEntity
  8
10000_FRONT
370
    50
390
0
  6
CONTINUOUS
 62
     7
100
AcDbLine
 10
113.339
 20
175.156
 30
0.0
 11
113.339
 21
178.096001
 31
0.0
  0
LINE
  5
15C8
100
AcDbEntity
  8
10000_FRONT
370
    50
390
0
  6
CONTINUOUS
 62
     7
100
AcDbLine
 10
113.5
 20
142.400002
 30
0.0
 11
113.5
 21
146.650002
 31
0.0
  0
LINE
  5
15C9
100
AcDbEntity
  8
10000_FRONT
370
    50
390
0
  6
CONTINUOUS
 62
     7
100
AcDbLine
 10
113.5
 20
180.4
 30
0.0
 11
113.5
 21
184.65
 31
0.0
  0
LINE
  5
15CA
100
AcDbEntity
  8
10000_FRONT
370
    50
390
0
  6
CONTINUOUS
 62
     7
100
AcDbLine
 10
113.535
 20
175.156
 30
0.0
 11
113.535
 21
178.096001
 31
0.0
  0
LINE
  5
15CB
100
AcDbEntity
  8
10000_FRONT
370
    50
390
0
  6
CONTINUOUS
 62
     7
100
AcDbLine
 10
113.6
 20
142.400002
 30
0.0
 11
113.6
 21
146.650002
 31
0.0
  0
LINE
  5
15CC
100
AcDbEntity
  8
10000_FRONT
370
    50
390
0
  6
CONTINUOUS
 62
     7
100
AcDbLine
 10
113.6
 20
180.4
 30
0.0
 11
113.6
 21
184.65
 31
0.0
  0
LINE
  5
15CD
100
AcDbEntity
  8
10000_FRONT
370
    50
390
0
  6
CONTINUOUS
 62
     7
100
AcDbLine
 10
114.45
 20
138.75
 30
0.0
 11
114.45
 21
140.75
 31
0.0
  0
LINE
  5
15CE
100
AcDbEntity
  8
10000_FRONT
370
    50
390
0
  6
CONTINUOUS
 62
     7
100
AcDbLine
 10
114.45
 20
186.35
 30
0.0
 11
114.45
 21
188.35
 31
0.0
  0
LINE
  5
15CF
100
AcDbEntity
  8
10000_FRONT
370
    50
390
0
  6
CONTINUOUS
 62
     7
100
AcDbLine
 10
114.539
 20
176.004749
 30
0.0
 11
114.539
 21
178.096001
 31
0.0
  0
LINE
  5
15D0
100
AcDbEntity
  8
10000_FRONT
370
    50
390
0
  6
CONTINUOUS
 62
     7
100
AcDbLine
 10
114.735
 20
176.011312
 30
0.0
 11
114.735
 21
178.096001
 31
0.0
  0
LINE
  5
15D1
100
AcDbEntity
  8
10000_FRONT
370
    50
390
0
  6
CONTINUOUS
 62
     7
100
AcDbLine
 10
116.3275
 20
176.011312
 30
0.0
 11
116.3275
 21
178.096001
 31
0.0
  0
LINE
  5
15D2
100
AcDbEntity
  8
10000_FRONT
370
    50
390
0
  6
CONTINUOUS
 62
     7
100
AcDbLine
 10
116.5235
 20
176.004749
 30
0.0
 11
116.5235
 21
178.096001
 31
0.0
  0
LINE
  5
15D3
100
AcDbEntity
  8
10000_FRONT
370
    50
390
0
  6
CONTINUOUS
 62
     7
100
AcDbLine
 10
116.75
 20
138.75
 30
0.0
 11
116.75
 21
140.75
 31
0.0
  0
LINE
  5
15D4
100
AcDbEntity
  8
10000_FRONT
370
    50
390
0
  6
CONTINUOUS
 62
     7
100
AcDbLine
 10
116.75
 20
186.35
 30
0.0
 11
116.75
 21
188.35
 31
0.0
  0
LINE
  5
15D5
100
AcDbEntity
  8
10000_FRONT
370
    50
390
0
  6
CONTINUOUS
 62
     7
100
AcDbLine
 10
117.15
 20
133.034409
 30
0.0
 11
117.15
 21
136.665596
 31
0.0
  0
LINE
  5
15D6
100
AcDbEntity
  8
10000_FRONT
370
    50
390
0
  6
CONTINUOUS
 62
     7
100
AcDbLine
 10
117.15
 20
190.43441
 30
0.0
 11
117.15
 21
194.065596
 31
0.0
  0
LINE
  5
15D7
100
AcDbEntity
  8
10000_FRONT
370
    50
390
0
  6
CONTINUOUS
 62
     7
100
AcDbLine
 10
117.396594
 20
177.370625
 30
0.0
 11
117.396594
 21
177.665501
 31
0.0
  0
LINE
  5
15D8
100
AcDbEntity
  8
10000_FRONT
370
    50
390
0
  6
CONTINUOUS
 62
     7
100
AcDbLine
 10
117.5
 20
134.224998
 30
0.0
 11
117.5
 21
135.474998
 31
0.0
  0
LINE
  5
15D9
100
AcDbEntity
  8
10000_FRONT
370
    50
390
0
  6
CONTINUOUS
 62
     7
100
AcDbLine
 10
117.5
 20
191.625
 30
0.0
 11
117.5
 21
192.875
 31
0.0
  0
LINE
  5
15DA
100
AcDbEntity
  8
10000_FRONT
370
    50
390
0
  6
CONTINUOUS
 62
     7
100
AcDbLine
 10
117.595656
 20
177.389
 30
0.0
 11
117.595656
 21
177.643625
 31
0.0
  0
LINE
  5
15DB
100
AcDbEntity
  8
10000_FRONT
370
    50
390
0
  6
CONTINUOUS
 62
     7
100
AcDbLine
 10
117.6
 20
142.400002
 30
0.0
 11
117.6
 21
146.650002
 31
0.0
  0
LINE
  5
15DC
100
AcDbEntity
  8
10000_FRONT
370
    50
390
0
  6
CONTINUOUS
 62
     7
100
AcDbLine
 10
117.6
 20
180.4
 30
0.0
 11
117.6
 21
184.65
 31
0.0
  0
LINE
  5
15DD
100
AcDbEntity
  8
10000_FRONT
370
    50
390
0
  6
CONTINUOUS
 62
     7
100
AcDbLine
 10
117.7
 20
137.950001
 30
0.0
 11
117.7
 21
141.549999
 31
0.0
  0
LINE
  5
15DE
100
AcDbEntity
  8
10000_FRONT
370
    50
390
0
  6
CONTINUOUS
 62
     7
100
AcDbLine
 10
117.7
 20
185.45
 30
0.0
 11
117.7
 21
189.05
 31
0.0
  0
LINE
  5
15DF
100
AcDbEntity
  8
10000_FRONT
370
    50
390
0
  6
CONTINUOUS
 62
     7
100
AcDbLine
 10
118.1
 20
142.400002
 30
0.0
 11
118.1
 21
146.650002
 31
0.0
  0
LINE
  5
15E0
100
AcDbEntity
  8
10000_FRONT
370
    50
390
0
  6
CONTINUOUS
 62
     7
100
AcDbLine
 10
118.1
 20
180.4
 30
0.0
 11
118.1
 21
184.65
 31
0.0
  0
LINE
  5
15E1
100
AcDbEntity
  8
10000_FRONT
370
    50
390
0
  6
CONTINUOUS
 62
     7
100
AcDbLine
 10
118.1
 20
137.950001
 30
0.0
 11
118.1
 21
141.549999
 31
0.0
  0
LINE
  5
15E2
100
AcDbEntity
  8
10000_FRONT
370
    50
390
0
  6
CONTINUOUS
 62
     7
100
AcDbLine
 10
118.1
 20
185.45
 30
0.0
 11
118.1
 21
189.05
 31
0.0
  0
LINE
  5
15E3
100
AcDbEntity
  8
10000_FRONT
370
    50
390
0
  6
CONTINUOUS
 62
     7
100
AcDbLine
 10
118.3
 20
134.224998
 30
0.0
 11
118.3
 21
135.474998
 31
0.0
  0
LINE
  5
15E4
100
AcDbEntity
  8
10000_FRONT
370
    50
390
0
  6
CONTINUOUS
 62
     7
100
AcDbLine
 10
118.3
 20
191.625
 30
0.0
 11
118.3
 21
192.875
 31
0.0
  0
LINE
  5
15E5
100
AcDbEntity
  8
10000_FRONT
370
    50
390
0
  6
CONTINUOUS
 62
     7
100
AcDbLine
 10
118.65
 20
133.034416
 30
0.0
 11
118.65
 21
136.665585
 31
0.0
  0
LINE
  5
15E6
100
AcDbEntity
  8
10000_FRONT
370
    50
390
0
  6
CONTINUOUS
 62
     7
100
AcDbLine
 10
118.65
 20
190.434421
 30
0.0
 11
118.65
 21
194.065586
 31
0.0
  0
LINE
  5
15E7
100
AcDbEntity
  8
10000_FRONT
370
    50
390
0
  6
CONTINUOUS
 62
     7
100
AcDbLine
 10
119.15
 20
138.75
 30
0.0
 11
119.15
 21
140.75
 31
0.0
  0
LINE
  5
15E8
100
AcDbEntity
  8
10000_FRONT
370
    50
390
0
  6
CONTINUOUS
 62
     7
100
AcDbLine
 10
119.15
 20
186.35
 30
0.0
 11
119.15
 21
188.35
 31
0.0
  0
LINE
  5
15E9
100
AcDbEntity
  8
10000_FRONT
370
    50
390
0
  6
CONTINUOUS
 62
     7
100
AcDbLine
 10
119.1805
 20
175.608376
 30
0.0
 11
119.1805
 21
175.998625
 31
0.0
  0
LINE
  5
15EA
100
AcDbEntity
  8
10000_FRONT
370
    50
390
0
  6
CONTINUOUS
 62
     7
100
AcDbLine
 10
119.3765
 20
175.5865
 30
0.0
 11
119.3765
 21
176.019188
 31
0.0
  0
LINE
  5
15EB
100
AcDbEntity
  8
10000_FRONT
370
    50
390
0
  6
CONTINUOUS
 62
     7
100
AcDbLine
 10
119.75
 20
174.25
 30
0.0
 11
119.75
 21
176.049999
 31
0.0
  0
LINE
  5
15EC
100
AcDbEntity
  8
10000_FRONT
370
    50
390
0
  6
CONTINUOUS
 62
     7
100
AcDbLine
 10
120.45
 20
150.950001
 30
0.0
 11
120.45
 21
155.849998
 31
0.0
  0
LINE
  5
15ED
100
AcDbEntity
  8
10000_FRONT
370
    50
390
0
  6
CONTINUOUS
 62
     7
100
AcDbLine
 10
120.45
 20
171.15
 30
0.0
 11
120.45
 21
174.25
 31
0.0
  0
LINE
  5
15EE
100
AcDbEntity
  8
10000_FRONT
370
    50
390
0
  6
CONTINUOUS
 62
     7
100
AcDbLine
 10
120.5
 20
157.549999
 30
0.0
 11
120.5
 21
160.25
 31
0.0
  0
LINE
  5
15EF
100
AcDbEntity
  8
10000_FRONT
370
    50
390
0
  6
CONTINUOUS
 62
     7
100
AcDbLine
 10
120.5
 20
166.950001
 30
0.0
 11
120.5
 21
169.65
 31
0.0
  0
LINE
  5
15F0
100
AcDbEntity
  8
10000_FRONT
370
    50
390
0
  6
CONTINUOUS
 62
     7
100
AcDbLine
 10
121.450001
 20
138.75
 30
0.0
 11
121.450001
 21
140.75
 31
0.0
  0
LINE
  5
15F1
100
AcDbEntity
  8
10000_FRONT
370
    50
390
0
  6
CONTINUOUS
 62
     7
100
AcDbLine
 10
121.450001
 20
186.35
 30
0.0
 11
121.450001
 21
188.35
 31
0.0
  0
LINE
  5
15F2
100
AcDbEntity
  8
10000_FRONT
370
    50
390
0
  6
CONTINUOUS
 62
     7
100
AcDbLine
 10
122.1
 20
142.400002
 30
0.0
 11
122.1
 21
146.650002
 31
0.0
  0
LINE
  5
15F3
100
AcDbEntity
  8
10000_FRONT
370
    50
390
0
  6
CONTINUOUS
 62
     7
100
AcDbLine
 10
122.1
 20
180.4
 30
0.0
 11
122.1
 21
184.65
 31
0.0
  0
LINE
  5
15F4
100
AcDbEntity
  8
10000_FRONT
370
    50
390
0
  6
CONTINUOUS
 62
     7
100
AcDbLine
 10
122.200001
 20
142.400002
 30
0.0
 11
122.200001
 21
146.650002
 31
0.0
  0
LINE
  5
15F5
100
AcDbEntity
  8
10000_FRONT
370
    50
390
0
  6
CONTINUOUS
 62
     7
100
AcDbLine
 10
122.200001
 20
180.4
 30
0.0
 11
122.200001
 21
184.65
 31
0.0
  0
LINE
  5
15F6
100
AcDbEntity
  8
10000_FRONT
370
    50
390
0
  6
CONTINUOUS
 62
     7
100
AcDbLine
 10
123.049999
 20
138.75
 30
0.0
 11
123.049999
 21
140.75
 31
0.0
  0
LINE
  5
15F7
100
AcDbEntity
  8
10000_FRONT
370
    50
390
0
  6
CONTINUOUS
 62
     7
100
AcDbLine
 10
123.049999
 20
186.35
 30
0.0
 11
123.049999
 21
188.35
 31
0.0
  0
LINE
  5
15F8
100
AcDbEntity
  8
10000_FRONT
370
    50
390
0
  6
CONTINUOUS
 62
     7
100
AcDbLine
 10
123.950001
 20
150.950001
 30
0.0
 11
123.950001
 21
155.849998
 31
0.0
  0
LINE
  5
15F9
100
AcDbEntity
  8
10000_FRONT
370
    50
390
0
  6
CONTINUOUS
 62
     7
100
AcDbLine
 10
123.950001
 20
171.15
 30
0.0
 11
123.950001
 21
174.25
 31
0.0
  0
LINE
  5
15FA
100
AcDbEntity
  8
10000_FRONT
370
    50
390
0
  6
CONTINUOUS
 62
     7
100
AcDbLine
 10
124.65
 20
174.25
 30
0.0
 11
124.65
 21
176.049999
 31
0.0
  0
LINE
  5
15FB
100
AcDbEntity
  8
10000_FRONT
370
    50
390
0
  6
CONTINUOUS
 62
     7
100
AcDbLine
 10
125.299999
 20
157.549999
 30
0.0
 11
125.299999
 21
160.25
 31
0.0
  0
LINE
  5
15FC
100
AcDbEntity
  8
10000_FRONT
370
    50
390
0
  6
CONTINUOUS
 62
     7
100
AcDbLine
 10
125.299999
 20
166.950001
 30
0.0
 11
125.299999
 21
169.65
 31
0.0
  0
LINE
  5
15FD
100
AcDbEntity
  8
10000_FRONT
370
    50
390
0
  6
CONTINUOUS
 62
     7
100
AcDbLine
 10
125.35
 20
138.75
 30
0.0
 11
125.35
 21
140.75
 31
0.0
  0
LINE
  5
15FE
100
AcDbEntity
  8
10000_FRONT
370
    50
390
0
  6
CONTINUOUS
 62
     7
100
AcDbLine
 10
125.35
 20
186.35
 30
0.0
 11
125.35
 21
188.35
 31
0.0
  0
LINE
  5
15FF
100
AcDbEntity
  8
10000_FRONT
370
    50
390
0
  6
CONTINUOUS
 62
     7
100
AcDbLine
 10
125.75
 20
133.034409
 30
0.0
 11
125.75
 21
136.665596
 31
0.0
  0
LINE
  5
1600
100
AcDbEntity
  8
10000_FRONT
370
    50
390
0
  6
CONTINUOUS
 62
     7
100
AcDbLine
 10
125.75
 20
190.43441
 30
0.0
 11
125.75
 21
194.065596
 31
0.0
  0
LINE
  5
1601
100
AcDbEntity
  8
10000_FRONT
370
    50
390
0
  6
CONTINUOUS
 62
     7
100
AcDbLine
 10
126.1
 20
134.224998
 30
0.0
 11
126.1
 21
135.474998
 31
0.0
  0
LINE
  5
1602
100
AcDbEntity
  8
10000_FRONT
370
    50
390
0
  6
CONTINUOUS
 62
     7
100
AcDbLine
 10
126.1
 20
191.625
 30
0.0
 11
126.1
 21
192.875
 31
0.0
  0
LINE
  5
1603
100
AcDbEntity
  8
10000_FRONT
370
    50
390
0
  6
CONTINUOUS
 62
     7
100
AcDbLine
 10
126.200001
 20
142.400002
 30
0.0
 11
126.200001
 21
146.650002
 31
0.0
  0
LINE
  5
1604
100
AcDbEntity
  8
10000_FRONT
370
    50
390
0
  6
CONTINUOUS
 62
     7
100
AcDbLine
 10
126.200001
 20
180.4
 30
0.0
 11
126.200001
 21
184.65
 31
0.0
  0
LINE
  5
1605
100
AcDbEntity
  8
10000_FRONT
370
    50
390
0
  6
CONTINUOUS
 62
     7
100
AcDbLine
 10
126.299999
 20
137.950001
 30
0.0
 11
126.299999
 21
141.549999
 31
0.0
  0
LINE
  5
1606
100
AcDbEntity
  8
10000_FRONT
370
    50
390
0
  6
CONTINUOUS
 62
     7
100
AcDbLine
 10
126.299999
 20
185.45
 30
0.0
 11
126.299999
 21
189.05
 31
0.0
  0
LINE
  5
1607
100
AcDbEntity
  8
10000_FRONT
370
    50
390
0
  6
CONTINUOUS
 62
     7
100
AcDbLine
 10
127.006002
 20
136.404861
 30
0.0
 11
127.006002
 21
190.695016
 31
0.0
  0
LINE
  5
1608
100
AcDbEntity
  8
10000_FRONT
370
    50
390
0
  6
CONTINUOUS
 62
     7
100
AcDbLine
 10
127.5
 20
129.25
 30
0.0
 11
127.5
 21
197.75
 31
0.0
  0
LINE
  5
1609
100
AcDbEntity
  8
10000_FRONT
370
    50
390
0
  6
CONTINUOUS
 62
     7
100
AcDbLine
 10
127.5
 20
128.75
 30
0.0
 11
127.5
 21
129.23098
 31
0.0
  0
LINE
  5
160A
100
AcDbEntity
  8
10000_FRONT
370
    50
390
0
  6
CONTINUOUS
 62
     7
100
AcDbLine
 10
127.5
 20
197.750048
 30
0.0
 11
127.5
 21
198.25
 31
0.0
  0
ARC
  5
160B
100
AcDbEntity
  8
10000_FRONT
370
    50
390
0
  6
CONTINUOUS
 62
     7
100
AcDbCircle
 10
81.145545
 20
167.290316
 30
0.0
 40
9.841273
100
AcDbArc
 50
64.158715
 51
67.400281
  0
ARC
  5
160C
100
AcDbEntity
  8
10000_FRONT
370
    50
390
0
  6
CONTINUOUS
 62
     7
100
AcDbCircle
 10
83.5
 20
129.75
 30
0.0
 40
1.0
100
AcDbArc
 50
269.867658
 51
270.0
  0
ARC
  5
160D
100
AcDbEntity
  8
10000_FRONT
370
    50
390
0
  6
CONTINUOUS
 62
     7
100
AcDbCircle
 10
83.5
 20
129.75
 30
0.0
 40
1.0
100
AcDbArc
 50
180.0
 51
180.14338
  0
ARC
  5
160E
100
AcDbEntity
  8
10000_FRONT
370
    50
390
0
  6
CONTINUOUS
 62
     7
100
AcDbCircle
 10
83.5
 20
197.25
 30
0.0
 40
1.0
100
AcDbArc
 50
179.856484
 51
180.0
  0
ARC
  5
160F
100
AcDbEntity
  8
10000_FRONT
370
    50
390
0
  6
CONTINUOUS
 62
     7
100
AcDbCircle
 10
83.9
 20
174.65
 30
0.0
 40
0.2
100
AcDbArc
 50
180.000109
 51
269.916835
  0
ARC
  5
1610
100
AcDbEntity
  8
10000_FRONT
370
    50
390
0
  6
CONTINUOUS
 62
     7
100
AcDbCircle
 10
83.9
 20
178.45
 30
0.0
 40
0.2
100
AcDbArc
 50
90.000109
 51
179.999781
  0
ARC
  5
1611
100
AcDbEntity
  8
10000_FRONT
370
    50
390
0
  6
CONTINUOUS
 62
     7
100
AcDbCircle
 10
85.029023
 20
176.989895
 30
0.0
 40
0.582983
100
AcDbArc
 50
153.40652
 51
207.918194
  0
ARC
  5
1612
100
AcDbEntity
  8
10000_FRONT
370
    50
390
0
  6
CONTINUOUS
 62
     7
100
AcDbCircle
 10
85.118163
 20
176.89688
 30
0.0
 40
0.705659
100
AcDbArc
 50
101.936953
 51
149.891039
  0
ARC
  5
1613
100
AcDbEntity
  8
10000_FRONT
370
    50
390
0
  6
CONTINUOUS
 62
     7
100
AcDbCircle
 10
85.164305
 20
178.130452
 30
0.0
 40
2.716631
100
AcDbArc
 50
255.845788
 51
278.740592
  0
ARC
  5
1614
100
AcDbEntity
  8
10000_FRONT
370
    50
390
0
  6
CONTINUOUS
 62
     7
100
AcDbCircle
 10
85.175525
 20
177.082693
 30
0.0
 40
0.125967
100
AcDbArc
 50
144.861071
 51
206.966836
  0
ARC
  5
1615
100
AcDbEntity
  8
10000_FRONT
370
    50
390
0
  6
CONTINUOUS
 62
     7
100
AcDbCircle
 10
85.191208
 20
176.423736
 30
0.0
 40
0.628003
100
AcDbArc
 50
266.066552
 51
292.858037
  0
ARC
  5
1616
100
AcDbEntity
  8
10000_FRONT
370
    50
390
0
  6
CONTINUOUS
 62
     7
100
AcDbCircle
 10
85.243407
 20
177.180321
 30
0.0
 40
0.864247
100
AcDbArc
 50
212.423464
 51
248.556742
  0
ARC
  5
1617
100
AcDbEntity
  8
10000_FRONT
370
    50
390
0
  6
CONTINUOUS
 62
     7
100
AcDbCircle
 10
85.261406
 20
176.990346
 30
0.0
 40
0.25071
100
AcDbArc
 50
95.087059
 51
138.888374
  0
ARC
  5
1618
100
AcDbEntity
  8
10000_FRONT
370
    50
390
0
  6
CONTINUOUS
 62
     7
100
AcDbCircle
 10
85.276518
 20
178.00106
 30
0.0
 40
2.207585
100
AcDbArc
 50
249.405597
 51
266.665881
  0
ARC
  5
1619
100
AcDbEntity
  8
10000_FRONT
370
    50
390
0
  6
CONTINUOUS
 62
     7
100
AcDbCircle
 10
85.298577
 20
175.886505
 30
0.0
 40
0.898151
100
AcDbArc
 50
32.199007
 51
67.096914
  0
ARC
  5
161A
100
AcDbEntity
  8
10000_FRONT
370
    50
390
0
  6
CONTINUOUS
 62
     7
100
AcDbCircle
 10
85.349711
 20
175.987793
 30
0.0
 40
0.181136
100
AcDbArc
 50
0.73185
 51
61.854182
  0
ARC
  5
161B
100
AcDbEntity
  8
10000_FRONT
370
    50
390
0
  6
CONTINUOUS
 62
     7
100
AcDbCircle
 10
85.373364
 20
175.989887
 30
0.0
 40
0.157468
100
AcDbArc
 50
293.104195
 51
0.079716
  0
ARC
  5
161C
100
AcDbEntity
  8
10000_FRONT
370
    50
390
0
  6
CONTINUOUS
 62
     7
100
AcDbCircle
 10
85.400498
 20
176.187626
 30
0.0
 40
0.762982
100
AcDbArc
 50
283.385293
 51
330.296235
  0
ARC
  5
161D
100
AcDbEntity
  8
10000_FRONT
370
    50
390
0
  6
CONTINUOUS
 62
     7
100
AcDbCircle
 10
85.408473
 20
175.585624
 30
0.0
 40
1.663084
100
AcDbArc
 50
70.69484
 51
95.842676
  0
ARC
  5
161E
100
AcDbEntity
  8
10000_FRONT
370
    50
390
0
  6
CONTINUOUS
 62
     7
100
AcDbCircle
 10
85.418016
 20
175.563608
 30
0.0
 40
2.072196
100
AcDbArc
 50
74.886939
 51
102.423616
  0
ARC
  5
161F
100
AcDbEntity
  8
10000_FRONT
370
    50
390
0
  6
CONTINUOUS
 62
     7
100
AcDbCircle
 10
85.477917
 20
177.412568
 30
0.0
 40
0.567198
100
AcDbArc
 50
223.023487
 51
247.996543
  0
ARC
  5
1620
100
AcDbEntity
  8
10000_FRONT
370
    50
390
0
  6
CONTINUOUS
 62
     7
100
AcDbCircle
 10
85.505733
 20
176.0827
 30
0.0
 40
0.620808
100
AcDbArc
 50
333.897395
 51
27.057483
  0
CIRCLE
  5
1621
100
AcDbEntity
  8
10000_FRONT
370
    50
390
0
  6
CONTINUOUS
 62
     7
100
AcDbCircle
 10
85.7
 20
144.55
 30
0.0
 40
1.75
  0
CIRCLE
  5
1622
100
AcDbEntity
  8
10000_FRONT
370
    50
390
0
  6
CONTINUOUS
 62
     7
100
AcDbCircle
 10
85.7
 20
182.55
 30
0.0
 40
1.75
  0
ARC
  5
1623
100
AcDbEntity
  8
10000_FRONT
370
    50
390
0
  6
CONTINUOUS
 62
     7
100
AcDbCircle
 10
86.1
 20
134.225
 30
0.0
 40
2.2
100
AcDbArc
 50
197.869182
 51
320.599401
  0
ARC
  5
1624
100
AcDbEntity
  8
10000_FRONT
370
    50
390
0
  6
CONTINUOUS
 62
     7
100
AcDbCircle
 10
86.1
 20
135.475
 30
0.0
 40
2.2
100
AcDbArc
 50
39.400614
 51
154.997084
  0
ARC
  5
1625
100
AcDbEntity
  8
10000_FRONT
370
    50
390
0
  6
CONTINUOUS
 62
     7
100
AcDbCircle
 10
86.1
 20
191.625
 30
0.0
 40
2.2
100
AcDbArc
 50
205.00643
 51
320.599413
  0
ARC
  5
1626
100
AcDbEntity
  8
10000_FRONT
370
    50
390
0
  6
CONTINUOUS
 62
     7
100
AcDbCircle
 10
86.1
 20
192.875
 30
0.0
 40
2.2
100
AcDbArc
 50
39.400582
 51
162.134096
  0
ARC
  5
1627
100
AcDbEntity
  8
10000_FRONT
370
    50
390
0
  6
CONTINUOUS
 62
     7
100
AcDbCircle
 10
88.808
 20
151.708007
 30
0.0
 40
0.408
100
AcDbArc
 50
195.350749
 51
241.338493
  0
ARC
  5
1628
100
AcDbEntity
  8
10000_FRONT
370
    50
390
0
  6
CONTINUOUS
 62
     7
100
AcDbCircle
 10
88.808
 20
158.491993
 30
0.0
 40
0.408
100
AcDbArc
 50
118.661712
 51
164.649664
  0
ARC
  5
1629
100
AcDbEntity
  8
10000_FRONT
370
    50
390
0
  6
CONTINUOUS
 62
     7
100
AcDbCircle
 10
89.5
 20
134.225
 30
0.0
 40
2.2
100
AcDbArc
 50
219.400573
 51
342.130821
  0
ARC
  5
162A
100
AcDbEntity
  8
10000_FRONT
370
    50
390
0
  6
CONTINUOUS
 62
     7
100
AcDbCircle
 10
89.5
 20
135.475
 30
0.0
 40
2.2
100
AcDbArc
 50
25.002902
 51
140.599411
  0
ARC
  5
162B
100
AcDbEntity
  8
10000_FRONT
370
    50
390
0
  6
CONTINUOUS
 62
     7
100
AcDbCircle
 10
89.5
 20
191.625
 30
0.0
 40
2.2
100
AcDbArc
 50
219.400562
 51
334.993585
  0
ARC
  5
162C
100
AcDbEntity
  8
10000_FRONT
370
    50
390
0
  6
CONTINUOUS
 62
     7
100
AcDbCircle
 10
89.5
 20
192.875
 30
0.0
 40
2.2
100
AcDbArc
 50
17.865909
 51
140.599443
  0
CIRCLE
  5
162D
100
AcDbEntity
  8
10000_FRONT
370
    50
390
0
  6
CONTINUOUS
 62
     7
100
AcDbCircle
 10
89.8
 20
144.55
 30
0.0
 40
1.75
  0
CIRCLE
  5
162E
100
AcDbEntity
  8
10000_FRONT
370
    50
390
0
  6
CONTINUOUS
 62
     7
100
AcDbCircle
 10
89.8
 20
182.55
 30
0.0
 40
1.75
  0
ARC
  5
162F
100
AcDbEntity
  8
10000_FRONT
370
    50
390
0
  6
CONTINUOUS
 62
     7
100
AcDbCircle
 10
90.392
 20
151.708007
 30
0.0
 40
0.408
100
AcDbArc
 50
298.661483
 51
344.649279
  0
ARC
  5
1630
100
AcDbEntity
  8
10000_FRONT
370
    50
390
0
  6
CONTINUOUS
 62
     7
100
AcDbCircle
 10
90.392
 20
158.491993
 30
0.0
 40
0.408
100
AcDbArc
 50
15.350308
 51
61.338311
  0
ARC
  5
1631
100
AcDbEntity
  8
10000_FRONT
370
    50
390
0
  6
CONTINUOUS
 62
     7
100
AcDbCircle
 10
92.195
 20
160.15
 30
0.0
 40
0.5
100
AcDbArc
 50
179.999825
 51
269.999965
  0
ARC
  5
1632
100
AcDbEntity
  8
10000_FRONT
370
    50
390
0
  6
CONTINUOUS
 62
     7
100
AcDbCircle
 10
92.195
 20
173.15
 30
0.0
 40
0.5
100
AcDbArc
 50
90.000035
 51
180.0
  0
ARC
  5
1633
100
AcDbEntity
  8
10000_FRONT
370
    50
390
0
  6
CONTINUOUS
 62
     7
100
AcDbCircle
 10
93.05
 20
170.05
 30
0.0
 40
0.3
100
AcDbArc
 50
180.000146
 51
270.000036
  0
ARC
  5
1634
100
AcDbEntity
  8
10000_FRONT
370
    50
390
0
  6
CONTINUOUS
 62
     7
100
AcDbCircle
 10
93.05
 20
170.05
 30
0.0
 40
0.5
100
AcDbArc
 50
180.000087
 51
270.000022
  0
ARC
  5
1635
100
AcDbEntity
  8
10000_FRONT
370
    50
390
0
  6
CONTINUOUS
 62
     7
100
AcDbCircle
 10
93.05
 20
172.55
 30
0.0
 40
0.3
100
AcDbArc
 50
89.999964
 51
180.000146
  0
ARC
  5
1636
100
AcDbEntity
  8
10000_FRONT
370
    50
390
0
  6
CONTINUOUS
 62
     7
100
AcDbCircle
 10
93.05
 20
172.55
 30
0.0
 40
0.5
100
AcDbArc
 50
89.999978
 51
180.000087
  0
ARC
  5
1637
100
AcDbEntity
  8
10000_FRONT
370
    50
390
0
  6
CONTINUOUS
 62
     7
100
AcDbCircle
 10
93.481545
 20
167.290316
 30
0.0
 40
9.841273
100
AcDbArc
 50
64.158713
 51
67.400282
  0
ARC
  5
1638
100
AcDbEntity
  8
10000_FRONT
370
    50
390
0
  6
CONTINUOUS
 62
     7
100
AcDbCircle
 10
93.55
 20
170.05
 30
0.0
 40
0.3
100
AcDbArc
 50
270.000036
 51
359.999854
  0
ARC
  5
1639
100
AcDbEntity
  8
10000_FRONT
370
    50
390
0
  6
CONTINUOUS
 62
     7
100
AcDbCircle
 10
93.55
 20
170.05
 30
0.0
 40
0.5
100
AcDbArc
 50
270.000022
 51
359.999913
  0
ARC
  5
163A
100
AcDbEntity
  8
10000_FRONT
370
    50
390
0
  6
CONTINUOUS
 62
     7
100
AcDbCircle
 10
93.55
 20
172.55
 30
0.0
 40
0.3
100
AcDbArc
 50
359.999854
 51
89.999964
  0
ARC
  5
163B
100
AcDbEntity
  8
10000_FRONT
370
    50
390
0
  6
CONTINUOUS
 62
     7
100
AcDbCircle
 10
93.55
 20
172.55
 30
0.0
 40
0.5
100
AcDbArc
 50
359.999913
 51
89.999978
  0
CIRCLE
  5
163C
100
AcDbEntity
  8
10000_FRONT
370
    50
390
0
  6
CONTINUOUS
 62
     7
100
AcDbCircle
 10
94.3
 20
144.55
 30
0.0
 40
1.75
  0
CIRCLE
  5
163D
100
AcDbEntity
  8
10000_FRONT
370
    50
390
0
  6
CONTINUOUS
 62
     7
100
AcDbCircle
 10
94.3
 20
182.55
 30
0.0
 40
1.75
  0
ARC
  5
163E
100
AcDbEntity
  8
10000_FRONT
370
    50
390
0
  6
CONTINUOUS
 62
     7
100
AcDbCircle
 10
94.7
 20
134.225
 30
0.0
 40
2.2
100
AcDbArc
 50
197.869177
 51
320.599408
  0
ARC
  5
163F
100
AcDbEntity
  8
10000_FRONT
370
    50
390
0
  6
CONTINUOUS
 62
     7
100
AcDbCircle
 10
94.7
 20
135.475
 30
0.0
 40
2.2
100
AcDbArc
 50
39.400608
 51
154.99709
  0
ARC
  5
1640
100
AcDbEntity
  8
10000_FRONT
370
    50
390
0
  6
CONTINUOUS
 62
     7
100
AcDbCircle
 10
94.7
 20
191.625
 30
0.0
 40
2.2
100
AcDbArc
 50
205.006423
 51
320.599419
  0
ARC
  5
1641
100
AcDbEntity
  8
10000_FRONT
370
    50
390
0
  6
CONTINUOUS
 62
     7
100
AcDbCircle
 10
94.7
 20
192.875
 30
0.0
 40
2.2
100
AcDbArc
 50
39.400576
 51
162.134093
  0
ARC
  5
1642
100
AcDbEntity
  8
10000_FRONT
370
    50
390
0
  6
CONTINUOUS
 62
     7
100
AcDbCircle
 10
95.345
 20
160.15
 30
0.0
 40
0.5
100
AcDbArc
 50
270.000031
 51
0.000175
  0
ARC
  5
1643
100
AcDbEntity
  8
10000_FRONT
370
    50
390
0
  6
CONTINUOUS
 62
     7
100
AcDbCircle
 10
95.345
 20
173.15
 30
0.0
 40
0.5
100
AcDbArc
 50
0.0
 51
89.999969
  0
ARC
  5
1644
100
AcDbEntity
  8
10000_FRONT
370
    50
390
0
  6
CONTINUOUS
 62
     7
100
AcDbCircle
 10
97.35
 20
160.15
 30
0.0
 40
0.5
100
AcDbArc
 50
179.999825
 51
269.999989
  0
ARC
  5
1645
100
AcDbEntity
  8
10000_FRONT
370
    50
390
0
  6
CONTINUOUS
 62
     7
100
AcDbCircle
 10
97.35
 20
173.15
 30
0.0
 40
0.5
100
AcDbArc
 50
90.000011
 51
180.0
  0
ARC
  5
1646
100
AcDbEntity
  8
10000_FRONT
370
    50
390
0
  6
CONTINUOUS
 62
     7
100
AcDbCircle
 10
97.365023
 20
176.989895
 30
0.0
 40
0.582983
100
AcDbArc
 50
153.4065
 51
207.91817
  0
ARC
  5
1647
100
AcDbEntity
  8
10000_FRONT
370
    50
390
0
  6
CONTINUOUS
 62
     7
100
AcDbCircle
 10
97.454163
 20
176.89688
 30
0.0
 40
0.705659
100
AcDbArc
 50
101.936956
 51
149.891021
  0
ARC
  5
1648
100
AcDbEntity
  8
10000_FRONT
370
    50
390
0
  6
CONTINUOUS
 62
     7
100
AcDbCircle
 10
97.500305
 20
178.130452
 30
0.0
 40
2.716631
100
AcDbArc
 50
255.845797
 51
278.740592
  0
ARC
  5
1649
100
AcDbEntity
  8
10000_FRONT
370
    50
390
0
  6
CONTINUOUS
 62
     7
100
AcDbCircle
 10
97.511525
 20
177.082693
 30
0.0
 40
0.125967
100
AcDbArc
 50
144.86108
 51
206.967026
  0
ARC
  5
164A
100
AcDbEntity
  8
10000_FRONT
370
    50
390
0
  6
CONTINUOUS
 62
     7
100
AcDbCircle
 10
97.527208
 20
176.423736
 30
0.0
 40
0.628003
100
AcDbArc
 50
266.066549
 51
292.858074
  0
ARC
  5
164B
100
AcDbEntity
  8
10000_FRONT
370
    50
390
0
  6
CONTINUOUS
 62
     7
100
AcDbCircle
 10
97.579407
 20
177.180321
 30
0.0
 40
0.864247
100
AcDbArc
 50
212.423446
 51
248.55674
  0
ARC
  5
164C
100
AcDbEntity
  8
10000_FRONT
370
    50
390
0
  6
CONTINUOUS
 62
     7
100
AcDbCircle
 10
97.597406
 20
176.990346
 30
0.0
 40
0.25071
100
AcDbArc
 50
95.087284
 51
138.88838
  0
ARC
  5
164D
100
AcDbEntity
  8
10000_FRONT
370
    50
390
0
  6
CONTINUOUS
 62
     7
100
AcDbCircle
 10
97.612518
 20
178.00106
 30
0.0
 40
2.207585
100
AcDbArc
 50
249.405608
 51
266.66588
  0
ARC
  5
164E
100
AcDbEntity
  8
10000_FRONT
370
    50
390
0
  6
CONTINUOUS
 62
     7
100
AcDbCircle
 10
97.634577
 20
175.886505
 30
0.0
 40
0.898151
100
AcDbArc
 50
32.198992
 51
67.096944
  0
ARC
  5
164F
100
AcDbEntity
  8
10000_FRONT
370
    50
390
0
  6
CONTINUOUS
 62
     7
100
AcDbCircle
 10
97.685711
 20
175.987793
 30
0.0
 40
0.181136
100
AcDbArc
 50
0.731849
 51
61.854058
  0
ARC
  5
1650
100
AcDbEntity
  8
10000_FRONT
370
    50
390
0
  6
CONTINUOUS
 62
     7
100
AcDbCircle
 10
97.709364
 20
175.989887
 30
0.0
 40
0.157468
100
AcDbArc
 50
293.104343
 51
0.079716
  0
ARC
  5
1651
100
AcDbEntity
  8
10000_FRONT
370
    50
390
0
  6
CONTINUOUS
 62
     7
100
AcDbCircle
 10
97.736498
 20
176.187626
 30
0.0
 40
0.762982
100
AcDbArc
 50
283.385291
 51
330.296269
  0
ARC
  5
1652
100
AcDbEntity
  8
10000_FRONT
370
    50
390
0
  6
CONTINUOUS
 62
     7
100
AcDbCircle
 10
97.744473
 20
175.585624
 30
0.0
 40
1.663084
100
AcDbArc
 50
70.694825
 51
95.84271
  0
ARC
  5
1653
100
AcDbEntity
  8
10000_FRONT
370
    50
390
0
  6
CONTINUOUS
 62
     7
100
AcDbCircle
 10
97.754016
 20
175.563608
 30
0.0
 40
2.072196
100
AcDbArc
 50
74.886927
 51
102.423617
  0
ARC
  5
1654
100
AcDbEntity
  8
10000_FRONT
370
    50
390
0
  6
CONTINUOUS
 62
     7
100
AcDbCircle
 10
97.813917
 20
177.412568
 30
0.0
 40
0.567198
100
AcDbArc
 50
223.02355
 51
247.99645
  0
ARC
  5
1655
100
AcDbEntity
  8
10000_FRONT
370
    50
390
0
  6
CONTINUOUS
 62
     7
100
AcDbCircle
 10
97.841733
 20
176.0827
 30
0.0
 40
0.620808
100
AcDbArc
 50
333.897433
 51
27.057465
  0
ARC
  5
1656
100
AcDbEntity
  8
10000_FRONT
370
    50
390
0
  6
CONTINUOUS
 62
     7
100
AcDbCircle
 10
97.9
 20
171.55
 30
0.0
 40
0.5
100
AcDbArc
 50
180.000087
 51
270.000011
  0
ARC
  5
1657
100
AcDbEntity
  8
10000_FRONT
370
    50
390
0
  6
CONTINUOUS
 62
     7
100
AcDbCircle
 10
97.9
 20
172.55
 30
0.0
 40
0.5
100
AcDbArc
 50
89.999989
 51
180.000087
  0
ARC
  5
1658
100
AcDbEntity
  8
10000_FRONT
370
    50
390
0
  6
CONTINUOUS
 62
     7
100
AcDbCircle
 10
98.1
 20
134.225
 30
0.0
 40
2.2
100
AcDbArc
 50
219.40058
 51
342.130821
  0
ARC
  5
1659
100
AcDbEntity
  8
10000_FRONT
370
    50
390
0
  6
CONTINUOUS
 62
     7
100
AcDbCircle
 10
98.1
 20
135.475
 30
0.0
 40
2.2
100
AcDbArc
 50
25.002908
 51
140.599405
  0
ARC
  5
165A
100
AcDbEntity
  8
10000_FRONT
370
    50
390
0
  6
CONTINUOUS
 62
     7
100
AcDbCircle
 10
98.1
 20
171.55
 30
0.0
 40
0.5
100
AcDbArc
 50
269.999989
 51
359.999913
  0
ARC
  5
165B
100
AcDbEntity
  8
10000_FRONT
370
    50
390
0
  6
CONTINUOUS
 62
     7
100
AcDbCircle
 10
98.1
 20
172.55
 30
0.0
 40
0.5
100
AcDbArc
 50
359.999913
 51
90.000011
  0
ARC
  5
165C
100
AcDbEntity
  8
10000_FRONT
370
    50
390
0
  6
CONTINUOUS
 62
     7
100
AcDbCircle
 10
98.1
 20
191.625
 30
0.0
 40
2.2
100
AcDbArc
 50
219.400568
 51
334.993579
  0
ARC
  5
165D
100
AcDbEntity
  8
10000_FRONT
370
    50
390
0
  6
CONTINUOUS
 62
     7
100
AcDbCircle
 10
98.1
 20
192.875
 30
0.0
 40
2.2
100
AcDbArc
 50
17.865906
 51
140.599437
  0
CIRCLE
  5
165E
100
AcDbEntity
  8
10000_FRONT
370
    50
390
0
  6
CONTINUOUS
 62
     7
100
AcDbCircle
 10
98.4
 20
144.55
 30
0.0
 40
1.75
  0
CIRCLE
  5
165F
100
AcDbEntity
  8
10000_FRONT
370
    50
390
0
  6
CONTINUOUS
 62
     7
100
AcDbCircle
 10
98.4
 20
182.55
 30
0.0
 40
1.75
  0
ARC
  5
1660
100
AcDbEntity
  8
10000_FRONT
370
    50
390
0
  6
CONTINUOUS
 62
     7
100
AcDbCircle
 10
99.1
 20
174.65
 30
0.0
 40
0.2
100
AcDbArc
 50
270.083028
 51
359.999891
  0
ARC
  5
1661
100
AcDbEntity
  8
10000_FRONT
370
    50
390
0
  6
CONTINUOUS
 62
     7
100
AcDbCircle
 10
99.1
 20
178.45
 30
0.0
 40
0.2
100
AcDbArc
 50
0.000219
 51
90.000027
  0
ARC
  5
1662
100
AcDbEntity
  8
10000_FRONT
370
    50
390
0
  6
CONTINUOUS
 62
     7
100
AcDbCircle
 10
99.808
 20
151.708007
 30
0.0
 40
0.408
100
AcDbArc
 50
195.350714
 51
241.338552
  0
ARC
  5
1663
100
AcDbEntity
  8
10000_FRONT
370
    50
390
0
  6
CONTINUOUS
 62
     7
100
AcDbCircle
 10
99.808
 20
158.491993
 30
0.0
 40
0.408
100
AcDbArc
 50
118.661653
 51
164.6497
  0
ARC
  5
1664
100
AcDbEntity
  8
10000_FRONT
370
    50
390
0
  6
CONTINUOUS
 62
     7
100
AcDbCircle
 10
101.05
 20
174.05
 30
0.0
 40
0.9
100
AcDbArc
 50
90.000003
 51
180.0
  0
ARC
  5
1665
100
AcDbEntity
  8
10000_FRONT
370
    50
390
0
  6
CONTINUOUS
 62
     7
100
AcDbCircle
 10
101.392
 20
151.708007
 30
0.0
 40
0.408
100
AcDbArc
 50
298.661424
 51
344.649279
  0
ARC
  5
1666
100
AcDbEntity
  8
10000_FRONT
370
    50
390
0
  6
CONTINUOUS
 62
     7
100
AcDbCircle
 10
101.392
 20
158.491993
 30
0.0
 40
0.408
100
AcDbArc
 50
15.350308
 51
61.33837
  0
CIRCLE
  5
1667
100
AcDbEntity
  8
10000_FRONT
370
    50
390
0
  6
CONTINUOUS
 62
     7
100
AcDbCircle
 10
102.9
 20
144.55
 30
0.0
 40
1.75
  0
CIRCLE
  5
1668
100
AcDbEntity
  8
10000_FRONT
370
    50
390
0
  6
CONTINUOUS
 62
     7
100
AcDbCircle
 10
102.9
 20
182.55
 30
0.0
 40
1.75
  0
ARC
  5
1669
100
AcDbEntity
  8
10000_FRONT
370
    50
390
0
  6
CONTINUOUS
 62
     7
100
AcDbCircle
 10
103.3
 20
134.225
 30
0.0
 40
2.2
100
AcDbArc
 50
197.869178
 51
320.599414
  0
ARC
  5
166A
100
AcDbEntity
  8
10000_FRONT
370
    50
390
0
  6
CONTINUOUS
 62
     7
100
AcDbCircle
 10
103.3
 20
135.475
 30
0.0
 40
2.2
100
AcDbArc
 50
39.400601
 51
154.997094
  0
ARC
  5
166B
100
AcDbEntity
  8
10000_FRONT
370
    50
390
0
  6
CONTINUOUS
 62
     7
100
AcDbCircle
 10
103.3
 20
191.625
 30
0.0
 40
2.2
100
AcDbArc
 50
205.00642
 51
320.599425
  0
ARC
  5
166C
100
AcDbEntity
  8
10000_FRONT
370
    50
390
0
  6
CONTINUOUS
 62
     7
100
AcDbCircle
 10
103.3
 20
192.875
 30
0.0
 40
2.2
100
AcDbArc
 50
39.40057
 51
162.134095
  0
ARC
  5
166D
100
AcDbEntity
  8
10000_FRONT
370
    50
390
0
  6
CONTINUOUS
 62
     7
100
AcDbCircle
 10
103.5
 20
171.55
 30
0.0
 40
0.5
100
AcDbArc
 50
180.000087
 51
270.0
  0
ARC
  5
166E
100
AcDbEntity
  8
10000_FRONT
370
    50
390
0
  6
CONTINUOUS
 62
     7
100
AcDbCircle
 10
103.5
 20
172.55
 30
0.0
 40
0.5
100
AcDbArc
 50
90.0
 51
180.000087
  0
ARC
  5
166F
100
AcDbEntity
  8
10000_FRONT
370
    50
390
0
  6
CONTINUOUS
 62
     7
100
AcDbCircle
 10
103.65
 20
174.05
 30
0.0
 40
0.9
100
AcDbArc
 50
0.0
 51
90.000002
  0
ARC
  5
1670
100
AcDbEntity
  8
10000_FRONT
370
    50
390
0
  6
CONTINUOUS
 62
     7
100
AcDbCircle
 10
103.7
 20
171.55
 30
0.0
 40
0.5
100
AcDbArc
 50
270.000005
 51
359.999913
  0
ARC
  5
1671
100
AcDbEntity
  8
10000_FRONT
370
    50
390
0
  6
CONTINUOUS
 62
     7
100
AcDbCircle
 10
103.7
 20
172.55
 30
0.0
 40
0.5
100
AcDbArc
 50
359.999913
 51
89.999995
  0
ARC
  5
1672
100
AcDbEntity
  8
10000_FRONT
370
    50
390
0
  6
CONTINUOUS
 62
     7
100
AcDbCircle
 10
104.05
 20
160.15
 30
0.0
 40
0.5
100
AcDbArc
 50
270.000001
 51
0.000175
  0
ARC
  5
1673
100
AcDbEntity
  8
10000_FRONT
370
    50
390
0
  6
CONTINUOUS
 62
     7
100
AcDbCircle
 10
106.049996
 20
173.150012
 30
0.0
 40
0.499996
100
AcDbArc
 50
90.000007
 51
179.999891
  0
ARC
  5
1674
100
AcDbEntity
  8
10000_FRONT
370
    50
390
0
  6
CONTINUOUS
 62
     7
100
AcDbCircle
 10
106.05
 20
160.150025
 30
0.0
 40
0.5
100
AcDbArc
 50
180.0
 51
269.999967
  0
ARC
  5
1675
100
AcDbEntity
  8
10000_FRONT
370
    50
390
0
  6
CONTINUOUS
 62
     7
100
AcDbCircle
 10
106.7
 20
134.225
 30
0.0
 40
2.2
100
AcDbArc
 50
219.400586
 51
342.130822
  0
ARC
  5
1676
100
AcDbEntity
  8
10000_FRONT
370
    50
390
0
  6
CONTINUOUS
 62
     7
100
AcDbCircle
 10
106.7
 20
135.475
 30
0.0
 40
2.2
100
AcDbArc
 50
25.002906
 51
140.599399
  0
ARC
  5
1677
100
AcDbEntity
  8
10000_FRONT
370
    50
390
0
  6
CONTINUOUS
 62
     7
100
AcDbCircle
 10
106.7
 20
191.625
 30
0.0
 40
2.2
100
AcDbArc
 50
219.400575
 51
334.99358
  0
ARC
  5
1678
100
AcDbEntity
  8
10000_FRONT
370
    50
390
0
  6
CONTINUOUS
 62
     7
100
AcDbCircle
 10
106.7
 20
192.875
 30
0.0
 40
2.2
100
AcDbArc
 50
17.865905
 51
140.59943
  0
CIRCLE
  5
1679
100
AcDbEntity
  8
10000_FRONT
370
    50
390
0
  6
CONTINUOUS
 62
     7
100
AcDbCircle
 10
107.0
 20
144.55
 30
0.0
 40
1.75
  0
CIRCLE
  5
167A
100
AcDbEntity
  8
10000_FRONT
370
    50
390
0
  6
CONTINUOUS
 62
     7
100
AcDbCircle
 10
107.0
 20
182.55
 30
0.0
 40
1.75
  0
ARC
  5
167B
100
AcDbEntity
  8
10000_FRONT
370
    50
390
0
  6
CONTINUOUS
 62
     7
100
AcDbCircle
 10
107.500003
 20
159.550024
 30
0.0
 40
0.1
100
AcDbArc
 50
0.000976
 51
89.999993
  0
ARC
  5
167C
100
AcDbEntity
  8
10000_FRONT
370
    50
390
0
  6
CONTINUOUS
 62
     7
100
AcDbCircle
 10
108.05
 20
170.05
 30
0.0
 40
0.3
100
AcDbArc
 50
180.000146
 51
269.999991
  0
ARC
  5
167D
100
AcDbEntity
  8
10000_FRONT
370
    50
390
0
  6
CONTINUOUS
 62
     7
100
AcDbCircle
 10
108.05
 20
170.05
 30
0.0
 40
0.5
100
AcDbArc
 50
180.000087
 51
269.999995
  0
ARC
  5
167E
100
AcDbEntity
  8
10000_FRONT
370
    50
390
0
  6
CONTINUOUS
 62
     7
100
AcDbCircle
 10
108.05
 20
172.55
 30
0.0
 40
0.3
100
AcDbArc
 50
90.000009
 51
180.000146
  0
ARC
  5
167F
100
AcDbEntity
  8
10000_FRONT
370
    50
390
0
  6
CONTINUOUS
 62
     7
100
AcDbCircle
 10
108.05
 20
172.55
 30
0.0
 40
0.5
100
AcDbArc
 50
90.000005
 51
180.000087
  0
ARC
  5
1680
100
AcDbEntity
  8
10000_FRONT
370
    50
390
0
  6
CONTINUOUS
 62
     7
100
AcDbCircle
 10
108.350006
 20
152.902541
 30
0.0
 40
0.500003
100
AcDbArc
 50
180.000302
 51
269.99969
  0
ARC
  5
1681
100
AcDbEntity
  8
10000_FRONT
370
    50
390
0
  6
CONTINUOUS
 62
     7
100
AcDbCircle
 10
108.55
 20
170.05
 30
0.0
 40
0.3
100
AcDbArc
 50
269.999991
 51
359.999854
  0
ARC
  5
1682
100
AcDbEntity
  8
10000_FRONT
370
    50
390
0
  6
CONTINUOUS
 62
     7
100
AcDbCircle
 10
108.55
 20
170.05
 30
0.0
 40
0.5
100
AcDbArc
 50
269.999995
 51
359.999913
  0
ARC
  5
1683
100
AcDbEntity
  8
10000_FRONT
370
    50
390
0
  6
CONTINUOUS
 62
     7
100
AcDbCircle
 10
108.55
 20
172.55
 30
0.0
 40
0.3
100
AcDbArc
 50
359.999854
 51
90.000009
  0
ARC
  5
1684
100
AcDbEntity
  8
10000_FRONT
370
    50
390
0
  6
CONTINUOUS
 62
     7
100
AcDbCircle
 10
108.55
 20
172.55
 30
0.0
 40
0.5
100
AcDbArc
 50
359.999913
 51
90.000005
  0
ARC
  5
1685
100
AcDbEntity
  8
10000_FRONT
370
    50
390
0
  6
CONTINUOUS
 62
     7
100
AcDbCircle
 10
108.950003
 20
152.902535
 30
0.0
 40
0.499996
100
AcDbArc
 50
270.000008
 51
0.0
  0
ARC
  5
1686
100
AcDbEntity
  8
10000_FRONT
370
    50
390
0
  6
CONTINUOUS
 62
     7
100
AcDbCircle
 10
109.199998
 20
173.150008
 30
0.0
 40
0.5
100
AcDbArc
 50
0.000095
 51
89.999982
  0
CIRCLE
  5
1687
100
AcDbEntity
  8
10000_FRONT
370
    50
390
0
  6
CONTINUOUS
 62
     7
100
AcDbCircle
 10
111.5
 20
144.55
 30
0.0
 40
1.75
  0
CIRCLE
  5
1688
100
AcDbEntity
  8
10000_FRONT
370
    50
390
0
  6
CONTINUOUS
 62
     7
100
AcDbCircle
 10
111.5
 20
182.55
 30
0.0
 40
1.75
  0
ARC
  5
1689
100
AcDbEntity
  8
10000_FRONT
370
    50
390
0
  6
CONTINUOUS
 62
     7
100
AcDbCircle
 10
111.9
 20
134.225
 30
0.0
 40
2.2
100
AcDbArc
 50
197.869179
 51
320.59942
  0
ARC
  5
168A
100
AcDbEntity
  8
10000_FRONT
370
    50
390
0
  6
CONTINUOUS
 62
     7
100
AcDbCircle
 10
111.9
 20
135.475
 30
0.0
 40
2.2
100
AcDbArc
 50
39.400595
 51
154.997092
  0
ARC
  5
168B
100
AcDbEntity
  8
10000_FRONT
370
    50
390
0
  6
CONTINUOUS
 62
     7
100
AcDbCircle
 10
111.9
 20
191.625
 30
0.0
 40
2.2
100
AcDbArc
 50
205.006421
 51
320.599432
  0
ARC
  5
168C
100
AcDbEntity
  8
10000_FRONT
370
    50
390
0
  6
CONTINUOUS
 62
     7
100
AcDbCircle
 10
111.9
 20
192.875
 30
0.0
 40
2.2
100
AcDbArc
 50
39.400563
 51
162.134094
  0
ARC
  5
168D
100
AcDbEntity
  8
10000_FRONT
370
    50
390
0
  6
CONTINUOUS
 62
     7
100
AcDbCircle
 10
115.3
 20
134.225
 30
0.0
 40
2.2
100
AcDbArc
 50
219.400592
 51
342.130823
  0
ARC
  5
168E
100
AcDbEntity
  8
10000_FRONT
370
    50
390
0
  6
CONTINUOUS
 62
     7
100
AcDbCircle
 10
115.3
 20
135.475
 30
0.0
 40
2.2
100
AcDbArc
 50
25.00291
 51
140.599392
  0
ARC
  5
168F
100
AcDbEntity
  8
10000_FRONT
370
    50
390
0
  6
CONTINUOUS
 62
     7
100
AcDbCircle
 10
115.3
 20
191.625
 30
0.0
 40
2.2
100
AcDbArc
 50
219.400581
 51
334.993577
  0
ARC
  5
1690
100
AcDbEntity
  8
10000_FRONT
370
    50
390
0
  6
CONTINUOUS
 62
     7
100
AcDbCircle
 10
115.3
 20
192.875
 30
0.0
 40
2.2
100
AcDbArc
 50
17.865907
 51
140.599424
  0
CIRCLE
  5
1691
100
AcDbEntity
  8
10000_FRONT
370
    50
390
0
  6
CONTINUOUS
 62
     7
100
AcDbCircle
 10
115.6
 20
144.55
 30
0.0
 40
1.75
  0
CIRCLE
  5
1692
100
AcDbEntity
  8
10000_FRONT
370
    50
390
0
  6
CONTINUOUS
 62
     7
100
AcDbCircle
 10
115.6
 20
182.55
 30
0.0
 40
1.75
  0
CIRCLE
  5
1693
100
AcDbEntity
  8
10000_FRONT
370
    50
390
0
  6
CONTINUOUS
 62
     7
100
AcDbCircle
 10
120.1
 20
144.55
 30
0.0
 40
1.75
  0
CIRCLE
  5
1694
100
AcDbEntity
  8
10000_FRONT
370
    50
390
0
  6
CONTINUOUS
 62
     7
100
AcDbCircle
 10
120.1
 20
182.55
 30
0.0
 40
1.75
  0
ARC
  5
1695
100
AcDbEntity
  8
10000_FRONT
370
    50
390
0
  6
CONTINUOUS
 62
     7
100
AcDbCircle
 10
120.5
 20
134.225
 30
0.0
 40
2.2
100
AcDbArc
 50
197.869179
 51
320.599427
  0
ARC
  5
1696
100
AcDbEntity
  8
10000_FRONT
370
    50
390
0
  6
CONTINUOUS
 62
     7
100
AcDbCircle
 10
120.5
 20
135.475
 30
0.0
 40
2.2
100
AcDbArc
 50
39.400589
 51
154.997098
  0
ARC
  5
1697
100
AcDbEntity
  8
10000_FRONT
370
    50
390
0
  6
CONTINUOUS
 62
     7
100
AcDbCircle
 10
120.5
 20
191.625
 30
0.0
 40
2.2
100
AcDbArc
 50
205.006415
 51
320.599438
  0
ARC
  5
1698
100
AcDbEntity
  8
10000_FRONT
370
    50
390
0
  6
CONTINUOUS
 62
     7
100
AcDbCircle
 10
120.5
 20
192.875
 30
0.0
 40
2.2
100
AcDbArc
 50
39.400557
 51
162.134091
  0
ARC
  5
1699
100
AcDbEntity
  8
10000_FRONT
370
    50
390
0
  6
CONTINUOUS
 62
     7
100
AcDbCircle
 10
123.9
 20
134.225
 30
0.0
 40
2.2
100
AcDbArc
 50
219.400599
 51
342.130818
  0
ARC
  5
169A
100
AcDbEntity
  8
10000_FRONT
370
    50
390
0
  6
CONTINUOUS
 62
     7
100
AcDbCircle
 10
123.9
 20
135.475
 30
0.0
 40
2.2
100
AcDbArc
 50
25.002916
 51
140.599386
  0
ARC
  5
169B
100
AcDbEntity
  8
10000_FRONT
370
    50
390
0
  6
CONTINUOUS
 62
     7
100
AcDbCircle
 10
123.9
 20
191.625
 30
0.0
 40
2.2
100
AcDbArc
 50
219.400587
 51
334.99357
  0
ARC
  5
169C
100
AcDbEntity
  8
10000_FRONT
370
    50
390
0
  6
CONTINUOUS
 62
     7
100
AcDbCircle
 10
123.9
 20
192.875
 30
0.0
 40
2.2
100
AcDbArc
 50
17.865904
 51
140.599418
  0
CIRCLE
  5
169D
100
AcDbEntity
  8
10000_FRONT
370
    50
390
0
  6
CONTINUOUS
 62
     7
100
AcDbCircle
 10
124.2
 20
144.55
 30
0.0
 40
1.75
  0
CIRCLE
  5
169E
100
AcDbEntity
  8
10000_FRONT
370
    50
390
0
  6
CONTINUOUS
 62
     7
100
AcDbCircle
 10
124.2
 20
182.55
 30
0.0
 40
1.75
  0
ARC
  5
169F
100
AcDbEntity
  8
10000_FRONT
370
    50
390
0
  6
CONTINUOUS
 62
     7
100
AcDbCircle
 10
126.5
 20
129.75
 30
0.0
 40
1.0
100
AcDbArc
 50
270.0
 51
270.132342
  0
TEXT
  5
16A0
100
AcDbEntity
  8
10000_FRONT
370
    50
390
0
  6
CONTINUOUS
 62
     7
100
AcDbText
 10
83.36
 20
189.3124
 30
0.0
 40
1.183099
  1
5
100
AcDbText
  0
TEXT
  5
16A1
100
AcDbEntity
  8
10000_FRONT
370
    50
390
0
  6
CONTINUOUS
 62
     7
100
AcDbText
 10
84.2464
 20
189.3124
 30
0.0
 40
1.183099
  1
.
100
AcDbText
  0
TEXT
  5
16A2
100
AcDbEntity
  8
10000_FRONT
370
    50
390
0
  6
CONTINUOUS
 62
     7
100
AcDbText
 10
91.96
 20
189.3124
 30
0.0
 40
1.183099
  1
6
100
AcDbText
  0
TEXT
  5
16A3
100
AcDbEntity
  8
10000_FRONT
370
    50
390
0
  6
CONTINUOUS
 62
     7
100
AcDbText
 10
92.8464
 20
189.3124
 30
0.0
 40
1.183099
  1
.
100
AcDbText
  0
TEXT
  5
16A4
100
AcDbEntity
  8
10000_FRONT
370
    50
390
0
  6
CONTINUOUS
 62
     7
100
AcDbText
 10
100.56
 20
189.3124
 30
0.0
 40
1.183099
  1
7
100
AcDbText
  0
TEXT
  5
16A5
100
AcDbEntity
  8
10000_FRONT
370
    50
390
0
  6
CONTINUOUS
 62
     7
100
AcDbText
 10
101.4464
 20
189.3124
 30
0.0
 40
1.183099
  1
.
100
AcDbText
  0
TEXT
  5
16A6
100
AcDbEntity
  8
10000_FRONT
370
    50
390
0
  6
CONTINUOUS
 62
     7
100
AcDbText
 10
109.16
 20
189.3124
 30
0.0
 40
1.183099
  1
8
100
AcDbText
  0
TEXT
  5
16A7
100
AcDbEntity
  8
10000_FRONT
370
    50
390
0
  6
CONTINUOUS
 62
     7
100
AcDbText
 10
110.0464
 20
189.3124
 30
0.0
 40
1.183099
  1
.
100
AcDbText
  0
TEXT
  5
16A8
100
AcDbEntity
  8
10000_FRONT
370
    50
390
0
  6
CONTINUOUS
 62
     7
100
AcDbText
 10
83.36
 20
149.9124
 30
0.0
 40
1.183099
  1
5
100
AcDbText
  0
TEXT
  5
16A9
100
AcDbEntity
  8
10000_FRONT
370
    50
390
0
  6
CONTINUOUS
 62
     7
100
AcDbText
 10
84.2464
 20
149.9124
 30
0.0
 40
1.183099
  1
.
100
AcDbText
  0
TEXT
  5
16AA
100
AcDbEntity
  8
10000_FRONT
370
    50
390
0
  6
CONTINUOUS
 62
     7
100
AcDbText
 10
91.96
 20
149.9124
 30
0.0
 40
1.183099
  1
6
100
AcDbText
  0
TEXT
  5
16AB
100
AcDbEntity
  8
10000_FRONT
370
    50
390
0
  6
CONTINUOUS
 62
     7
100
AcDbText
 10
92.8464
 20
149.9124
 30
0.0
 40
1.183099
  1
.
100
AcDbText
  0
TEXT
  5
16AC
100
AcDbEntity
  8
10000_FRONT
370
    50
390
0
  6
CONTINUOUS
 62
     7
100
AcDbText
 10
100.56
 20
149.9124
 30
0.0
 40
1.183099
  1
7
100
AcDbText
  0
TEXT
  5
16AD
100
AcDbEntity
  8
10000_FRONT
370
    50
390
0
  6
CONTINUOUS
 62
     7
100
AcDbText
 10
101.4464
 20
149.9124
 30
0.0
 40
1.183099
  1
.
100
AcDbText
  0
TEXT
  5
16AE
100
AcDbEntity
  8
10000_FRONT
370
    50
390
0
  6
CONTINUOUS
 62
     7
100
AcDbText
 10
109.16
 20
149.9124
 30
0.0
 40
1.183099
  1
8
100
AcDbText
  0
TEXT
  5
16AF
100
AcDbEntity
  8
10000_FRONT
370
    50
390
0
  6
CONTINUOUS
 62
     7
100
AcDbText
 10
110.0464
 20
149.9124
 30
0.0
 40
1.183099
  1
.
100
AcDbText
  0
TEXT
  5
16B0
100
AcDbEntity
  8
10000_FRONT
370
    50
390
0
  6
CONTINUOUS
 62
     7
100
AcDbText
 10
85.9
 20
195.453
 30
0.0
 40
1.478873
  1
1
100
AcDbText
  0
TEXT
  5
16B1
100
AcDbEntity
  8
10000_FRONT
370
    50
390
0
  6
CONTINUOUS
 62
     7
100
AcDbText
 10
87.07725
 20
195.453
 30
0.0
 40
1.478873
  1
3
100
AcDbText
  0
TEXT
  5
16B2
100
AcDbEntity
  8
10000_FRONT
370
    50
390
0
  6
CONTINUOUS
 62
     7
100
AcDbText
 10
88.2545
 20
195.453
 30
0.0
 40
1.478873
  1
N
100
AcDbText
  0
TEXT
  5
16B3
100
AcDbEntity
  8
10000_FRONT
370
    50
390
0
  6
CONTINUOUS
 62
     7
100
AcDbText
 10
89.5465
 20
195.453
 30
0.0
 40
1.478873
  1
O
100
AcDbText
  0
TEXT
  5
16B4
100
AcDbEntity
  8
10000_FRONT
370
    50
390
0
  6
CONTINUOUS
 62
     7
100
AcDbText
 10
94.5
 20
195.453
 30
0.0
 40
1.478873
  1
2
100
AcDbText
  0
TEXT
  5
16B5
100
AcDbEntity
  8
10000_FRONT
370
    50
390
0
  6
CONTINUOUS
 62
     7
100
AcDbText
 10
95.67725
 20
195.453
 30
0.0
 40
1.478873
  1
1
100
AcDbText
  0
TEXT
  5
16B6
100
AcDbEntity
  8
10000_FRONT
370
    50
390
0
  6
CONTINUOUS
 62
     7
100
AcDbText
 10
96.8545
 20
195.453
 30
0.0
 40
1.478873
  1
N
100
AcDbText
  0
TEXT
  5
16B7
100
AcDbEntity
  8
10000_FRONT
370
    50
390
0
  6
CONTINUOUS
 62
     7
100
AcDbText
 10
98.1465
 20
195.453
 30
0.0
 40
1.478873
  1
C
100
AcDbText
  0
TEXT
  5
16B8
100
AcDbEntity
  8
10000_FRONT
370
    50
390
0
  6
CONTINUOUS
 62
     7
100
AcDbText
 10
103.1
 20
195.453
 30
0.0
 40
1.478873
  1
3
100
AcDbText
  0
TEXT
  5
16B9
100
AcDbEntity
  8
10000_FRONT
370
    50
390
0
  6
CONTINUOUS
 62
     7
100
AcDbText
 10
104.27725
 20
195.453
 30
0.0
 40
1.478873
  1
3
100
AcDbText
  0
TEXT
  5
16BA
100
AcDbEntity
  8
10000_FRONT
370
    50
390
0
  6
CONTINUOUS
 62
     7
100
AcDbText
 10
105.4545
 20
195.453
 30
0.0
 40
1.478873
  1
N
100
AcDbText
  0
TEXT
  5
16BB
100
AcDbEntity
  8
10000_FRONT
370
    50
390
0
  6
CONTINUOUS
 62
     7
100
AcDbText
 10
106.7465
 20
195.453
 30
0.0
 40
1.478873
  1
O
100
AcDbText
  0
TEXT
  5
16BC
100
AcDbEntity
  8
10000_FRONT
370
    50
390
0
  6
CONTINUOUS
 62
     7
100
AcDbText
 10
111.7
 20
195.453
 30
0.0
 40
1.478873
  1
4
100
AcDbText
  0
TEXT
  5
16BD
100
AcDbEntity
  8
10000_FRONT
370
    50
390
0
  6
CONTINUOUS
 62
     7
100
AcDbText
 10
112.87725
 20
195.453
 30
0.0
 40
1.478873
  1
3
100
AcDbText
  0
TEXT
  5
16BE
100
AcDbEntity
  8
10000_FRONT
370
    50
390
0
  6
CONTINUOUS
 62
     7
100
AcDbText
 10
114.0545
 20
195.453
 30
0.0
 40
1.478873
  1
N
100
AcDbText
  0
TEXT
  5
16BF
100
AcDbEntity
  8
10000_FRONT
370
    50
390
0
  6
CONTINUOUS
 62
     7
100
AcDbText
 10
115.3465
 20
195.453
 30
0.0
 40
1.478873
  1
O
100
AcDbText
  0
TEXT
  5
16C0
100
AcDbEntity
  8
10000_FRONT
370
    50
390
0
  6
CONTINUOUS
 62
     7
100
AcDbText
 10
120.3
 20
195.453
 30
0.0
 40
1.478873
  1
A
100
AcDbText
  0
TEXT
  5
16C1
100
AcDbEntity
  8
10000_FRONT
370
    50
390
0
  6
CONTINUOUS
 62
     7
100
AcDbText
 10
121.47725
 20
195.453
 30
0.0
 40
1.478873
  1
1
100
AcDbText
  0
TEXT
  5
16C2
100
AcDbEntity
  8
10000_FRONT
370
    50
390
0
  6
CONTINUOUS
 62
     7
100
AcDbText
 10
122.6545
 20
195.453
 30
0.0
 40
1.478873
  1
+
100
AcDbText
  0
TEXT
  5
16C3
100
AcDbEntity
  8
10000_FRONT
370
    50
390
0
  6
CONTINUOUS
 62
     7
100
AcDbText
 10
85.9
 20
129.953
 30
0.0
 40
1.478873
  1
1
100
AcDbText
  0
TEXT
  5
16C4
100
AcDbEntity
  8
10000_FRONT
370
    50
390
0
  6
CONTINUOUS
 62
     7
100
AcDbText
 10
87.07725
 20
129.953
 30
0.0
 40
1.478873
  1
4
100
AcDbText
  0
TEXT
  5
16C5
100
AcDbEntity
  8
10000_FRONT
370
    50
390
0
  6
CONTINUOUS
 62
     7
100
AcDbText
 10
88.2545
 20
129.953
 30
0.0
 40
1.478873
  1
N
100
AcDbText
  0
TEXT
  5
16C6
100
AcDbEntity
  8
10000_FRONT
370
    50
390
0
  6
CONTINUOUS
 62
     7
100
AcDbText
 10
89.5465
 20
129.953
 30
0.0
 40
1.478873
  1
O
100
AcDbText
  0
TEXT
  5
16C7
100
AcDbEntity
  8
10000_FRONT
370
    50
390
0
  6
CONTINUOUS
 62
     7
100
AcDbText
 10
94.5
 20
129.953
 30
0.0
 40
1.478873
  1
2
100
AcDbText
  0
TEXT
  5
16C8
100
AcDbEntity
  8
10000_FRONT
370
    50
390
0
  6
CONTINUOUS
 62
     7
100
AcDbText
 10
95.67725
 20
129.953
 30
0.0
 40
1.478873
  1
2
100
AcDbText
  0
TEXT
  5
16C9
100
AcDbEntity
  8
10000_FRONT
370
    50
390
0
  6
CONTINUOUS
 62
     7
100
AcDbText
 10
96.8545
 20
129.953
 30
0.0
 40
1.478873
  1
N
100
AcDbText
  0
TEXT
  5
16CA
100
AcDbEntity
  8
10000_FRONT
370
    50
390
0
  6
CONTINUOUS
 62
     7
100
AcDbText
 10
98.1465
 20
129.953
 30
0.0
 40
1.478873
  1
C
100
AcDbText
  0
TEXT
  5
16CB
100
AcDbEntity
  8
10000_FRONT
370
    50
390
0
  6
CONTINUOUS
 62
     7
100
AcDbText
 10
103.1
 20
129.953
 30
0.0
 40
1.478873
  1
3
100
AcDbText
  0
TEXT
  5
16CC
100
AcDbEntity
  8
10000_FRONT
370
    50
390
0
  6
CONTINUOUS
 62
     7
100
AcDbText
 10
104.27725
 20
129.953
 30
0.0
 40
1.478873
  1
4
100
AcDbText
  0
TEXT
  5
16CD
100
AcDbEntity
  8
10000_FRONT
370
    50
390
0
  6
CONTINUOUS
 62
     7
100
AcDbText
 10
105.4545
 20
129.953
 30
0.0
 40
1.478873
  1
N
100
AcDbText
  0
TEXT
  5
16CE
100
AcDbEntity
  8
10000_FRONT
370
    50
390
0
  6
CONTINUOUS
 62
     7
100
AcDbText
 10
106.7465
 20
129.953
 30
0.0
 40
1.478873
  1
O
100
AcDbText
  0
TEXT
  5
16CF
100
AcDbEntity
  8
10000_FRONT
370
    50
390
0
  6
CONTINUOUS
 62
     7
100
AcDbText
 10
111.7
 20
129.953
 30
0.0
 40
1.478873
  1
4
100
AcDbText
  0
TEXT
  5
16D0
100
AcDbEntity
  8
10000_FRONT
370
    50
390
0
  6
CONTINUOUS
 62
     7
100
AcDbText
 10
112.87725
 20
129.953
 30
0.0
 40
1.478873
  1
4
100
AcDbText
  0
TEXT
  5
16D1
100
AcDbEntity
  8
10000_FRONT
370
    50
390
0
  6
CONTINUOUS
 62
     7
100
AcDbText
 10
114.0545
 20
129.953
 30
0.0
 40
1.478873
  1
N
100
AcDbText
  0
TEXT
  5
16D2
100
AcDbEntity
  8
10000_FRONT
370
    50
390
0
  6
CONTINUOUS
 62
     7
100
AcDbText
 10
115.3465
 20
129.953
 30
0.0
 40
1.478873
  1
O
100
AcDbText
  0
TEXT
  5
16D3
100
AcDbEntity
  8
10000_FRONT
370
    50
390
0
  6
CONTINUOUS
 62
     7
100
AcDbText
 10
120.3
 20
129.953
 30
0.0
 40
1.478873
  1
A
100
AcDbText
  0
TEXT
  5
16D4
100
AcDbEntity
  8
10000_FRONT
370
    50
390
0
  6
CONTINUOUS
 62
     7
100
AcDbText
 10
121.47725
 20
129.953
 30
0.0
 40
1.478873
  1
2
100
AcDbText
  0
TEXT
  5
16D5
100
AcDbEntity
  8
10000_FRONT
370
    50
390
0
  6
CONTINUOUS
 62
     7
100
AcDbText
 10
122.6545
 20
129.953
 30
0.0
 40
1.478873
  1
-
100
AcDbText
  0
LINE
  5
16D6
100
AcDbEntity
  8
90000_FRAME
370
    13
  6
CONTINUOUS
 62
     7
100
AcDbLine
 10
4.999966
 20
4.999976
 30
0.0
 11
4.999966
 21
291.999976
 31
0.0
  0
LINE
  5
16D7
100
AcDbEntity
  8
91000_TIP
370
    13
  6
CONTINUOUS
 62
     7
100
AcDbLine
 10
36.379427
 20
21.210067
 30
0.0
 11
46.379426
 21
23.710067
 31
0.0
  0
LINE
  5
16D8
100
AcDbEntity
  8
91000_TIP
370
    13
  6
CONTINUOUS
 62
     7
100
AcDbLine
 10
35.099916
 20
18.710067
 30
0.0
 11
58.701905
 21
18.710067
 31
0.0
  0
LINE
  5
16D9
100
AcDbEntity
  8
91000_TIP
370
    13
  6
CONTINUOUS
 62
     7
100
AcDbLine
 10
36.379427
 20
16.210068
 30
0.0
 11
46.379426
 21
13.710068
 31
0.0
  0
LINE
  5
16DA
100
AcDbEntity
  8
91000_TIP
370
    13
  6
CONTINUOUS
 62
     7
100
AcDbLine
 10
36.379427
 20
21.210067
 30
0.0
 11
36.379427
 21
16.210068
 31
0.0
  0
LINE
  5
16DB
100
AcDbEntity
  8
91000_TIP
370
    13
  6
CONTINUOUS
 62
     7
100
AcDbLine
 10
46.379426
 20
23.710067
 30
0.0
 11
46.379426
 21
13.710068
 31
0.0
  0
LINE
  5
16DC
100
AcDbEntity
  8
91000_TIP
370
    13
  6
CONTINUOUS
 62
     7
100
AcDbLine
 10
52.879426
 20
12.988586
 30
0.0
 11
52.879426
 21
24.271972
 31
0.0
  0
CIRCLE
  5
16DD
100
AcDbEntity
  8
91000_TIP
370
    13
  6
CONTINUOUS
 62
     7
100
AcDbCircle
 10
52.879426
 20
18.710067
 30
0.0
 40
5.0
  0
CIRCLE
  5
16DE
100
AcDbEntity
  8
91000_TIP
370
    13
  6
CONTINUOUS
 62
     7
100
AcDbCircle
 10
52.879426
 20
18.710067
 30
0.0
 40
2.5
  0
TEXT
  5
16DF
100
AcDbEntity
  8
90000_FRAME
370
    13
  6
CONTINUOUS
 62
     7
100
AcDbText
 10
65.559506
 20
29.777681
 30
0.0
 40
2.2
  1
All dimensions are in millimeters (mm)
 41
0.961374
100
AcDbText
  0
TEXT
  5
16E0
100
AcDbEntity
  8
90000_FRAME
370
    13
  6
CONTINUOUS
 62
     7
100
AcDbText
 10
65.559506
 20
32.906703
 30
0.0
 40
2.2
  1
Alle Bemassungswerte sind in Millimeter (mm) angegeben.
 41
0.825144
100
AcDbText
  0
LINE
  5
16E1
100
AcDbEntity
  8
90000_FRAME
370
    13
  6
CONTINUOUS
 62
     7
100
AcDbLine
 10
204.999966
 20
4.999976
 30
0.0
 11
204.999966
 21
291.999976
 31
0.0
  0
LINE
  5
16E2
100
AcDbEntity
  8
90000_FRAME
370
    13
  6
CONTINUOUS
 62
     7
100
AcDbLine
 10
204.999966
 20
4.999976
 30
0.0
 11
4.999966
 21
4.999976
 31
0.0
  0
TEXT
  5
16E3
100
AcDbEntity
  8
90000_FRAME
370
    13
  6
CONTINUOUS
 62
     7
100
AcDbText
 10
116.448049
 20
22.703118
 30
0.0
 40
3.0
  1
?MLFB?
 41
0.784213
100
AcDbText
  0
TEXT
  5
16E4
100
AcDbEntity
  8
90000_FRAME
370
    13
  6
CONTINUOUS
 62
     7
100
AcDbText
 10
158.159966
 20
11.899976
 30
0.0
 40
2.2
  1
Massstab/Scale: 1:1
 41
0.9
100
AcDbText
  0
TEXT
  5
16E5
100
AcDbEntity
  8
90000_FRAME
370
    13
  6
CONTINUOUS
 62
     7
100
AcDbText
 10
116.295894
 20
11.899976
 30
0.0
 40
2.2
  1
Format/Size: DIN A4
 41
0.803258
100
AcDbText
  0
LINE
  5
16E6
100
AcDbEntity
  8
90000_FRAME
370
    13
  6
CONTINUOUS
 62
     7
100
AcDbLine
 10
199.999966
 20
9.999976
 30
0.0
 11
199.999966
 21
27.999976
 31
0.0
  0
LINE
  5
16E7
100
AcDbEntity
  8
90000_FRAME
370
    13
  6
CONTINUOUS
 62
     7
100
AcDbLine
 10
157.499966
 20
9.999976
 30
0.0
 11
157.499966
 21
15.999976
 31
0.0
  0
LINE
  5
16E8
100
AcDbEntity
  8
90000_FRAME
370
    13
  6
CONTINUOUS
 62
     7
100
AcDbLine
 10
114.999966
 20
9.999976
 30
0.0
 11
114.999966
 21
27.999976
 31
0.0
  0
LINE
  5
16E9
100
AcDbEntity
  8
90000_FRAME
370
    13
  6
CONTINUOUS
 62
     7
100
AcDbLine
 10
64.999966
 20
27.999976
 30
0.0
 11
199.999966
 21
27.999976
 31
0.0
  0
LINE
  5
16EA
100
AcDbEntity
  8
90000_FRAME
370
    13
  6
CONTINUOUS
 62
     7
100
AcDbLine
 10
114.999966
 20
15.999976
 30
0.0
 11
199.999966
 21
15.999976
 31
0.0
  0
LINE
  5
16EB
100
AcDbEntity
  8
90000_FRAME
370
    13
  6
CONTINUOUS
 62
     7
100
AcDbLine
 10
64.999966
 20
9.999976
 30
0.0
 11
64.999966
 21
27.999976
 31
0.0
  0
LINE
  5
16EC
100
AcDbEntity
  8
90000_FRAME
370
    13
  6
CONTINUOUS
 62
     7
100
AcDbLine
 10
64.999966
 20
9.999976
 30
0.0
 11
199.999966
 21
9.999976
 31
0.0
  0
LINE
  5
16ED
100
AcDbEntity
  8
90000_FRAME
370
    13
  6
CONTINUOUS
 62
     7
100
AcDbLine
 10
79.186166
 20
21.414524
 30
0.0
 11
79.186166
 21
16.661255
 31
0.0
  0
LINE
  5
16EE
100
AcDbEntity
  8
90000_FRAME
370
    13
  6
CONTINUOUS
 62
     7
100
AcDbLine
 10
80.612147
 20
21.414524
 30
0.0
 11
80.612147
 21
16.661255
 31
0.0
  0
LINE
  5
16EF
100
AcDbEntity
  8
90000_FRAME
370
    13
  6
CONTINUOUS
 62
     7
100
AcDbLine
 10
79.186166
 20
16.661255
 30
0.0
 11
80.612147
 21
16.661255
 31
0.0
  0
LINE
  5
16F0
100
AcDbEntity
  8
90000_FRAME
370
    13
  6
CONTINUOUS
 62
     7
100
AcDbLine
 10
79.186166
 20
21.414524
 30
0.0
 11
80.612147
 21
21.414524
 31
0.0
  0
LINE
  5
16F1
100
AcDbEntity
  8
90000_FRAME
370
    13
  6
CONTINUOUS
 62
     7
100
AcDbLine
 10
81.705399
 20
21.414524
 30
0.0
 11
81.705399
 21
16.661255
 31
0.0
  0
LINE
  5
16F2
100
AcDbEntity
  8
90000_FRAME
370
    13
  6
CONTINUOUS
 62
     7
100
AcDbLine
 10
81.705399
 20
16.661255
 30
0.0
 11
85.270351
 21
16.661255
 31
0.0
  0
LINE
  5
16F3
100
AcDbEntity
  8
90000_FRAME
370
    13
  6
CONTINUOUS
 62
     7
100
AcDbLine
 10
85.270351
 20
17.564376
 30
0.0
 11
83.083847
 21
17.564376
 31
0.0
  0
LINE
  5
16F4
100
AcDbEntity
  8
90000_FRAME
370
    13
  6
CONTINUOUS
 62
     7
100
AcDbLine
 10
85.270351
 20
17.564376
 30
0.0
 11
85.270351
 21
16.661255
 31
0.0
  0
LINE
  5
16F5
100
AcDbEntity
  8
90000_FRAME
370
    13
  6
CONTINUOUS
 62
     7
100
AcDbLine
 10
85.222818
 20
21.414524
 30
0.0
 11
81.705399
 21
21.414524
 31
0.0
  0
LINE
  5
16F6
100
AcDbEntity
  8
90000_FRAME
370
    13
  6
CONTINUOUS
 62
     7
100
AcDbLine
 10
85.222818
 20
20.53517
 30
0.0
 11
83.083847
 21
20.53517
 31
0.0
  0
LINE
  5
16F7
100
AcDbEntity
  8
90000_FRAME
370
    13
  6
CONTINUOUS
 62
     7
100
AcDbLine
 10
85.222818
 20
21.414524
 30
0.0
 11
85.222818
 21
20.53517
 31
0.0
  0
LINE
  5
16F8
100
AcDbEntity
  8
90000_FRAME
370
    13
  6
CONTINUOUS
 62
     7
100
AcDbLine
 10
84.937622
 20
18.681395
 30
0.0
 11
83.083847
 21
18.681395
 31
0.0
  0
LINE
  5
16F9
100
AcDbEntity
  8
90000_FRAME
370
    13
  6
CONTINUOUS
 62
     7
100
AcDbLine
 10
84.937622
 20
19.465684
 30
0.0
 11
84.937622
 21
18.681395
 31
0.0
  0
LINE
  5
16FA
100
AcDbEntity
  8
90000_FRAME
370
    13
  6
CONTINUOUS
 62
     7
100
AcDbLine
 10
84.937622
 20
19.465684
 30
0.0
 11
83.083847
 21
19.465684
 31
0.0
  0
LINE
  5
16FB
100
AcDbEntity
  8
90000_FRAME
370
    13
  6
CONTINUOUS
 62
     7
100
AcDbLine
 10
83.083847
 20
20.53517
 30
0.0
 11
83.083847
 21
19.465684
 31
0.0
  0
LINE
  5
16FC
100
AcDbEntity
  8
90000_FRAME
370
    13
  6
CONTINUOUS
 62
     7
100
AcDbLine
 10
83.083847
 20
18.681395
 30
0.0
 11
83.083847
 21
17.564376
 31
0.0
  0
LINE
  5
16FD
100
AcDbEntity
  8
90000_FRAME
370
    13
  6
CONTINUOUS
 62
     7
100
AcDbLine
 10
86.078406
 20
16.661255
 30
0.0
 11
86.078406
 21
21.414524
 31
0.0
  0
LINE
  5
16FE
100
AcDbEntity
  8
90000_FRAME
370
    13
  6
CONTINUOUS
 62
     7
100
AcDbLine
 10
86.078406
 20
16.661255
 30
0.0
 11
87.02906
 21
16.661255
 31
0.0
  0
LINE
  5
16FF
100
AcDbEntity
  8
90000_FRAME
370
    13
  6
CONTINUOUS
 62
     7
100
AcDbLine
 10
91.924927
 20
21.414524
 30
0.0
 11
91.924927
 21
16.661255
 31
0.0
  0
LINE
  5
1700
100
AcDbEntity
  8
90000_FRAME
370
    13
  6
CONTINUOUS
 62
     7
100
AcDbLine
 10
91.924927
 20
16.661255
 30
0.0
 11
90.546479
 21
16.661255
 31
0.0
  0
LINE
  5
1701
100
AcDbEntity
  8
90000_FRAME
370
    13
  6
CONTINUOUS
 62
     7
100
AcDbLine
 10
88.359976
 20
16.613723
 30
0.0
 11
89.215564
 21
16.613723
 31
0.0
  0
LINE
  5
1702
100
AcDbEntity
  8
90000_FRAME
370
    13
  6
CONTINUOUS
 62
     7
100
AcDbLine
 10
88.359976
 20
16.613723
 30
0.0
 11
87.02906
 21
19.703348
 31
0.0
  0
LINE
  5
1703
100
AcDbEntity
  8
90000_FRAME
370
    13
  6
CONTINUOUS
 62
     7
100
AcDbLine
 10
87.02906
 20
16.661255
 30
0.0
 11
87.02906
 21
19.703348
 31
0.0
  0
LINE
  5
1704
100
AcDbEntity
  8
90000_FRAME
370
    13
  6
CONTINUOUS
 62
     7
100
AcDbLine
 10
90.546479
 20
19.75088
 30
0.0
 11
89.215564
 21
16.613723
 31
0.0
  0
LINE
  5
1705
100
AcDbEntity
  8
90000_FRAME
370
    13
  6
CONTINUOUS
 62
     7
100
AcDbLine
 10
87.789583
 20
21.414524
 30
0.0
 11
86.078406
 21
21.414524
 31
0.0
  0
LINE
  5
1706
100
AcDbEntity
  8
90000_FRAME
370
    13
  6
CONTINUOUS
 62
     7
100
AcDbLine
 10
91.924927
 20
21.414524
 30
0.0
 11
90.213751
 21
21.414524
 31
0.0
  0
LINE
  5
1707
100
AcDbEntity
  8
90000_FRAME
370
    13
  6
CONTINUOUS
 62
     7
100
AcDbLine
 10
87.789583
 20
21.414524
 30
0.0
 11
89.025433
 21
18.51503
 31
0.0
  0
LINE
  5
1708
100
AcDbEntity
  8
90000_FRAME
370
    13
  6
CONTINUOUS
 62
     7
100
AcDbLine
 10
90.213751
 20
21.414524
 30
0.0
 11
89.025433
 21
18.51503
 31
0.0
  0
LINE
  5
1709
100
AcDbEntity
  8
90000_FRAME
370
    13
  6
CONTINUOUS
 62
     7
100
AcDbLine
 10
90.546479
 20
19.75088
 30
0.0
 11
90.546479
 21
16.661255
 31
0.0
  0
LINE
  5
170A
100
AcDbEntity
  8
90000_FRAME
370
    13
  6
CONTINUOUS
 62
     7
100
AcDbLine
 10
93.018179
 20
21.414524
 30
0.0
 11
93.018179
 21
16.661255
 31
0.0
  0
LINE
  5
170B
100
AcDbEntity
  8
90000_FRAME
370
    13
  6
CONTINUOUS
 62
     7
100
AcDbLine
 10
93.018179
 20
16.661255
 30
0.0
 11
96.583131
 21
16.661255
 31
0.0
  0
LINE
  5
170C
100
AcDbEntity
  8
90000_FRAME
370
    13
  6
CONTINUOUS
 62
     7
100
AcDbLine
 10
96.583131
 20
17.564376
 30
0.0
 11
94.396627
 21
17.564376
 31
0.0
  0
LINE
  5
170D
100
AcDbEntity
  8
90000_FRAME
370
    13
  6
CONTINUOUS
 62
     7
100
AcDbLine
 10
96.583131
 20
17.564376
 30
0.0
 11
96.583131
 21
16.661255
 31
0.0
  0
LINE
  5
170E
100
AcDbEntity
  8
90000_FRAME
370
    13
  6
CONTINUOUS
 62
     7
100
AcDbLine
 10
96.535598
 20
21.414524
 30
0.0
 11
93.018179
 21
21.414524
 31
0.0
  0
LINE
  5
170F
100
AcDbEntity
  8
90000_FRAME
370
    13
  6
CONTINUOUS
 62
     7
100
AcDbLine
 10
96.535598
 20
20.53517
 30
0.0
 11
94.396627
 21
20.53517
 31
0.0
  0
LINE
  5
1710
100
AcDbEntity
  8
90000_FRAME
370
    13
  6
CONTINUOUS
 62
     7
100
AcDbLine
 10
96.535598
 20
21.414524
 30
0.0
 11
96.535598
 21
20.53517
 31
0.0
  0
LINE
  5
1711
100
AcDbEntity
  8
90000_FRAME
370
    13
  6
CONTINUOUS
 62
     7
100
AcDbLine
 10
96.250402
 20
18.681395
 30
0.0
 11
94.396627
 21
18.681395
 31
0.0
  0
LINE
  5
1712
100
AcDbEntity
  8
90000_FRAME
370
    13
  6
CONTINUOUS
 62
     7
100
AcDbLine
 10
96.250402
 20
19.465684
 30
0.0
 11
96.250402
 21
18.681395
 31
0.0
  0
LINE
  5
1713
100
AcDbEntity
  8
90000_FRAME
370
    13
  6
CONTINUOUS
 62
     7
100
AcDbLine
 10
96.250402
 20
19.465684
 30
0.0
 11
94.396627
 21
19.465684
 31
0.0
  0
LINE
  5
1714
100
AcDbEntity
  8
90000_FRAME
370
    13
  6
CONTINUOUS
 62
     7
100
AcDbLine
 10
94.396627
 20
20.53517
 30
0.0
 11
94.396627
 21
19.465684
 31
0.0
  0
LINE
  5
1715
100
AcDbEntity
  8
90000_FRAME
370
    13
  6
CONTINUOUS
 62
     7
100
AcDbLine
 10
94.396627
 20
18.681395
 30
0.0
 11
94.396627
 21
17.564376
 31
0.0
  0
LINE
  5
1716
100
AcDbEntity
  8
90000_FRAME
370
    13
  6
CONTINUOUS
 62
     7
100
AcDbLine
 10
97.367421
 20
16.661255
 30
0.0
 11
97.367421
 21
21.414524
 31
0.0
  0
LINE
  5
1717
100
AcDbEntity
  8
90000_FRAME
370
    13
  6
CONTINUOUS
 62
     7
100
AcDbLine
 10
101.550297
 20
21.414524
 30
0.0
 11
101.550297
 21
16.661255
 31
0.0
  0
LINE
  5
1718
100
AcDbEntity
  8
90000_FRAME
370
    13
  6
CONTINUOUS
 62
     7
100
AcDbLine
 10
97.367421
 20
16.661255
 30
0.0
 11
98.318074
 21
16.661255
 31
0.0
  0
LINE
  5
1719
100
AcDbEntity
  8
90000_FRAME
370
    13
  6
CONTINUOUS
 62
     7
100
AcDbLine
 10
101.550297
 20
21.414524
 30
0.0
 11
100.599643
 21
21.414524
 31
0.0
  0
LINE
  5
171A
100
AcDbEntity
  8
90000_FRAME
370
    13
  6
CONTINUOUS
 62
     7
100
AcDbLine
 10
98.912233
 20
21.414524
 30
0.0
 11
97.367421
 21
21.414524
 31
0.0
  0
LINE
  5
171B
100
AcDbEntity
  8
90000_FRAME
370
    13
  6
CONTINUOUS
 62
     7
100
AcDbLine
 10
101.550297
 20
16.661255
 30
0.0
 11
100.029251
 21
16.661255
 31
0.0
  0
LINE
  5
171C
100
AcDbEntity
  8
90000_FRAME
370
    13
  6
CONTINUOUS
 62
     7
100
AcDbLine
 10
100.029251
 20
16.661255
 30
0.0
 11
98.318074
 21
19.703348
 31
0.0
  0
LINE
  5
171D
100
AcDbEntity
  8
90000_FRAME
370
    13
  6
CONTINUOUS
 62
     7
100
AcDbLine
 10
98.912233
 20
21.414524
 30
0.0
 11
100.599643
 21
18.467498
 31
0.0
  0
LINE
  5
171E
100
AcDbEntity
  8
90000_FRAME
370
    13
  6
CONTINUOUS
 62
     7
100
AcDbLine
 10
100.599643
 20
21.414524
 30
0.0
 11
100.599643
 21
18.467498
 31
0.0
  0
LINE
  5
171F
100
AcDbEntity
  8
90000_FRAME
370
    13
  6
CONTINUOUS
 62
     7
100
AcDbLine
 10
98.318074
 20
16.661255
 30
0.0
 11
98.318074
 21
19.703348
 31
0.0
  0
LINE
  5
1720
100
AcDbEntity
  8
90000_FRAME
370
    13
  6
CONTINUOUS
 62
     7
100
AcDbLine
 10
102.358353
 20
16.756321
 30
0.0
 11
102.358353
 21
17.706974
 31
0.0
  0
LINE
  5
1721
100
AcDbEntity
  8
90000_FRAME
370
    13
  6
CONTINUOUS
 62
     7
100
AcDbLine
 10
105.685641
 20
20.416338
 30
0.0
 11
105.685641
 21
21.366992
 31
0.0
  0
ARC
  5
1722
100
AcDbEntity
  8
90000_FRAME
370
    13
  6
CONTINUOUS
 62
     7
100
AcDbCircle
 10
104.062994
 20
18.618414
 30
0.0
 40
1.111619
100
AcDbArc
 50
277.709996
 51
295.688493
  0
ARC
  5
1723
100
AcDbEntity
  8
90000_FRAME
370
    13
  6
CONTINUOUS
 62
     7
100
AcDbCircle
 10
104.347304
 20
17.893588
 30
0.0
 40
0.340169
100
AcDbArc
 50
305.503221
 51
72.46529
  0
ARC
  5
1724
100
AcDbEntity
  8
90000_FRAME
370
    13
  6
CONTINUOUS
 62
     7
100
AcDbCircle
 10
103.78131
 20
21.295295
 30
0.0
 40
4.756795
100
AcDbArc
 50
252.59392
 51
280.98166
  0
ARC
  5
1725
100
AcDbEntity
  8
90000_FRAME
370
    13
  6
CONTINUOUS
 62
     7
100
AcDbCircle
 10
104.236146
 20
18.677281
 30
0.0
 40
2.100727
100
AcDbArc
 50
282.405836
 51
311.864443
  0
ARC
  5
1726
100
AcDbEntity
  8
90000_FRAME
370
    13
  6
CONTINUOUS
 62
     7
100
AcDbCircle
 10
103.962581
 20
20.285623
 30
0.0
 40
0.302963
100
AcDbArc
 50
154.440035
 51
221.82017
  0
ARC
  5
1727
100
AcDbEntity
  8
90000_FRAME
370
    13
  6
CONTINUOUS
 62
     7
100
AcDbCircle
 10
104.041803
 20
20.206402
 30
0.0
 40
0.410309
100
AcDbArc
 50
102.828783
 51
149.225964
  0
ARC
  5
1728
100
AcDbEntity
  8
90000_FRAME
370
    13
  6
CONTINUOUS
 62
     7
100
AcDbCircle
 10
104.458829
 20
18.464066
 30
0.0
 40
2.201837
100
AcDbArc
 50
84.040006
 51
103.342766
  0
ARC
  5
1729
100
AcDbEntity
  8
90000_FRAME
370
    13
  6
CONTINUOUS
 62
     7
100
AcDbCircle
 10
104.117866
 20
16.046703
 30
0.0
 40
4.642374
100
AcDbArc
 50
70.262586
 51
82.952419
  0
ARC
  5
172A
100
AcDbEntity
  8
90000_FRAME
370
    13
  6
CONTINUOUS
 62
     7
100
AcDbCircle
 10
103.603847
 20
20.718325
 30
0.0
 40
3.258756
100
AcDbArc
 50
247.530021
 51
280.757952
  0
ARC
  5
172B
100
AcDbEntity
  8
90000_FRAME
370
    13
  6
CONTINUOUS
 62
     7
100
AcDbCircle
 10
97.218881
 20
2.466805
 30
0.0
 40
17.331608
100
AcDbArc
 50
65.341467
 51
67.399777
  0
ARC
  5
172C
100
AcDbEntity
  8
90000_FRAME
370
    13
  6
CONTINUOUS
 62
     7
100
AcDbCircle
 10
108.014743
 20
28.259232
 30
0.0
 40
10.629164
100
AcDbArc
 50
242.86201
 51
247.104203
  0
ARC
  5
172D
100
AcDbEntity
  8
90000_FRAME
370
    13
  6
CONTINUOUS
 62
     7
100
AcDbCircle
 10
104.159842
 20
20.7253
 30
0.0
 40
2.166292
100
AcDbArc
 50
227.311928
 51
242.704032
  0
ARC
  5
172E
100
AcDbEntity
  8
90000_FRAME
370
    13
  6
CONTINUOUS
 62
     7
100
AcDbCircle
 10
103.555811
 20
20.019623
 30
0.0
 40
1.238522
100
AcDbArc
 50
194.795219
 51
225.717655
  0
ARC
  5
172F
100
AcDbEntity
  8
90000_FRAME
370
    13
  6
CONTINUOUS
 62
     7
100
AcDbCircle
 10
103.617969
 20
20.059843
 30
0.0
 40
1.309092
100
AcDbArc
 50
164.197486
 51
195.802514
  0
ARC
  5
1730
100
AcDbEntity
  8
90000_FRAME
370
    13
  6
CONTINUOUS
 62
     7
100
AcDbCircle
 10
104.174993
 20
19.171576
 30
0.0
 40
2.366925
100
AcDbArc
 50
86.221802
 51
120.42726
  0
ARC
  5
1731
100
AcDbEntity
  8
90000_FRAME
370
    13
  6
CONTINUOUS
 62
     7
100
AcDbCircle
 10
103.906136
 20
12.475408
 30
0.0
 40
9.067905
100
AcDbArc
 50
78.682705
 51
87.31476
  0
ARC
  5
1732
100
AcDbEntity
  8
90000_FRAME
370
    13
  6
CONTINUOUS
 62
     7
100
AcDbCircle
 10
103.450067
 20
20.16735
 30
0.0
 40
1.119747
100
AcDbArc
 50
142.813918
 51
167.152295
  0
ARC
  5
1733
100
AcDbEntity
  8
90000_FRAME
370
    13
  6
CONTINUOUS
 62
     7
100
AcDbCircle
 10
103.795376
 20
19.860769
 30
0.0
 40
1.580547
100
AcDbArc
 50
121.214095
 51
141.525477
  0
ARC
  5
1734
100
AcDbEntity
  8
90000_FRAME
370
    13
  6
CONTINUOUS
 62
     7
100
AcDbCircle
 10
104.372551
 20
20.671826
 30
0.0
 40
0.866128
100
AcDbArc
 50
222.776039
 51
239.036243
  0
ARC
  5
1735
100
AcDbEntity
  8
90000_FRAME
370
    13
  6
CONTINUOUS
 62
     7
100
AcDbCircle
 10
101.865841
 20
13.341554
 30
0.0
 40
6.858774
100
AcDbArc
 50
59.902027
 51
68.203648
  0
ARC
  5
1736
100
AcDbEntity
  8
90000_FRAME
370
    13
  6
CONTINUOUS
 62
     7
100
AcDbCircle
 10
105.274336
 20
22.26744
 30
0.0
 40
2.698741
100
AcDbArc
 50
240.0482
 51
251.377967
  0
ARC
  5
1737
100
AcDbEntity
  8
90000_FRAME
370
    13
  6
CONTINUOUS
 62
     7
100
AcDbCircle
 10
104.608879
 20
18.110542
 30
0.0
 40
1.433447
100
AcDbArc
 50
315.890455
 51
333.522926
  0
ARC
  5
1738
100
AcDbEntity
  8
90000_FRAME
370
    13
  6
CONTINUOUS
 62
     7
100
AcDbCircle
 10
104.613517
 20
18.057135
 30
0.0
 40
1.406229
100
AcDbArc
 50
335.386797
 51
24.391512
  0
ARC
  5
1739
100
AcDbEntity
  8
90000_FRAME
370
    13
  6
CONTINUOUS
 62
     7
100
AcDbCircle
 10
104.541312
 20
17.979278
 30
0.0
 40
1.504703
100
AcDbArc
 50
25.956292
 51
59.483483
  0
LINE
  5
173A
100
AcDbEntity
  8
90000_FRAME
370
    13
  6
CONTINUOUS
 62
     7
100
AcDbLine
 10
74.765626
 20
16.756321
 30
0.0
 11
74.765626
 21
17.706974
 31
0.0
  0
LINE
  5
173B
100
AcDbEntity
  8
90000_FRAME
370
    13
  6
CONTINUOUS
 62
     7
100
AcDbLine
 10
78.092914
 20
20.416338
 30
0.0
 11
78.092914
 21
21.366992
 31
0.0
  0
ARC
  5
173C
100
AcDbEntity
  8
90000_FRAME
370
    13
  6
CONTINUOUS
 62
     7
100
AcDbCircle
 10
76.470267
 20
18.618414
 30
0.0
 40
1.111619
100
AcDbArc
 50
277.709996
 51
295.688493
  0
ARC
  5
173D
100
AcDbEntity
  8
90000_FRAME
370
    13
  6
CONTINUOUS
 62
     7
100
AcDbCircle
 10
76.754577
 20
17.893588
 30
0.0
 40
0.340169
100
AcDbArc
 50
305.503221
 51
72.46529
  0
ARC
  5
173E
100
AcDbEntity
  8
90000_FRAME
370
    13
  6
CONTINUOUS
 62
     7
100
AcDbCircle
 10
76.188583
 20
21.295295
 30
0.0
 40
4.756795
100
AcDbArc
 50
252.59392
 51
280.98166
  0
ARC
  5
173F
100
AcDbEntity
  8
90000_FRAME
370
    13
  6
CONTINUOUS
 62
     7
100
AcDbCircle
 10
76.643419
 20
18.677281
 30
0.0
 40
2.100727
100
AcDbArc
 50
282.405836
 51
311.864443
  0
ARC
  5
1740
100
AcDbEntity
  8
90000_FRAME
370
    13
  6
CONTINUOUS
 62
     7
100
AcDbCircle
 10
76.369854
 20
20.285623
 30
0.0
 40
0.302963
100
AcDbArc
 50
154.440035
 51
221.82017
  0
ARC
  5
1741
100
AcDbEntity
  8
90000_FRAME
370
    13
  6
CONTINUOUS
 62
     7
100
AcDbCircle
 10
76.449075
 20
20.206402
 30
0.0
 40
0.410309
100
AcDbArc
 50
102.828783
 51
149.225964
  0
ARC
  5
1742
100
AcDbEntity
  8
90000_FRAME
370
    13
  6
CONTINUOUS
 62
     7
100
AcDbCircle
 10
76.866102
 20
18.464066
 30
0.0
 40
2.201837
100
AcDbArc
 50
84.040006
 51
103.342766
  0
ARC
  5
1743
100
AcDbEntity
  8
90000_FRAME
370
    13
  6
CONTINUOUS
 62
     7
100
AcDbCircle
 10
76.525139
 20
16.046703
 30
0.0
 40
4.642374
100
AcDbArc
 50
70.262586
 51
82.952419
  0
ARC
  5
1744
100
AcDbEntity
  8
90000_FRAME
370
    13
  6
CONTINUOUS
 62
     7
100
AcDbCircle
 10
76.01112
 20
20.718325
 30
0.0
 40
3.258756
100
AcDbArc
 50
247.530021
 51
280.757952
  0
ARC
  5
1745
100
AcDbEntity
  8
90000_FRAME
370
    13
  6
CONTINUOUS
 62
     7
100
AcDbCircle
 10
69.626154
 20
2.466805
 30
0.0
 40
17.331608
100
AcDbArc
 50
65.341467
 51
67.399777
  0
ARC
  5
1746
100
AcDbEntity
  8
90000_FRAME
370
    13
  6
CONTINUOUS
 62
     7
100
AcDbCircle
 10
80.422016
 20
28.259232
 30
0.0
 40
10.629164
100
AcDbArc
 50
242.86201
 51
247.104203
  0
ARC
  5
1747
100
AcDbEntity
  8
90000_FRAME
370
    13
  6
CONTINUOUS
 62
     7
100
AcDbCircle
 10
76.567115
 20
20.7253
 30
0.0
 40
2.166292
100
AcDbArc
 50
227.311928
 51
242.704032
  0
ARC
  5
1748
100
AcDbEntity
  8
90000_FRAME
370
    13
  6
CONTINUOUS
 62
     7
100
AcDbCircle
 10
75.963084
 20
20.019623
 30
0.0
 40
1.238522
100
AcDbArc
 50
194.795219
 51
225.717655
  0
ARC
  5
1749
100
AcDbEntity
  8
90000_FRAME
370
    13
  6
CONTINUOUS
 62
     7
100
AcDbCircle
 10
76.582266
 20
19.171576
 30
0.0
 40
2.366925
100
AcDbArc
 50
86.221802
 51
120.42726
  0
ARC
  5
174A
100
AcDbEntity
  8
90000_FRAME
370
    13
  6
CONTINUOUS
 62
     7
100
AcDbCircle
 10
76.313409
 20
12.475408
 30
0.0
 40
9.067905
100
AcDbArc
 50
78.682705
 51
87.31476
  0
ARC
  5
174B
100
AcDbEntity
  8
90000_FRAME
370
    13
  6
CONTINUOUS
 62
     7
100
AcDbCircle
 10
76.202649
 20
19.860769
 30
0.0
 40
1.580547
100
AcDbArc
 50
121.214095
 51
141.525477
  0
ARC
  5
174C
100
AcDbEntity
  8
90000_FRAME
370
    13
  6
CONTINUOUS
 62
     7
100
AcDbCircle
 10
76.779824
 20
20.671826
 30
0.0
 40
0.866128
100
AcDbArc
 50
222.776039
 51
239.036243
  0
ARC
  5
174D
100
AcDbEntity
  8
90000_FRAME
370
    13
  6
CONTINUOUS
 62
     7
100
AcDbCircle
 10
74.273114
 20
13.341554
 30
0.0
 40
6.858774
100
AcDbArc
 50
59.902027
 51
68.203648
  0
ARC
  5
174E
100
AcDbEntity
  8
90000_FRAME
370
    13
  6
CONTINUOUS
 62
     7
100
AcDbCircle
 10
77.681609
 20
22.26744
 30
0.0
 40
2.698741
100
AcDbArc
 50
240.0482
 51
251.377967
  0
ARC
  5
174F
100
AcDbEntity
  8
90000_FRAME
370
    13
  6
CONTINUOUS
 62
     7
100
AcDbCircle
 10
77.016152
 20
18.110542
 30
0.0
 40
1.433447
100
AcDbArc
 50
315.890455
 51
333.522926
  0
ARC
  5
1750
100
AcDbEntity
  8
90000_FRAME
370
    13
  6
CONTINUOUS
 62
     7
100
AcDbCircle
 10
77.02079
 20
18.057135
 30
0.0
 40
1.406229
100
AcDbArc
 50
335.386797
 51
24.391512
  0
ARC
  5
1751
100
AcDbEntity
  8
90000_FRAME
370
    13
  6
CONTINUOUS
 62
     7
100
AcDbCircle
 10
76.948585
 20
17.979278
 30
0.0
 40
1.504703
100
AcDbArc
 50
25.956292
 51
59.483483
  0
LINE
  5
1752
100
AcDbEntity
  8
90000_FRAME
370
    13
  6
CONTINUOUS
 62
     7
100
AcDbLine
 10
74.957455
 20
20.833719
 30
0.0
 11
75.23152
 21
21.107792
 31
0.0
  0
ARC
  5
1753
100
AcDbEntity
  8
90000_FRAME
370
    13
  6
CONTINUOUS
 62
     7
100
AcDbCircle
 10
76.025242
 20
20.059843
 30
0.0
 40
1.309092
100
AcDbArc
 50
164.197486
 51
195.802514
  0
ARC
  5
1754
100
AcDbEntity
  8
90000_FRAME
370
    13
  6
CONTINUOUS
 62
     7
100
AcDbCircle
 10
75.85734
 20
20.16735
 30
0.0
 40
1.119747
100
AcDbArc
 50
142.813918
 51
167.152295
  0
LINE
  5
1755
100
AcDbEntity
  8
90000_FRAME
370
    13
  6
CONTINUOUS
 62
     7
100
AcDbLine
 10
204.999966
 20
291.999976
 30
0.0
 11
4.999966
 21
291.999976
 31
0.0
  0
LINE
  5
1756
100
AcDbEntity
  8
90000_FRAME
370
    13
  6
CONTINUOUS
 62
     7
100
AcDbLine
 10
209.999966
 20
296.999976
 30
0.0
 11
-0.000034
 21
296.999976
 31
0.0
  0
LINE
  5
1757
100
AcDbEntity
  8
90000_FRAME
370
    13
  6
CONTINUOUS
 62
     7
100
AcDbLine
 10
209.999966
 20
-0.000024
 30
0.0
 11
-0.000034
 21
-0.000024
 31
0.0
  0
LINE
  5
1758
100
AcDbEntity
  8
90000_FRAME
370
    13
  6
CONTINUOUS
 62
     7
100
AcDbLine
 10
-0.000034
 20
-0.000024
 30
0.0
 11
-0.000034
 21
296.999976
 31
0.0
  0
LINE
  5
1759
100
AcDbEntity
  8
90000_FRAME
370
    13
  6
CONTINUOUS
 62
     7
100
AcDbLine
 10
209.999966
 20
-0.000024
 30
0.0
 11
209.999966
 21
296.999976
 31
0.0
  0
ENDSEC
  0
SECTION
  2
OBJECTS
  0
DICTIONARY
  5
10CF
100
AcDbDictionary
280
     0
281
     1
  3
ACAD_GROUP
350
10D0
  3
ACAD_MLINESTYLE
350
10D1
  0
DICTIONARY
  5
10D0
102
{ACAD_REACTORS
330
10CF
102
}
100
AcDbDictionary
280
     0
281
     1
  0
DICTIONARY
  5
10D1
102
{ACAD_REACTORS
330
10CF
102
}
100
AcDbDictionary
280
     0
281
     1
  3
Standard
350
10D2
  0
MLINESTYLE
  5
10D2
102
{ACAD_REACTORS
330
10D1
102
}
100
AcDbMlineStyle
  2
Standard
 70
     0
  3

 62
     0
 51
90.0
 52
90.0
 71
     2
 49
0.5
 62
   256
  6
ByLayer
 49
-0.5
 62
   256
  6
ByLayer
  0
ENDSEC
  0
EOF
