  0
SECTION
  2
HEADER
  9
$ACADVER
  1
AC1015
  9
$ACADMAINTVER
 70
     6
  9
$DWGCODEPAGE
  3
ANSI_1252
  9
$INSBASE
 10
0.0
 20
0.0
 30
0.0
  9
$EXTMIN
 10
69.395417
 20
287.976483
 30
-1.0
  9
$EXTMAX
 10
1026.514554
 20
492.804657
 30
0.7
  9
$LIMMIN
 10
0.0
 20
0.0
  9
$LIMMAX
 10
12.0
 20
9.0
  9
$ORTHOMODE
 70
     0
  9
$REGENMODE
 70
     1
  9
$FILLMODE
 70
     1
  9
$QTEXTMODE
 70
     0
  9
$MIRRTEXT
 70
     0
  9
$LTSCALE
 40
5.0
  9
$ATTMODE
 70
     1
  9
$TEXTSIZE
 40
0.2
  9
$TRACEWID
 40
0.05
  9
$TEXTSTYLE
  7
STANDARD
  9
$CLAYER
  8
0
  9
$CELTYPE
  6
ByLayer
  9
$CECOLOR
 62
   256
  9
$CELTSCALE
 40
1.0
  9
$DISPSILH
 70
     0
  9
$DIMSCALE
 40
1.0
  9
$DIMASZ
 40
0.18
  9
$DIMEXO
 40
0.0625
  9
$DIMDLI
 40
0.38
  9
$DIMRND
 40
0.0
  9
$DIMDLE
 40
0.0
  9
$DIMEXE
 40
0.18
  9
$DIMTP
 40
0.0
  9
$DIMTM
 40
0.0
  9
$DIMTXT
 40
0.18
  9
$DIMCEN
 40
0.09
  9
$DIMTSZ
 40
0.0
  9
$DIMTOL
 70
     0
  9
$DIMLIM
 70
     0
  9
$DIMTIH
 70
     1
  9
$DIMTOH
 70
     1
  9
$DIMSE1
 70
     0
  9
$DIMSE2
 70
     0
  9
$DIMTAD
 70
     0
  9
$DIMZIN
 70
     0
  9
$DIMBLK
  1

  9
$DIMASO
 70
     1
  9
$DIMSHO
 70
     1
  9
$DIMPOST
  1

  9
$DIMAPOST
  1

  9
$DIMALT
 70
     0
  9
$DIMALTD
 70
     2
  9
$DIMALTF
 40
25.4
  9
$DIMLFAC
 40
1.0
  9
$DIMTOFL
 70
     0
  9
$DIMTVP
 40
0.0
  9
$DIMTIX
 70
     0
  9
$DIMSOXD
 70
     0
  9
$DIMSAH
 70
     0
  9
$DIMBLK1
  1

  9
$DIMBLK2
  1

  9
$DIMSTYLE
  2
STANDARD
  9
$DIMCLRD
 70
     0
  9
$DIMCLRE
 70
     0
  9
$DIMCLRT
 70
     0
  9
$DIMTFAC
 40
1.0
  9
$DIMGAP
 40
0.09
  9
$DIMJUST
 70
     0
  9
$DIMSD1
 70
     0
  9
$DIMSD2
 70
     0
  9
$DIMTOLJ
 70
     1
  9
$DIMTZIN
 70
     0
  9
$DIMALTZ
 70
     0
  9
$DIMALTTZ
 70
     0
  9
$DIMUPT
 70
     0
  9
$DIMDEC
 70
     4
  9
$DIMTDEC
 70
     4
  9
$DIMALTU
 70
     2
  9
$DIMALTTD
 70
     2
  9
$DIMTXSTY
  7
STANDARD
  9
$DIMAUNIT
 70
     0
  9
$DIMADEC
 70
     0
  9
$DIMALTRND
 40
0.0
  9
$DIMAZIN
 70
     0
  9
$DIMDSEP
 70
     0
  9
$DIMATFIT
 70
     3
  9
$DIMFRAC
 70
     0
  9
$DIMLDRBLK
  1

  9
$DIMLUNIT
 70
     2
  9
$DIMLWD
 70
     0
  9
$DIMLWE
 70
     0
  9
$DIMTMOVE
 70
     0
  9
$LUNITS
 70
     2
  9
$LUPREC
 70
     4
  9
$SKETCHINC
 40
0.1
  9
$FILLETRAD
 40
0.0
  9
$AUNITS
 70
     0
  9
$AUPREC
 70
     0
  9
$MENU
  1
.
  9
$ELEVATION
 40
0.0
  9
$PELEVATION
 40
0.0
  9
$THICKNESS
 40
0.0
  9
$LIMCHECK
 70
     0
  9
$CHAMFERA
 40
0.0
  9
$CHAMFERB
 40
0.0
  9
$CHAMFERC
 40
0.0
  9
$CHAMFERD
 40
0.0
  9
$SKPOLY
 70
     0
  9
$TDCREATE
 40
2453353.758792454
  9
$TDUCREATE
 40
0.000000000
  9
$TDUPDATE
 40
0.000000000
  9
$TDUUPDATE
 40
2447892.958333334
  9
$TDINDWG
 40
78332576.0667047050
  9
$TDUSRTIMER
 40
0.0000000000
  9
$USRTIMER
 70
     1
  9
$ANGBASE
 50
0.0
  9
$ANGDIR
 70
     0
  9
$PDMODE
 70
     0
  9
$PDSIZE
 40
0.0
  9
$PLINEWID
 40
0.0
  9
$SPLFRAME
 70
     0
  9
$SPLINETYPE
 70
     6
  9
$SPLINESEGS
 70
     8
  9
$HANDSEED
  5
151F
  9
$SURFTAB1
 70
     6
  9
$SURFTAB2
 70
     6
  9
$SURFTYPE
 70
     6
  9
$SURFU
 70
     6
  9
$SURFV
 70
     6
  9
$UCSBASE
  2

  9
$UCSNAME
  2

  9
$UCSORG
 10
0.0
 20
0.0
 30
0.0
  9
$UCSXDIR
 10
1.0
 20
0.0
 30
0.0
  9
$UCSYDIR
 10
0.0
 20
1.0
 30
0.0
  9
$UCSORTHOREF
  2

  9
$UCSORTHOVIEW
 70
     0
  9
$UCSORGTOP
 10
0.0
 20
0.0
 30
0.0
  9
$UCSORGBOTTOM
 10
0.0
 20
0.0
 30
0.0
  9
$UCSORGLEFT
 10
0.0
 20
0.0
 30
0.0
  9
$UCSORGRIGHT
 10
0.0
 20
0.0
 30
0.0
  9
$UCSORGFRONT
 10
0.0
 20
0.0
 30
0.0
  9
$UCSORGBACK
 10
0.0
 20
0.0
 30
0.0
  9
$PUCSBASE
  2

  9
$PUCSNAME
  2

  9
$PUCSORG
 10
0.0
 20
0.0
 30
0.0
  9
$PUCSXDIR
 10
1.0
 20
0.0
 30
0.0
  9
$PUCSYDIR
 10
0.0
 20
1.0
 30
0.0
  9
$PUCSORTHOREF
  2

  9
$PUCSORTHOVIEW
 70
     0
  9
$PUCSORGTOP
 10
0.0
 20
0.0
 30
0.0
  9
$PUCSORGBOTTOM
 10
0.0
 20
0.0
 30
0.0
  9
$PUCSORGLEFT
 10
0.0
 20
0.0
 30
0.0
  9
$PUCSORGRIGHT
 10
0.0
 20
0.0
 30
0.0
  9
$PUCSORGFRONT
 10
0.0
 20
0.0
 30
0.0
  9
$PUCSORGBACK
 10
0.0
 20
0.0
 30
0.0
  9
$USERI1
 70
     0
  9
$USERI2
 70
     0
  9
$USERI3
 70
     0
  9
$USERI4
 70
     0
  9
$USERI5
 70
     0
  9
$USERR1
 40
0.0
  9
$USERR2
 40
0.0
  9
$USERR3
 40
0.0
  9
$USERR4
 40
0.0
  9
$USERR5
 40
0.0
  9
$WORLDVIEW
 70
     1
  9
$SHADEDGE
 70
     3
  9
$SHADEDIF
 70
    70
  9
$TILEMODE
 70
     1
  9
$MAXACTVP
 70
    64
  9
$PINSBASE
 10
0.0
 20
0.0
 30
0.0
  9
$PLIMCHECK
 70
     0
  9
$PEXTMIN
 10
0.0
 20
0.0
 30
0.0
  9
$PEXTMAX
 10
0.0
 20
0.0
 30
0.0
  9
$PLIMMIN
 10
0.0
 20
0.0
  9
$PLIMMAX
 10
0.0
 20
0.0
  9
$UNITMODE
 70
     0
  9
$VISRETAIN
 70
     1
  9
$PLINEGEN
 70
     0
  9
$PSLTSCALE
 70
     1
  9
$TREEDEPTH
 70
  3020
  9
$CMLSTYLE
  2
Standard
  9
$CMLJUST
 70
     0
  9
$CMLSCALE
 40
1.0
  9
$PROXYGRAPHICS
 70
     0
  9
$MEASUREMENT
 70
     0
  9
$CELWEIGHT
370
     0
  9
$ENDCAPS
280
     0
  9
$JOINSTYLE
280
     0
  9
$LWDISPLAY
290
     0
  9
$INSUNITS
 70
     0
  9
$HYPERLINKBASE
  1

  9
$STYLESHEET
  1

  9
$XEDIT
290
     1
  9
$CEPSNTYPE
380
     0
  9
$PSTYLEMODE
290
     1
  9
$FINGERPRINTGUID
  2

  9
$VERSIONGUID
  2

  9
$EXTNAMES
290
     1
  9
$PSVPSCALE
 40
0.0
  0
ENDSEC
  0
SECTION
  2
CLASSES
  0
CLASS
  1
LWPOLYLINE
  2
AcDbPolyline
  3
AutoCAD 2000
 90
        0
280
     0
281
     1
  0
CLASS
  1
IMAGE
  2
AcDbRasterImage
  3
ISM
 90
      127
280
     0
281
     1
  0
CLASS
  1
OLE2FRAME
  2
AcDbOle2Frame
  3
AutoCAD 2000
 90
        0
280
     0
281
     1
  0
CLASS
  1
HATCH
  2
AcDbHatch
  3
AutoCAD 2000
 90
        0
280
     0
281
     1
  0
CLASS
  1
DICTIONARYVAR
  2
AcDbDictionaryVar
  3
AutoCAD 2000
 90
        0
280
     0
281
     0
  0
CLASS
  1
RASTERVARIABLES
  2
AcDbRasterVariables
  3
ISM
 90
        0
280
     0
281
     0
  0
CLASS
  1
IMAGEDEF
  2
AcDbRasterImageDef
  3
ISM
 90
        0
280
     0
281
     0
  0
CLASS
  1
IMAGEDEF_REACTOR
  2
AcDbRasterImageDefReactor
  3
ISM
 90
        1
280
     0
281
     0
  0
CLASS
  1
IDBUFFER
  2
AcDbIdBuffer
  3
AutoCAD 2000
 90
        0
280
     0
281
     0
  0
CLASS
  1
SPATIAL_FILTER
  2
AcDbSpatialFilter
  3
AutoCAD 2000
 90
        0
280
     0
281
     0
  0
CLASS
  1
XRECORD
  2
AcDbXrecord
  3
AutoCAD 2000
 90
        0
280
     0
281
     0
  0
CLASS
  1
SORTENTSTABLE
  2
AcDbSortentsTable
  3
AutoCAD 2000
 90
        0
280
     0
281
     0
  0
CLASS
  1
LAYER_INDEX
  2
AcDbLayerIndex
  3
AutoCAD 2000
 90
        0
280
     0
281
     0
  0
CLASS
  1
SPATIAL_INDEX
  2
AcDbSpatialIndex
  3
AutoCAD 2000
 90
        0
280
     0
281
     0
  0
CLASS
  1
OBJECT_PTR
  2
CAseDLPNTableRecord
  3
"ASE-LPNTableRecord"
 90
        1
280
     0
281
     0
  0
CLASS
  1
LAYOUT
  2
AcDbLayout
  3
AutoCAD 2000
 90
        0
280
     0
281
     0
  0
CLASS
  1
PLOTSETTINGS
  2
AcDbPlotSettings
  3
AutoCAD 2000
 90
        0
280
     0
281
     0
  0
CLASS
  1
ACDBDICTIONARYWDFLT
  2
AcDbDictionaryWithDefault
  3
AutoCAD 2000
 90
        0
280
     0
281
     0
  0
CLASS
  1
ACDBPLACEHOLDER
  2
AcDbPlaceHolder
  3
AutoCAD 2000
 90
        0
280
     0
281
     0
  0
CLASS
  1
VBA_PROJECT
  2
AcDbVbaProject
  3
acadvba
 90
        0
280
     0
281
     0
  0
CLASS
  1
WIPEOUT
  2
AcDbWipeout
  3
WipeOut|AutoCAD Express Tool|expresstools@autodesk.com
 90
      127
280
     0
281
     1
  0
CLASS
  1
WIPEOUTVARIABLES
  2
AcDbWipeoutVariables
  3
WipeOut|AutoCAD Express Tool|expresstools@autodesk.com
 90
        0
280
     0
281
     0
  0
CLASS
  1
RTEXT
  2
RText
  3
RText|AutoCAD Express Tool|expresstools@autodesk.com
 90
        0
280
     0
281
     1
  0
CLASS
  1
ARCALIGNEDTEXT
  2
AcDbArcAlignedText
  3
ATEXT|AutoCAD Express Tool|expresstools@autodesk.com
 90
        0
280
     0
281
     1
  0
ENDSEC
  0
SECTION
  2
TABLES
  0
TABLE
  2
VPORT
  5
1094
100
AcDbSymbolTable
 70
     1
  0
VPORT
  5
10BB
100
AcDbSymbolTableRecord
100
AcDbViewportTableRecord
  2
*ACTIVE
 70
     0
 10
0.0
 20
0.0
 11
1.0
 21
1.0
 12
450.328833
 22
266.374849
 13
0.0
 23
0.0
 14
0.5
 24
0.5
 15
0.5
 25
0.5
 16
0.0
 26
0.0
 36
1.0
 17
0.0
 27
0.0
 37
0.0
 40
620.078606
 41
1.701534
 42
50.0
 43
0.0
 44
0.0
 50
0.0
 51
0.0
 71
    16
 72
  1000
 73
     1
 74
     3
 75
     0
 76
     0
 77
     0
 78
     0
281
     0
 65
     0
110
0.0
120
0.0
130
0.0
111
1.0
121
0.0
131
0.0
112
0.0
122
1.0
132
0.0
345
0
346
0
 79
     0
146
0.0
  0
ENDTAB
  0
TABLE
  2
LTYPE
  5
1091
100
AcDbSymbolTable
 70
     6
  0
LTYPE
  5
109A
100
AcDbSymbolTableRecord
100
AcDbLinetypeTableRecord
  2
ByBlock
 70
    64
  3

 72
    65
 73
     0
 40
0.0
  0
LTYPE
  5
109B
100
AcDbSymbolTableRecord
100
AcDbLinetypeTableRecord
  2
ByLayer
 70
    64
  3

 72
    65
 73
     0
 40
0.0
  0
LTYPE
  5
109C
100
AcDbSymbolTableRecord
100
AcDbLinetypeTableRecord
  2
CONTINUOUS
 70
     0
  3
Solid line
 72
    65
 73
     0
 40
0.0
  0
LTYPE
  5
109D
100
AcDbSymbolTableRecord
100
AcDbLinetypeTableRecord
  2
CENTER
 70
     0
  3
____ _ ____ _ ____ _ ____ _ ____ _ ____ _ ____
 72
    65
 73
     4
 40
0.6
 49
0.375
 74
     0
 49
-0.075
 74
     0
 49
0.075
 74
     0
 49
-0.075
 74
     0
  0
LTYPE
  5
109E
100
AcDbSymbolTableRecord
100
AcDbLinetypeTableRecord
  2
ACAD_ISO02W100
 70
     0
  3
ISO Strichlinie __ __ __ __ __ __ __ __ __ __ _
 72
    65
 73
     2
 40
15.0
 49
12.0
 74
     0
 49
-3.0
 74
     0
  0
LTYPE
  5
109F
100
AcDbSymbolTableRecord
100
AcDbLinetypeTableRecord
  2
DASHED
 70
     0
  3
_ _ _ _ _ _ _ _ _ _ _ _ _ _ _ _ _ _ _ _ _ _ _ _
 72
    65
 73
     2
 40
0.375
 49
0.25
 74
     0
 49
-0.125
 74
     0
  0
ENDTAB
  0
TABLE
  2
LAYER
  5
108F
100
AcDbSymbolTable
 70
     8
  0
LAYER
  5
10A0
100
AcDbSymbolTableRecord
100
AcDbLayerTableRecord
  2
0
 70
     0
 62
     7
  6
CONTINUOUS
290
     1
370
    -3
390
0
  0
LAYER
  5
10A1
100
AcDbSymbolTableRecord
100
AcDbLayerTableRecord
  2
90000_FRAME
 70
     0
 62
     7
  6
CONTINUOUS
290
     1
370
    -3
390
0
  0
LAYER
  5
10A2
100
AcDbSymbolTableRecord
100
AcDbLayerTableRecord
  2
91000_TIP
 70
     0
 62
     7
  6
CONTINUOUS
290
     1
370
    -3
390
0
  0
LAYER
  5
10A3
100
AcDbSymbolTableRecord
100
AcDbLayerTableRecord
  2
10000_FRONT
 70
     0
 62
     7
  6
CONTINUOUS
290
     1
370
    -3
390
0
  0
LAYER
  5
10A4
100
AcDbSymbolTableRecord
100
AcDbLayerTableRecord
  2
11000_LEFT
 70
     0
 62
     7
  6
CONTINUOUS
290
     1
370
    -3
390
0
  0
LAYER
  5
10A7
100
AcDbSymbolTableRecord
100
AcDbLayerTableRecord
  2
DEFPOINTS
 70
     0
 62
     7
  6
CONTINUOUS
290
     0
370
    -3
390
0
  0
LAYER
  5
10A8
100
AcDbSymbolTableRecord
100
AcDbLayerTableRecord
  2
10100_FRONT_DIM
 70
     0
 62
     7
  6
CONTINUOUS
290
     1
370
    -3
390
0
  0
LAYER
  5
10A9
100
AcDbSymbolTableRecord
100
AcDbLayerTableRecord
  2
11100_LEFT_DIM
 70
     0
 62
     7
  6
CONTINUOUS
290
     1
370
    -3
390
0
  0
ENDTAB
  0
TABLE
  2
STYLE
  5
1090
100
AcDbSymbolTable
 70
     1
  0
STYLE
  5
10C0
100
AcDbSymbolTableRecord
100
AcDbTextStyleTableRecord
  2
STANDARD
 70
     0
 40
0.0
 41
1.0
 50
0.0
 71
     0
 42
0.2
  3
txt.shx
  4

  0
ENDTAB
  0
TABLE
  2
VIEW
  5
1092
100
AcDbSymbolTable
 70
     0
  0
ENDTAB
  0
TABLE
  2
UCS
  5
1093
100
AcDbSymbolTable
 70
     0
  0
ENDTAB
  0
TABLE
  2
APPID
  5
1095
100
AcDbSymbolTable
 70
     4
  0
APPID
  5
10BC
100
AcDbSymbolTableRecord
100
AcDbRegAppTableRecord
  2
ACAD
 70
     0
  0
APPID
  5
10BD
100
AcDbSymbolTableRecord
100
AcDbRegAppTableRecord
  2
AUSTER_ANSICHT
 70
     0
  0
APPID
  5
10BE
100
AcDbSymbolTableRecord
100
AcDbRegAppTableRecord
  2
AUSTER_FOLIE
 70
     0
  0
APPID
  5
10BF
100
AcDbSymbolTableRecord
100
AcDbRegAppTableRecord
  2
ACAECLAYERSTANDARD
 70
     0
  0
ENDTAB
  0
TABLE
  2
DIMSTYLE
  5
1096
100
AcDbSymbolTable
 70
     3
100
AcDbDimStyleTable
 71
     0
  0
DIMSTYLE
105
10CA
100
AcDbSymbolTableRecord
100
AcDbDimStyleTableRecord
  2
STANDARD
 70
     0
  3

  4

 40
1.0
 41
0.18
 42
0.0625
 43
0.38
 44
0.18
 45
0.0
 46
0.0
 47
0.0
 48
0.0
 71
     0
 72
     0
 73
     1
 74
     1
 75
     0
 76
     0
 77
     0
 78
     0
 79
     0
140
0.18
141
0.09
142
0.0
143
25.4
144
1.0
145
0.0
146
1.0
147
0.09
148
0.0
170
     0
171
     2
172
     0
173
     0
174
     0
175
     0
176
     0
177
     0
178
     0
179
     0
271
     4
272
     4
273
     2
274
     2
275
     0
276
     0
277
     2
278
    46
279
     0
280
     0
281
     0
282
     0
283
     1
284
     0
285
     0
286
     0
288
     0
289
     3
340
10C0
341
0
342
0
343
0
344
0
371
    -2
372
    -2
  0
DIMSTYLE
105
10CB
100
AcDbSymbolTableRecord
100
AcDbDimStyleTableRecord
  2
DSTYLE1
 70
     0
  3

  4

 40
1.0
 41
3.0
 42
0.0
 43
0.38
 44
1.0
 45
0.0
 46
0.0
 47
0.0
 48
0.0
 71
     0
 72
     0
 73
     0
 74
     0
 75
     0
 76
     0
 77
     1
 78
     3
 79
     0
140
2.5
141
0.09
142
0.0
143
0.03937
144
1.0
145
0.0
146
1.0
147
1.0
148
0.0
170
     0
171
     2
172
     0
173
     0
174
     0
175
     0
176
     0
177
     0
178
     0
179
     0
271
     4
272
     4
273
     2
274
     2
275
     0
276
     0
277
     2
278
    46
279
     0
280
     0
281
     0
282
     0
283
     1
284
     0
285
     0
286
     0
288
     0
289
     3
340
10C0
341
0
342
0
343
0
344
0
371
    -2
372
    -2
  0
DIMSTYLE
105
10CC
100
AcDbSymbolTableRecord
100
AcDbDimStyleTableRecord
  2
H035
 70
     0
  3

  4

 40
0.0
 41
3.5
 42
0.0
 43
3.75
 44
2.0
 45
0.0
 46
0.0
 47
0.0
 48
0.0
 71
     0
 72
     0
 73
     0
 74
     0
 75
     0
 76
     0
 77
     1
 78
     8
 79
     0
140
3.5
141
2.5
142
0.0
143
0.039
144
1.0
145
0.0
146
1.0
147
0.5
148
0.0
170
     0
171
     4
172
     1
173
     0
174
     0
175
     0
176
   256
177
     7
178
     7
179
     0
271
     4
272
     4
273
     2
274
     2
275
     0
276
     0
277
     2
278
    46
279
     0
280
     0
281
     0
282
     0
283
     1
284
     0
285
     0
286
     0
288
     0
289
     3
340
10C0
341
0
342
0
343
0
344
0
371
    -2
372
    -2
  0
ENDTAB
  0
TABLE
  2
BLOCK_RECORD
  5
10C5
100
AcDbSymbolTable
 70
     2
  0
BLOCK_RECORD
  5
10C3
100
AcDbSymbolTableRecord
100
AcDbBlockTableRecord
  2
*Model_Space
340
0
  0
BLOCK_RECORD
  5
10C4
100
AcDbSymbolTableRecord
100
AcDbBlockTableRecord
  2
*Paper_Space
340
0
  0
BLOCK_RECORD
  5
10C1
100
AcDbSymbolTableRecord
100
AcDbBlockTableRecord
  2
$MODEL_SPACE
340
0
  0
BLOCK_RECORD
  5
10C2
100
AcDbSymbolTableRecord
100
AcDbBlockTableRecord
  2
$PAPER_SPACE
340
0
  0
ENDTAB
  0
ENDSEC
  0
SECTION
  2
BLOCKS
  0
BLOCK
  5
10C6
100
AcDbEntity
  8
0
390
0
100
AcDbBlockBegin
  2
*Model_Space
 70
     0
 10
0.0
 20
0.0
 30
0.0
  3
*Model_Space
  1

  0
ENDBLK
  5
10C7
100
AcDbEntity
  8
0
390
0
100
AcDbBlockEnd
  0
BLOCK
  5
10C8
100
AcDbEntity
 67
     1
  8
0
390
0
100
AcDbBlockBegin
  2
*Paper_Space
 70
     0
 10
0.0
 20
0.0
 30
0.0
  3
*Paper_Space
  1

  0
ENDBLK
  5
10C9
100
AcDbEntity
 67
     1
  8
0
390
0
100
AcDbBlockEnd
  0
BLOCK
  5
10CD
100
AcDbEntity
  8
0
100
AcDbBlockBegin
  2
$MODEL_SPACE
 70
     0
 10
0.0
 20
0.0
 30
0.0
  3
$MODEL_SPACE
  1

  0
ENDBLK
  5
21
100
AcDbEntity
  8
0
100
AcDbBlockEnd
  0
BLOCK
  5
10CE
100
AcDbEntity
  8
0
100
AcDbBlockBegin
  2
$PAPER_SPACE
 70
     0
 10
0.0
 20
0.0
 30
0.0
  3
$PAPER_SPACE
  1

  0
ENDBLK
  5
76
100
AcDbEntity
  8
0
100
AcDbBlockEnd
  0
ENDSEC
  0
SECTION
  2
ENTITIES
  0
LINE
  5
10D4
100
AcDbEntity
  8
10000_FRONT
370
    25
390
0
  6
CONTINUOUS
 62
     7
100
AcDbLine
 10
65.725104
 20
122.115393
 30
0.0
 11
65.725
 21
122.131456
 31
0.0
  0
LINE
  5
10D5
100
AcDbEntity
  8
10000_FRONT
370
    25
390
0
  6
CONTINUOUS
 62
     7
100
AcDbLine
 10
65.725104
 20
136.115393
 30
0.0
 11
65.725
 21
136.131456
 31
0.0
  0
LINE
  5
10D6
100
AcDbEntity
  8
10000_FRONT
370
    25
390
0
  6
CONTINUOUS
 62
     7
100
AcDbLine
 10
65.725104
 20
166.115393
 30
0.0
 11
65.725
 21
166.131456
 31
0.0
  0
LINE
  5
10D7
100
AcDbEntity
  8
10000_FRONT
370
    25
390
0
  6
CONTINUOUS
 62
     7
100
AcDbLine
 10
65.725104
 20
180.115393
 30
0.0
 11
65.725
 21
180.131456
 31
0.0
  0
LINE
  5
10D8
100
AcDbEntity
  8
10000_FRONT
370
    25
390
0
  6
CONTINUOUS
 62
     7
100
AcDbLine
 10
67.165
 20
140.916692
 30
0.0
 11
67.164895
 21
140.932545
 31
0.0
  0
LINE
  5
10D9
100
AcDbEntity
  8
10000_FRONT
370
    25
390
0
  6
CONTINUOUS
 62
     7
100
AcDbLine
 10
67.165
 20
126.916693
 30
0.0
 11
67.164895
 21
126.932545
 31
0.0
  0
LINE
  5
10DA
100
AcDbEntity
  8
10000_FRONT
370
    25
390
0
  6
CONTINUOUS
 62
     7
100
AcDbLine
 10
67.165
 20
170.916693
 30
0.0
 11
67.164895
 21
170.932545
 31
0.0
  0
LINE
  5
10DB
100
AcDbEntity
  8
10000_FRONT
370
    25
390
0
  6
CONTINUOUS
 62
     7
100
AcDbLine
 10
67.165
 20
184.916693
 30
0.0
 11
67.164895
 21
184.932545
 31
0.0
  0
LINE
  5
10DC
100
AcDbEntity
  8
10000_FRONT
370
    25
390
0
  6
CONTINUOUS
 62
     7
100
AcDbLine
 10
65.725404
 20
166.098748
 30
0.0
 11
65.725104
 21
166.115393
 31
0.0
  0
LINE
  5
10DD
100
AcDbEntity
  8
10000_FRONT
370
    25
390
0
  6
CONTINUOUS
 62
     7
100
AcDbLine
 10
65.725404
 20
122.098749
 30
0.0
 11
65.725104
 21
122.115393
 31
0.0
  0
LINE
  5
10DE
100
AcDbEntity
  8
10000_FRONT
370
    25
390
0
  6
CONTINUOUS
 62
     7
100
AcDbLine
 10
65.725404
 20
136.098749
 30
0.0
 11
65.725104
 21
136.115393
 31
0.0
  0
LINE
  5
10DF
100
AcDbEntity
  8
10000_FRONT
370
    25
390
0
  6
CONTINUOUS
 62
     7
100
AcDbLine
 10
65.725404
 20
180.098749
 30
0.0
 11
65.725104
 21
180.115393
 31
0.0
  0
LINE
  5
10E0
100
AcDbEntity
  8
10000_FRONT
370
    25
390
0
  6
CONTINUOUS
 62
     7
100
AcDbLine
 10
67.164895
 20
140.932545
 30
0.0
 11
67.164591
 21
140.948966
 31
0.0
  0
LINE
  5
10E1
100
AcDbEntity
  8
10000_FRONT
370
    25
390
0
  6
CONTINUOUS
 62
     7
100
AcDbLine
 10
67.164895
 20
126.932545
 30
0.0
 11
67.164591
 21
126.948965
 31
0.0
  0
LINE
  5
10E2
100
AcDbEntity
  8
10000_FRONT
370
    25
390
0
  6
CONTINUOUS
 62
     7
100
AcDbLine
 10
67.164895
 20
170.932545
 30
0.0
 11
67.164591
 21
170.948965
 31
0.0
  0
LINE
  5
10E3
100
AcDbEntity
  8
10000_FRONT
370
    25
390
0
  6
CONTINUOUS
 62
     7
100
AcDbLine
 10
67.164895
 20
184.932545
 30
0.0
 11
67.164591
 21
184.948965
 31
0.0
  0
LINE
  5
10E4
100
AcDbEntity
  8
10000_FRONT
370
    25
390
0
  6
CONTINUOUS
 62
     7
100
AcDbLine
 10
65.725885
 20
122.082041
 30
0.0
 11
65.725404
 21
122.098749
 31
0.0
  0
LINE
  5
10E5
100
AcDbEntity
  8
10000_FRONT
370
    25
390
0
  6
CONTINUOUS
 62
     7
100
AcDbLine
 10
65.725885
 20
136.082041
 30
0.0
 11
65.725404
 21
136.098749
 31
0.0
  0
LINE
  5
10E6
100
AcDbEntity
  8
10000_FRONT
370
    25
390
0
  6
CONTINUOUS
 62
     7
100
AcDbLine
 10
65.725885
 20
180.082041
 30
0.0
 11
65.725404
 21
180.098749
 31
0.0
  0
LINE
  5
10E7
100
AcDbEntity
  8
10000_FRONT
370
    25
390
0
  6
CONTINUOUS
 62
     7
100
AcDbLine
 10
65.725885
 20
166.082041
 30
0.0
 11
65.725404
 21
166.098748
 31
0.0
  0
LINE
  5
10E8
100
AcDbEntity
  8
10000_FRONT
370
    25
390
0
  6
CONTINUOUS
 62
     7
100
AcDbLine
 10
67.164591
 20
126.948965
 30
0.0
 11
67.164103
 21
126.965431
 31
0.0
  0
LINE
  5
10E9
100
AcDbEntity
  8
10000_FRONT
370
    25
390
0
  6
CONTINUOUS
 62
     7
100
AcDbLine
 10
67.164591
 20
140.948966
 30
0.0
 11
67.164103
 21
140.965432
 31
0.0
  0
LINE
  5
10EA
100
AcDbEntity
  8
10000_FRONT
370
    25
390
0
  6
CONTINUOUS
 62
     7
100
AcDbLine
 10
67.164591
 20
170.948965
 30
0.0
 11
67.164103
 21
170.965431
 31
0.0
  0
LINE
  5
10EB
100
AcDbEntity
  8
10000_FRONT
370
    25
390
0
  6
CONTINUOUS
 62
     7
100
AcDbLine
 10
67.164591
 20
184.948965
 30
0.0
 11
67.164103
 21
184.965431
 31
0.0
  0
LINE
  5
10EC
100
AcDbEntity
  8
10000_FRONT
370
    25
390
0
  6
CONTINUOUS
 62
     7
100
AcDbLine
 10
65.726531
 20
122.065784
 30
0.0
 11
65.725885
 21
122.082041
 31
0.0
  0
LINE
  5
10ED
100
AcDbEntity
  8
10000_FRONT
370
    25
390
0
  6
CONTINUOUS
 62
     7
100
AcDbLine
 10
65.726531
 20
136.065784
 30
0.0
 11
65.725885
 21
136.082041
 31
0.0
  0
LINE
  5
10EE
100
AcDbEntity
  8
10000_FRONT
370
    25
390
0
  6
CONTINUOUS
 62
     7
100
AcDbLine
 10
65.726531
 20
166.065784
 30
0.0
 11
65.725885
 21
166.082041
 31
0.0
  0
LINE
  5
10EF
100
AcDbEntity
  8
10000_FRONT
370
    25
390
0
  6
CONTINUOUS
 62
     7
100
AcDbLine
 10
65.726531
 20
180.065784
 30
0.0
 11
65.725885
 21
180.082041
 31
0.0
  0
LINE
  5
10F0
100
AcDbEntity
  8
10000_FRONT
370
    25
390
0
  6
CONTINUOUS
 62
     7
100
AcDbLine
 10
67.164103
 20
126.965431
 30
0.0
 11
67.16345
 21
126.981421
 31
0.0
  0
LINE
  5
10F1
100
AcDbEntity
  8
10000_FRONT
370
    25
390
0
  6
CONTINUOUS
 62
     7
100
AcDbLine
 10
67.164103
 20
170.965431
 30
0.0
 11
67.16345
 21
170.981421
 31
0.0
  0
LINE
  5
10F2
100
AcDbEntity
  8
10000_FRONT
370
    25
390
0
  6
CONTINUOUS
 62
     7
100
AcDbLine
 10
67.164103
 20
184.965431
 30
0.0
 11
67.16345
 21
184.981421
 31
0.0
  0
LINE
  5
10F3
100
AcDbEntity
  8
10000_FRONT
370
    25
390
0
  6
CONTINUOUS
 62
     7
100
AcDbLine
 10
67.164103
 20
140.965432
 30
0.0
 11
67.16345
 21
140.981421
 31
0.0
  0
LINE
  5
10F4
100
AcDbEntity
  8
10000_FRONT
370
    25
390
0
  6
CONTINUOUS
 62
     7
100
AcDbLine
 10
65.727326
 20
122.050493
 30
0.0
 11
65.726531
 21
122.065784
 31
0.0
  0
LINE
  5
10F5
100
AcDbEntity
  8
10000_FRONT
370
    25
390
0
  6
CONTINUOUS
 62
     7
100
AcDbLine
 10
65.727326
 20
136.050493
 30
0.0
 11
65.726531
 21
136.065784
 31
0.0
  0
LINE
  5
10F6
100
AcDbEntity
  8
10000_FRONT
370
    25
390
0
  6
CONTINUOUS
 62
     7
100
AcDbLine
 10
65.727326
 20
166.050493
 30
0.0
 11
65.726531
 21
166.065784
 31
0.0
  0
LINE
  5
10F7
100
AcDbEntity
  8
10000_FRONT
370
    25
390
0
  6
CONTINUOUS
 62
     7
100
AcDbLine
 10
65.727326
 20
180.050493
 30
0.0
 11
65.726531
 21
180.065784
 31
0.0
  0
LINE
  5
10F8
100
AcDbEntity
  8
10000_FRONT
370
    25
390
0
  6
CONTINUOUS
 62
     7
100
AcDbLine
 10
67.16345
 20
126.981421
 30
0.0
 11
67.162646
 21
126.996408
 31
0.0
  0
LINE
  5
10F9
100
AcDbEntity
  8
10000_FRONT
370
    25
390
0
  6
CONTINUOUS
 62
     7
100
AcDbLine
 10
67.16345
 20
140.981421
 30
0.0
 11
67.162646
 21
140.996408
 31
0.0
  0
LINE
  5
10FA
100
AcDbEntity
  8
10000_FRONT
370
    25
390
0
  6
CONTINUOUS
 62
     7
100
AcDbLine
 10
67.16345
 20
170.981421
 30
0.0
 11
67.162646
 21
170.996408
 31
0.0
  0
LINE
  5
10FB
100
AcDbEntity
  8
10000_FRONT
370
    25
390
0
  6
CONTINUOUS
 62
     7
100
AcDbLine
 10
67.16345
 20
184.981421
 30
0.0
 11
67.162646
 21
184.996408
 31
0.0
  0
LINE
  5
10FC
100
AcDbEntity
  8
10000_FRONT
370
    25
390
0
  6
CONTINUOUS
 62
     7
100
AcDbLine
 10
61.523492
 20
187.099998
 30
0.0
 11
61.497527
 21
187.572567
 31
0.0
  0
LINE
  5
10FD
100
AcDbEntity
  8
10000_FRONT
370
    25
390
0
  6
CONTINUOUS
 62
     7
100
AcDbLine
 10
61.858655
 20
181.000019
 30
0.0
 11
61.523492
 21
187.099998
 31
0.0
  0
LINE
  5
10FE
100
AcDbEntity
  8
10000_FRONT
370
    25
390
0
  6
CONTINUOUS
 62
     7
100
AcDbLine
 10
62.711432
 20
183.706938
 30
0.0
 11
62.525
 21
187.099998
 31
0.0
  0
LINE
  5
10FF
100
AcDbEntity
  8
10000_FRONT
370
    25
390
0
  6
CONTINUOUS
 62
     7
100
AcDbLine
 10
63.009421
 20
178.283541
 30
0.0
 11
62.86662
 21
180.882515
 31
0.0
  0
LINE
  5
1100
100
AcDbEntity
  8
10000_FRONT
370
    25
390
0
  6
CONTINUOUS
 62
     7
100
AcDbLine
 10
65.728303
 20
166.035813
 30
0.0
 11
65.727326
 21
166.050493
 31
0.0
  0
LINE
  5
1101
100
AcDbEntity
  8
10000_FRONT
370
    25
390
0
  6
CONTINUOUS
 62
     7
100
AcDbLine
 10
65.728303
 20
122.035814
 30
0.0
 11
65.727326
 21
122.050493
 31
0.0
  0
LINE
  5
1102
100
AcDbEntity
  8
10000_FRONT
370
    25
390
0
  6
CONTINUOUS
 62
     7
100
AcDbLine
 10
65.728303
 20
136.035814
 30
0.0
 11
65.727326
 21
136.050493
 31
0.0
  0
LINE
  5
1103
100
AcDbEntity
  8
10000_FRONT
370
    25
390
0
  6
CONTINUOUS
 62
     7
100
AcDbLine
 10
65.728303
 20
180.035814
 30
0.0
 11
65.727326
 21
180.050493
 31
0.0
  0
LINE
  5
1104
100
AcDbEntity
  8
10000_FRONT
370
    25
390
0
  6
CONTINUOUS
 62
     7
100
AcDbLine
 10
67.162646
 20
126.996408
 30
0.0
 11
67.161653
 21
127.010866
 31
0.0
  0
LINE
  5
1105
100
AcDbEntity
  8
10000_FRONT
370
    25
390
0
  6
CONTINUOUS
 62
     7
100
AcDbLine
 10
67.162646
 20
170.996408
 30
0.0
 11
67.161653
 21
171.010866
 31
0.0
  0
LINE
  5
1106
100
AcDbEntity
  8
10000_FRONT
370
    25
390
0
  6
CONTINUOUS
 62
     7
100
AcDbLine
 10
67.162646
 20
184.996408
 30
0.0
 11
67.161653
 21
185.010866
 31
0.0
  0
LINE
  5
1107
100
AcDbEntity
  8
10000_FRONT
370
    25
390
0
  6
CONTINUOUS
 62
     7
100
AcDbLine
 10
67.162646
 20
140.996408
 30
0.0
 11
67.161653
 21
141.010865
 31
0.0
  0
LINE
  5
1108
100
AcDbEntity
  8
10000_FRONT
370
    25
390
0
  6
CONTINUOUS
 62
     7
100
AcDbLine
 10
65.729496
 20
122.021029
 30
0.0
 11
65.728303
 21
122.035814
 31
0.0
  0
LINE
  5
1109
100
AcDbEntity
  8
10000_FRONT
370
    25
390
0
  6
CONTINUOUS
 62
     7
100
AcDbLine
 10
65.729496
 20
136.021029
 30
0.0
 11
65.728303
 21
136.035814
 31
0.0
  0
LINE
  5
110A
100
AcDbEntity
  8
10000_FRONT
370
    25
390
0
  6
CONTINUOUS
 62
     7
100
AcDbLine
 10
65.729496
 20
180.021029
 30
0.0
 11
65.728303
 21
180.035814
 31
0.0
  0
LINE
  5
110B
100
AcDbEntity
  8
10000_FRONT
370
    25
390
0
  6
CONTINUOUS
 62
     7
100
AcDbLine
 10
65.729496
 20
166.021029
 30
0.0
 11
65.728303
 21
166.035813
 31
0.0
  0
LINE
  5
110C
100
AcDbEntity
  8
10000_FRONT
370
    25
390
0
  6
CONTINUOUS
 62
     7
100
AcDbLine
 10
67.161653
 20
141.010865
 30
0.0
 11
67.160444
 21
141.025382
 31
0.0
  0
LINE
  5
110D
100
AcDbEntity
  8
10000_FRONT
370
    25
390
0
  6
CONTINUOUS
 62
     7
100
AcDbLine
 10
67.161653
 20
127.010866
 30
0.0
 11
67.160444
 21
127.025381
 31
0.0
  0
LINE
  5
110E
100
AcDbEntity
  8
10000_FRONT
370
    25
390
0
  6
CONTINUOUS
 62
     7
100
AcDbLine
 10
67.161653
 20
171.010866
 30
0.0
 11
67.160444
 21
171.025381
 31
0.0
  0
LINE
  5
110F
100
AcDbEntity
  8
10000_FRONT
370
    25
390
0
  6
CONTINUOUS
 62
     7
100
AcDbLine
 10
67.161653
 20
185.010866
 30
0.0
 11
67.160444
 21
185.025381
 31
0.0
  0
LINE
  5
1110
100
AcDbEntity
  8
10000_FRONT
370
    25
390
0
  6
CONTINUOUS
 62
     7
100
AcDbLine
 10
65.730864
 20
122.00658
 30
0.0
 11
65.729496
 21
122.021029
 31
0.0
  0
LINE
  5
1111
100
AcDbEntity
  8
10000_FRONT
370
    25
390
0
  6
CONTINUOUS
 62
     7
100
AcDbLine
 10
65.730864
 20
136.00658
 30
0.0
 11
65.729496
 21
136.021029
 31
0.0
  0
LINE
  5
1112
100
AcDbEntity
  8
10000_FRONT
370
    25
390
0
  6
CONTINUOUS
 62
     7
100
AcDbLine
 10
65.730864
 20
166.00658
 30
0.0
 11
65.729496
 21
166.021029
 31
0.0
  0
LINE
  5
1113
100
AcDbEntity
  8
10000_FRONT
370
    25
390
0
  6
CONTINUOUS
 62
     7
100
AcDbLine
 10
65.730864
 20
180.00658
 30
0.0
 11
65.729496
 21
180.021029
 31
0.0
  0
LINE
  5
1114
100
AcDbEntity
  8
10000_FRONT
370
    25
390
0
  6
CONTINUOUS
 62
     7
100
AcDbLine
 10
67.160444
 20
127.025381
 30
0.0
 11
67.159065
 21
127.039515
 31
0.0
  0
LINE
  5
1115
100
AcDbEntity
  8
10000_FRONT
370
    25
390
0
  6
CONTINUOUS
 62
     7
100
AcDbLine
 10
67.160444
 20
171.025381
 30
0.0
 11
67.159065
 21
171.039515
 31
0.0
  0
LINE
  5
1116
100
AcDbEntity
  8
10000_FRONT
370
    25
390
0
  6
CONTINUOUS
 62
     7
100
AcDbLine
 10
67.160444
 20
185.025381
 30
0.0
 11
67.159065
 21
185.039515
 31
0.0
  0
LINE
  5
1117
100
AcDbEntity
  8
10000_FRONT
370
    25
390
0
  6
CONTINUOUS
 62
     7
100
AcDbLine
 10
67.160444
 20
141.025382
 30
0.0
 11
67.159065
 21
141.039514
 31
0.0
  0
LINE
  5
1118
100
AcDbEntity
  8
10000_FRONT
370
    25
390
0
  6
CONTINUOUS
 62
     7
100
AcDbLine
 10
65.732365
 20
121.992916
 30
0.0
 11
65.730864
 21
122.00658
 31
0.0
  0
LINE
  5
1119
100
AcDbEntity
  8
10000_FRONT
370
    25
390
0
  6
CONTINUOUS
 62
     7
100
AcDbLine
 10
65.732365
 20
135.992916
 30
0.0
 11
65.730864
 21
136.00658
 31
0.0
  0
LINE
  5
111A
100
AcDbEntity
  8
10000_FRONT
370
    25
390
0
  6
CONTINUOUS
 62
     7
100
AcDbLine
 10
65.732365
 20
165.992916
 30
0.0
 11
65.730864
 21
166.00658
 31
0.0
  0
LINE
  5
111B
100
AcDbEntity
  8
10000_FRONT
370
    25
390
0
  6
CONTINUOUS
 62
     7
100
AcDbLine
 10
65.732365
 20
179.992916
 30
0.0
 11
65.730864
 21
180.00658
 31
0.0
  0
LINE
  5
111C
100
AcDbEntity
  8
10000_FRONT
370
    25
390
0
  6
CONTINUOUS
 62
     7
100
AcDbLine
 10
67.159065
 20
141.039514
 30
0.0
 11
67.157556
 21
141.052816
 31
0.0
  0
LINE
  5
111D
100
AcDbEntity
  8
10000_FRONT
370
    25
390
0
  6
CONTINUOUS
 62
     7
100
AcDbLine
 10
67.159065
 20
127.039515
 30
0.0
 11
67.157556
 21
127.052816
 31
0.0
  0
LINE
  5
111E
100
AcDbEntity
  8
10000_FRONT
370
    25
390
0
  6
CONTINUOUS
 62
     7
100
AcDbLine
 10
67.159065
 20
171.039515
 30
0.0
 11
67.157556
 21
171.052816
 31
0.0
  0
LINE
  5
111F
100
AcDbEntity
  8
10000_FRONT
370
    25
390
0
  6
CONTINUOUS
 62
     7
100
AcDbLine
 10
67.159065
 20
185.039515
 30
0.0
 11
67.157556
 21
185.052816
 31
0.0
  0
LINE
  5
1120
100
AcDbEntity
  8
10000_FRONT
370
    25
390
0
  6
CONTINUOUS
 62
     7
100
AcDbLine
 10
65.733955
 20
121.980484
 30
0.0
 11
65.732365
 21
121.992916
 31
0.0
  0
LINE
  5
1121
100
AcDbEntity
  8
10000_FRONT
370
    25
390
0
  6
CONTINUOUS
 62
     7
100
AcDbLine
 10
65.733955
 20
135.980484
 30
0.0
 11
65.732365
 21
135.992916
 31
0.0
  0
LINE
  5
1122
100
AcDbEntity
  8
10000_FRONT
370
    25
390
0
  6
CONTINUOUS
 62
     7
100
AcDbLine
 10
65.733955
 20
165.980484
 30
0.0
 11
65.732365
 21
165.992916
 31
0.0
  0
LINE
  5
1123
100
AcDbEntity
  8
10000_FRONT
370
    25
390
0
  6
CONTINUOUS
 62
     7
100
AcDbLine
 10
65.733955
 20
179.980484
 30
0.0
 11
65.732365
 21
179.992916
 31
0.0
  0
LINE
  5
1124
100
AcDbEntity
  8
10000_FRONT
370
    25
390
0
  6
CONTINUOUS
 62
     7
100
AcDbLine
 10
67.157556
 20
141.052816
 30
0.0
 11
67.155963
 21
141.064845
 31
0.0
  0
LINE
  5
1125
100
AcDbEntity
  8
10000_FRONT
370
    25
390
0
  6
CONTINUOUS
 62
     7
100
AcDbLine
 10
67.157556
 20
127.052816
 30
0.0
 11
67.155963
 21
127.064844
 31
0.0
  0
LINE
  5
1126
100
AcDbEntity
  8
10000_FRONT
370
    25
390
0
  6
CONTINUOUS
 62
     7
100
AcDbLine
 10
67.157556
 20
171.052816
 30
0.0
 11
67.155963
 21
171.064844
 31
0.0
  0
LINE
  5
1127
100
AcDbEntity
  8
10000_FRONT
370
    25
390
0
  6
CONTINUOUS
 62
     7
100
AcDbLine
 10
67.157556
 20
185.052816
 30
0.0
 11
67.155963
 21
185.064844
 31
0.0
  0
LINE
  5
1128
100
AcDbEntity
  8
10000_FRONT
370
    25
390
0
  6
CONTINUOUS
 62
     7
100
AcDbLine
 10
65.735673
 20
165.969151
 30
0.0
 11
65.733955
 21
165.980484
 31
0.0
  0
LINE
  5
1129
100
AcDbEntity
  8
10000_FRONT
370
    25
390
0
  6
CONTINUOUS
 62
     7
100
AcDbLine
 10
65.735673
 20
121.969152
 30
0.0
 11
65.733955
 21
121.980484
 31
0.0
  0
LINE
  5
112A
100
AcDbEntity
  8
10000_FRONT
370
    25
390
0
  6
CONTINUOUS
 62
     7
100
AcDbLine
 10
65.735673
 20
135.969152
 30
0.0
 11
65.733955
 21
135.980484
 31
0.0
  0
LINE
  5
112B
100
AcDbEntity
  8
10000_FRONT
370
    25
390
0
  6
CONTINUOUS
 62
     7
100
AcDbLine
 10
65.735673
 20
179.969152
 30
0.0
 11
65.733955
 21
179.980484
 31
0.0
  0
LINE
  5
112C
100
AcDbEntity
  8
10000_FRONT
370
    25
390
0
  6
CONTINUOUS
 62
     7
100
AcDbLine
 10
67.155963
 20
127.064844
 30
0.0
 11
67.15423
 21
127.075867
 31
0.0
  0
LINE
  5
112D
100
AcDbEntity
  8
10000_FRONT
370
    25
390
0
  6
CONTINUOUS
 62
     7
100
AcDbLine
 10
67.155963
 20
171.064844
 30
0.0
 11
67.15423
 21
171.075867
 31
0.0
  0
LINE
  5
112E
100
AcDbEntity
  8
10000_FRONT
370
    25
390
0
  6
CONTINUOUS
 62
     7
100
AcDbLine
 10
67.155963
 20
185.064844
 30
0.0
 11
67.15423
 21
185.075867
 31
0.0
  0
LINE
  5
112F
100
AcDbEntity
  8
10000_FRONT
370
    25
390
0
  6
CONTINUOUS
 62
     7
100
AcDbLine
 10
67.155963
 20
141.064845
 30
0.0
 11
67.15423
 21
141.075867
 31
0.0
  0
LINE
  5
1130
100
AcDbEntity
  8
10000_FRONT
370
    25
390
0
  6
CONTINUOUS
 62
     7
100
AcDbLine
 10
65.737605
 20
121.958258
 30
0.0
 11
65.735673
 21
121.969152
 31
0.0
  0
LINE
  5
1131
100
AcDbEntity
  8
10000_FRONT
370
    25
390
0
  6
CONTINUOUS
 62
     7
100
AcDbLine
 10
65.737605
 20
135.958258
 30
0.0
 11
65.735673
 21
135.969152
 31
0.0
  0
LINE
  5
1132
100
AcDbEntity
  8
10000_FRONT
370
    25
390
0
  6
CONTINUOUS
 62
     7
100
AcDbLine
 10
65.737605
 20
179.958258
 30
0.0
 11
65.735673
 21
179.969152
 31
0.0
  0
LINE
  5
1133
100
AcDbEntity
  8
10000_FRONT
370
    25
390
0
  6
CONTINUOUS
 62
     7
100
AcDbLine
 10
65.737605
 20
165.958258
 30
0.0
 11
65.735673
 21
165.969151
 31
0.0
  0
LINE
  5
1134
100
AcDbEntity
  8
10000_FRONT
370
    25
390
0
  6
CONTINUOUS
 62
     7
100
AcDbLine
 10
67.15423
 20
127.075867
 30
0.0
 11
67.152289
 21
127.08642
 31
0.0
  0
LINE
  5
1135
100
AcDbEntity
  8
10000_FRONT
370
    25
390
0
  6
CONTINUOUS
 62
     7
100
AcDbLine
 10
67.15423
 20
171.075867
 30
0.0
 11
67.152289
 21
171.08642
 31
0.0
  0
LINE
  5
1136
100
AcDbEntity
  8
10000_FRONT
370
    25
390
0
  6
CONTINUOUS
 62
     7
100
AcDbLine
 10
67.15423
 20
185.075867
 30
0.0
 11
67.152289
 21
185.08642
 31
0.0
  0
LINE
  5
1137
100
AcDbEntity
  8
10000_FRONT
370
    25
390
0
  6
CONTINUOUS
 62
     7
100
AcDbLine
 10
67.15423
 20
141.075867
 30
0.0
 11
67.152289
 21
141.086419
 31
0.0
  0
LINE
  5
1138
100
AcDbEntity
  8
10000_FRONT
370
    25
390
0
  6
CONTINUOUS
 62
     7
100
AcDbLine
 10
65.739688
 20
121.948118
 30
0.0
 11
65.737605
 21
121.958258
 31
0.0
  0
LINE
  5
1139
100
AcDbEntity
  8
10000_FRONT
370
    25
390
0
  6
CONTINUOUS
 62
     7
100
AcDbLine
 10
65.739688
 20
135.948118
 30
0.0
 11
65.737605
 21
135.958258
 31
0.0
  0
LINE
  5
113A
100
AcDbEntity
  8
10000_FRONT
370
    25
390
0
  6
CONTINUOUS
 62
     7
100
AcDbLine
 10
65.739688
 20
179.948118
 30
0.0
 11
65.737605
 21
179.958258
 31
0.0
  0
LINE
  5
113B
100
AcDbEntity
  8
10000_FRONT
370
    25
390
0
  6
CONTINUOUS
 62
     7
100
AcDbLine
 10
65.739688
 20
165.948119
 30
0.0
 11
65.737605
 21
165.958258
 31
0.0
  0
LINE
  5
113C
100
AcDbEntity
  8
10000_FRONT
370
    25
390
0
  6
CONTINUOUS
 62
     7
100
AcDbLine
 10
67.152289
 20
127.08642
 30
0.0
 11
67.150207
 21
127.096188
 31
0.0
  0
LINE
  5
113D
100
AcDbEntity
  8
10000_FRONT
370
    25
390
0
  6
CONTINUOUS
 62
     7
100
AcDbLine
 10
67.152289
 20
141.086419
 30
0.0
 11
67.150207
 21
141.096187
 31
0.0
  0
LINE
  5
113E
100
AcDbEntity
  8
10000_FRONT
370
    25
390
0
  6
CONTINUOUS
 62
     7
100
AcDbLine
 10
67.152289
 20
171.08642
 30
0.0
 11
67.150207
 21
171.096188
 31
0.0
  0
LINE
  5
113F
100
AcDbEntity
  8
10000_FRONT
370
    25
390
0
  6
CONTINUOUS
 62
     7
100
AcDbLine
 10
67.152289
 20
185.08642
 30
0.0
 11
67.150207
 21
185.096188
 31
0.0
  0
LINE
  5
1140
100
AcDbEntity
  8
10000_FRONT
370
    25
390
0
  6
CONTINUOUS
 62
     7
100
AcDbLine
 10
65.741853
 20
165.939071
 30
0.0
 11
65.739688
 21
165.948119
 31
0.0
  0
LINE
  5
1141
100
AcDbEntity
  8
10000_FRONT
370
    25
390
0
  6
CONTINUOUS
 62
     7
100
AcDbLine
 10
65.741853
 20
121.939072
 30
0.0
 11
65.739688
 21
121.948118
 31
0.0
  0
LINE
  5
1142
100
AcDbEntity
  8
10000_FRONT
370
    25
390
0
  6
CONTINUOUS
 62
     7
100
AcDbLine
 10
65.741853
 20
135.939072
 30
0.0
 11
65.739688
 21
135.948118
 31
0.0
  0
LINE
  5
1143
100
AcDbEntity
  8
10000_FRONT
370
    25
390
0
  6
CONTINUOUS
 62
     7
100
AcDbLine
 10
65.741853
 20
179.939072
 30
0.0
 11
65.739688
 21
179.948118
 31
0.0
  0
LINE
  5
1144
100
AcDbEntity
  8
10000_FRONT
370
    25
390
0
  6
CONTINUOUS
 62
     7
100
AcDbLine
 10
67.150207
 20
141.096187
 30
0.0
 11
67.148051
 21
141.104849
 31
0.0
  0
LINE
  5
1145
100
AcDbEntity
  8
10000_FRONT
370
    25
390
0
  6
CONTINUOUS
 62
     7
100
AcDbLine
 10
67.150207
 20
127.096188
 30
0.0
 11
67.148051
 21
127.104849
 31
0.0
  0
LINE
  5
1146
100
AcDbEntity
  8
10000_FRONT
370
    25
390
0
  6
CONTINUOUS
 62
     7
100
AcDbLine
 10
67.150207
 20
171.096188
 30
0.0
 11
67.148051
 21
171.104849
 31
0.0
  0
LINE
  5
1147
100
AcDbEntity
  8
10000_FRONT
370
    25
390
0
  6
CONTINUOUS
 62
     7
100
AcDbLine
 10
67.150207
 20
185.096188
 30
0.0
 11
67.148051
 21
185.104849
 31
0.0
  0
LINE
  5
1148
100
AcDbEntity
  8
10000_FRONT
370
    25
390
0
  6
CONTINUOUS
 62
     7
100
AcDbLine
 10
65.744035
 20
121.93145
 30
0.0
 11
65.741853
 21
121.939072
 31
0.0
  0
LINE
  5
1149
100
AcDbEntity
  8
10000_FRONT
370
    25
390
0
  6
CONTINUOUS
 62
     7
100
AcDbLine
 10
65.744035
 20
135.93145
 30
0.0
 11
65.741853
 21
135.939072
 31
0.0
  0
LINE
  5
114A
100
AcDbEntity
  8
10000_FRONT
370
    25
390
0
  6
CONTINUOUS
 62
     7
100
AcDbLine
 10
65.744035
 20
179.93145
 30
0.0
 11
65.741853
 21
179.939072
 31
0.0
  0
LINE
  5
114B
100
AcDbEntity
  8
10000_FRONT
370
    25
390
0
  6
CONTINUOUS
 62
     7
100
AcDbLine
 10
65.744035
 20
165.931451
 30
0.0
 11
65.741853
 21
165.939071
 31
0.0
  0
LINE
  5
114C
100
AcDbEntity
  8
10000_FRONT
370
    25
390
0
  6
CONTINUOUS
 62
     7
100
AcDbLine
 10
67.148051
 20
127.104849
 30
0.0
 11
67.145887
 21
127.112083
 31
0.0
  0
LINE
  5
114D
100
AcDbEntity
  8
10000_FRONT
370
    25
390
0
  6
CONTINUOUS
 62
     7
100
AcDbLine
 10
67.148051
 20
141.104849
 30
0.0
 11
67.145887
 21
141.112083
 31
0.0
  0
LINE
  5
114E
100
AcDbEntity
  8
10000_FRONT
370
    25
390
0
  6
CONTINUOUS
 62
     7
100
AcDbLine
 10
67.148051
 20
171.104849
 30
0.0
 11
67.145887
 21
171.112083
 31
0.0
  0
LINE
  5
114F
100
AcDbEntity
  8
10000_FRONT
370
    25
390
0
  6
CONTINUOUS
 62
     7
100
AcDbLine
 10
67.148051
 20
185.104849
 30
0.0
 11
67.145887
 21
185.112083
 31
0.0
  0
LINE
  5
1150
100
AcDbEntity
  8
10000_FRONT
370
    25
390
0
  6
CONTINUOUS
 62
     7
100
AcDbLine
 10
65.746286
 20
165.925205
 30
0.0
 11
65.744035
 21
165.931451
 31
0.0
  0
LINE
  5
1151
100
AcDbEntity
  8
10000_FRONT
370
    25
390
0
  6
CONTINUOUS
 62
     7
100
AcDbLine
 10
65.746286
 20
121.925205
 30
0.0
 11
65.744035
 21
121.93145
 31
0.0
  0
LINE
  5
1152
100
AcDbEntity
  8
10000_FRONT
370
    25
390
0
  6
CONTINUOUS
 62
     7
100
AcDbLine
 10
65.746286
 20
135.925205
 30
0.0
 11
65.744035
 21
135.93145
 31
0.0
  0
LINE
  5
1153
100
AcDbEntity
  8
10000_FRONT
370
    25
390
0
  6
CONTINUOUS
 62
     7
100
AcDbLine
 10
65.746286
 20
179.925205
 30
0.0
 11
65.744035
 21
179.93145
 31
0.0
  0
LINE
  5
1154
100
AcDbEntity
  8
10000_FRONT
370
    25
390
0
  6
CONTINUOUS
 62
     7
100
AcDbLine
 10
67.145887
 20
141.112083
 30
0.0
 11
67.143643
 21
141.118014
 31
0.0
  0
LINE
  5
1155
100
AcDbEntity
  8
10000_FRONT
370
    25
390
0
  6
CONTINUOUS
 62
     7
100
AcDbLine
 10
67.145887
 20
127.112083
 30
0.0
 11
67.143643
 21
127.118013
 31
0.0
  0
LINE
  5
1156
100
AcDbEntity
  8
10000_FRONT
370
    25
390
0
  6
CONTINUOUS
 62
     7
100
AcDbLine
 10
67.145887
 20
171.112083
 30
0.0
 11
67.143643
 21
171.118013
 31
0.0
  0
LINE
  5
1157
100
AcDbEntity
  8
10000_FRONT
370
    25
390
0
  6
CONTINUOUS
 62
     7
100
AcDbLine
 10
67.145887
 20
185.112083
 30
0.0
 11
67.143643
 21
185.118013
 31
0.0
  0
LINE
  5
1158
100
AcDbEntity
  8
10000_FRONT
370
    25
390
0
  6
CONTINUOUS
 62
     7
100
AcDbLine
 10
65.748714
 20
121.91996
 30
0.0
 11
65.746286
 21
121.925205
 31
0.0
  0
LINE
  5
1159
100
AcDbEntity
  8
10000_FRONT
370
    25
390
0
  6
CONTINUOUS
 62
     7
100
AcDbLine
 10
65.748714
 20
135.91996
 30
0.0
 11
65.746286
 21
135.925205
 31
0.0
  0
LINE
  5
115A
100
AcDbEntity
  8
10000_FRONT
370
    25
390
0
  6
CONTINUOUS
 62
     7
100
AcDbLine
 10
65.748714
 20
165.91996
 30
0.0
 11
65.746286
 21
165.925205
 31
0.0
  0
LINE
  5
115B
100
AcDbEntity
  8
10000_FRONT
370
    25
390
0
  6
CONTINUOUS
 62
     7
100
AcDbLine
 10
65.748714
 20
179.91996
 30
0.0
 11
65.746286
 21
179.925205
 31
0.0
  0
LINE
  5
115C
100
AcDbEntity
  8
10000_FRONT
370
    25
390
0
  6
CONTINUOUS
 62
     7
100
AcDbLine
 10
67.143643
 20
127.118013
 30
0.0
 11
67.141232
 21
127.122957
 31
0.0
  0
LINE
  5
115D
100
AcDbEntity
  8
10000_FRONT
370
    25
390
0
  6
CONTINUOUS
 62
     7
100
AcDbLine
 10
67.143643
 20
171.118013
 30
0.0
 11
67.141232
 21
171.122957
 31
0.0
  0
LINE
  5
115E
100
AcDbEntity
  8
10000_FRONT
370
    25
390
0
  6
CONTINUOUS
 62
     7
100
AcDbLine
 10
67.143643
 20
185.118013
 30
0.0
 11
67.141232
 21
185.122957
 31
0.0
  0
LINE
  5
115F
100
AcDbEntity
  8
10000_FRONT
370
    25
390
0
  6
CONTINUOUS
 62
     7
100
AcDbLine
 10
67.143643
 20
141.118014
 30
0.0
 11
67.141232
 21
141.122956
 31
0.0
  0
LINE
  5
1160
100
AcDbEntity
  8
10000_FRONT
370
    25
390
0
  6
CONTINUOUS
 62
     7
100
AcDbLine
 10
65.751232
 20
121.915869
 30
0.0
 11
65.748714
 21
121.91996
 31
0.0
  0
LINE
  5
1161
100
AcDbEntity
  8
10000_FRONT
370
    25
390
0
  6
CONTINUOUS
 62
     7
100
AcDbLine
 10
65.751232
 20
135.915869
 30
0.0
 11
65.748714
 21
135.91996
 31
0.0
  0
LINE
  5
1162
100
AcDbEntity
  8
10000_FRONT
370
    25
390
0
  6
CONTINUOUS
 62
     7
100
AcDbLine
 10
65.751232
 20
165.915869
 30
0.0
 11
65.748714
 21
165.91996
 31
0.0
  0
LINE
  5
1163
100
AcDbEntity
  8
10000_FRONT
370
    25
390
0
  6
CONTINUOUS
 62
     7
100
AcDbLine
 10
65.751232
 20
179.915869
 30
0.0
 11
65.748714
 21
179.91996
 31
0.0
  0
LINE
  5
1164
100
AcDbEntity
  8
10000_FRONT
370
    25
390
0
  6
CONTINUOUS
 62
     7
100
AcDbLine
 10
67.141232
 20
127.122957
 30
0.0
 11
67.138739
 21
127.126772
 31
0.0
  0
LINE
  5
1165
100
AcDbEntity
  8
10000_FRONT
370
    25
390
0
  6
CONTINUOUS
 62
     7
100
AcDbLine
 10
67.141232
 20
141.122956
 30
0.0
 11
67.138739
 21
141.126771
 31
0.0
  0
LINE
  5
1166
100
AcDbEntity
  8
10000_FRONT
370
    25
390
0
  6
CONTINUOUS
 62
     7
100
AcDbLine
 10
67.141232
 20
171.122957
 30
0.0
 11
67.138739
 21
171.126772
 31
0.0
  0
LINE
  5
1167
100
AcDbEntity
  8
10000_FRONT
370
    25
390
0
  6
CONTINUOUS
 62
     7
100
AcDbLine
 10
67.141232
 20
185.122957
 30
0.0
 11
67.138739
 21
185.126772
 31
0.0
  0
LINE
  5
1168
100
AcDbEntity
  8
10000_FRONT
370
    25
390
0
  6
CONTINUOUS
 62
     7
100
AcDbLine
 10
65.753751
 20
121.913006
 30
0.0
 11
65.751232
 21
121.915869
 31
0.0
  0
LINE
  5
1169
100
AcDbEntity
  8
10000_FRONT
370
    25
390
0
  6
CONTINUOUS
 62
     7
100
AcDbLine
 10
65.753751
 20
135.913006
 30
0.0
 11
65.751232
 21
135.915869
 31
0.0
  0
LINE
  5
116A
100
AcDbEntity
  8
10000_FRONT
370
    25
390
0
  6
CONTINUOUS
 62
     7
100
AcDbLine
 10
65.753751
 20
165.913006
 30
0.0
 11
65.751232
 21
165.915869
 31
0.0
  0
LINE
  5
116B
100
AcDbEntity
  8
10000_FRONT
370
    25
390
0
  6
CONTINUOUS
 62
     7
100
AcDbLine
 10
65.753751
 20
179.913006
 30
0.0
 11
65.751232
 21
179.915869
 31
0.0
  0
LINE
  5
116C
100
AcDbEntity
  8
10000_FRONT
370
    25
390
0
  6
CONTINUOUS
 62
     7
100
AcDbLine
 10
67.138739
 20
141.126771
 30
0.0
 11
67.136249
 21
141.129399
 31
0.0
  0
LINE
  5
116D
100
AcDbEntity
  8
10000_FRONT
370
    25
390
0
  6
CONTINUOUS
 62
     7
100
AcDbLine
 10
67.138739
 20
127.126772
 30
0.0
 11
67.136249
 21
127.129398
 31
0.0
  0
LINE
  5
116E
100
AcDbEntity
  8
10000_FRONT
370
    25
390
0
  6
CONTINUOUS
 62
     7
100
AcDbLine
 10
67.138739
 20
171.126772
 30
0.0
 11
67.136249
 21
171.129398
 31
0.0
  0
LINE
  5
116F
100
AcDbEntity
  8
10000_FRONT
370
    25
390
0
  6
CONTINUOUS
 62
     7
100
AcDbLine
 10
67.138739
 20
185.126772
 30
0.0
 11
67.136249
 21
185.129398
 31
0.0
  0
LINE
  5
1170
100
AcDbEntity
  8
10000_FRONT
370
    25
390
0
  6
CONTINUOUS
 62
     7
100
AcDbLine
 10
59.675
 20
127.9
 30
0.0
 11
58.025
 21
129.4
 31
0.0
  0
LINE
  5
1171
100
AcDbEntity
  8
10000_FRONT
370
    25
390
0
  6
CONTINUOUS
 62
     7
100
AcDbLine
 10
61.525
 20
176.754168
 30
0.0
 11
58.025
 21
177.200001
 31
0.0
  0
LINE
  5
1172
100
AcDbEntity
  8
10000_FRONT
370
    25
390
0
  6
CONTINUOUS
 62
     7
100
AcDbLine
 10
70.425
 20
113.5
 30
0.0
 11
71.525
 21
113.5
 31
0.0
  0
LINE
  5
1173
100
AcDbEntity
  8
10000_FRONT
370
    25
390
0
  6
CONTINUOUS
 62
     7
100
AcDbLine
 10
61.525
 20
113.5
 30
0.0
 11
62.625
 21
113.5
 31
0.0
  0
LINE
  5
1174
100
AcDbEntity
  8
10000_FRONT
370
    25
390
0
  6
CONTINUOUS
 62
     7
100
AcDbLine
 10
70.425
 20
115.0
 30
0.0
 11
71.525
 21
115.0
 31
0.0
  0
LINE
  5
1175
100
AcDbEntity
  8
10000_FRONT
370
    25
390
0
  6
CONTINUOUS
 62
     7
100
AcDbLine
 10
61.525
 20
115.0
 30
0.0
 11
62.625
 21
115.0
 31
0.0
  0
LINE
  5
1176
100
AcDbEntity
  8
10000_FRONT
370
    25
390
0
  6
CONTINUOUS
 62
     7
100
AcDbLine
 10
62.625
 20
116.450001
 30
0.0
 11
70.425
 21
116.450001
 31
0.0
  0
LINE
  5
1177
100
AcDbEntity
  8
10000_FRONT
370
    25
390
0
  6
CONTINUOUS
 62
     7
100
AcDbLine
 10
61.497527
 20
118.900002
 30
0.0
 11
71.325
 21
118.900002
 31
0.0
  0
LINE
  5
1178
100
AcDbEntity
  8
10000_FRONT
370
    25
390
0
  6
CONTINUOUS
 62
     7
100
AcDbLine
 10
61.523492
 20
119.900002
 30
0.0
 11
71.325
 21
119.900002
 31
0.0
  0
LINE
  5
1179
100
AcDbEntity
  8
10000_FRONT
370
    25
390
0
  6
CONTINUOUS
 62
     7
100
AcDbLine
 10
71.325006
 20
120.099998
 30
0.0
 11
71.525
 21
120.099998
 31
0.0
  0
LINE
  5
117A
100
AcDbEntity
  8
10000_FRONT
370
    25
390
0
  6
CONTINUOUS
 62
     7
100
AcDbLine
 10
70.025
 20
120.900002
 30
0.0
 11
71.525
 21
120.900002
 31
0.0
  0
LINE
  5
117B
100
AcDbEntity
  8
10000_FRONT
370
    25
390
0
  6
CONTINUOUS
 62
     7
100
AcDbLine
 10
70.025
 20
121.700001
 30
0.0
 11
71.525
 21
121.700001
 31
0.0
  0
LINE
  5
117C
100
AcDbEntity
  8
10000_FRONT
370
    25
390
0
  6
CONTINUOUS
 62
     7
100
AcDbLine
 10
61.525
 20
121.700001
 30
0.0
 11
61.622401
 21
121.700001
 31
0.0
  0
LINE
  5
117D
100
AcDbEntity
  8
10000_FRONT
370
    25
390
0
  6
CONTINUOUS
 62
     7
100
AcDbLine
 10
62.623909
 20
121.700001
 30
0.0
 11
62.625
 21
121.700001
 31
0.0
  0
LINE
  5
117E
100
AcDbEntity
  8
10000_FRONT
370
    25
390
0
  6
CONTINUOUS
 62
     7
100
AcDbLine
 10
59.025
 20
122.297501
 30
0.0
 11
61.525
 21
122.297501
 31
0.0
  0
LINE
  5
117F
100
AcDbEntity
  8
10000_FRONT
370
    25
390
0
  6
CONTINUOUS
 62
     7
100
AcDbLine
 10
61.525
 20
122.5
 30
0.0
 11
61.666355
 21
122.5
 31
0.0
  0
LINE
  5
1180
100
AcDbEntity
  8
10000_FRONT
370
    25
390
0
  6
CONTINUOUS
 62
     7
100
AcDbLine
 10
61.525
 20
123.299999
 30
0.0
 11
61.71031
 21
123.299999
 31
0.0
  0
LINE
  5
1181
100
AcDbEntity
  8
10000_FRONT
370
    25
390
0
  6
CONTINUOUS
 62
     7
100
AcDbLine
 10
64.675
 20
124.014999
 30
0.0
 11
68.225
 21
124.014999
 31
0.0
  0
LINE
  5
1182
100
AcDbEntity
  8
10000_FRONT
370
    25
390
0
  6
CONTINUOUS
 62
     7
100
AcDbLine
 10
64.675
 20
125.014999
 30
0.0
 11
68.225
 21
125.014999
 31
0.0
  0
LINE
  5
1183
100
AcDbEntity
  8
10000_FRONT
370
    25
390
0
  6
CONTINUOUS
 62
     7
100
AcDbLine
 10
70.425
 20
125.5
 30
0.0
 11
71.525
 21
125.5
 31
0.0
  0
LINE
  5
1184
100
AcDbEntity
  8
10000_FRONT
370
    25
390
0
  6
CONTINUOUS
 62
     7
100
AcDbLine
 10
59.025
 20
125.799999
 30
0.0
 11
61.525
 21
125.799999
 31
0.0
  0
LINE
  5
1185
100
AcDbEntity
  8
10000_FRONT
370
    25
390
0
  6
CONTINUOUS
 62
     7
100
AcDbLine
 10
70.425
 20
126.0
 30
0.0
 11
71.525
 21
126.0
 31
0.0
  0
LINE
  5
1186
100
AcDbEntity
  8
10000_FRONT
370
    25
390
0
  6
CONTINUOUS
 62
     7
100
AcDbLine
 10
61.525
 20
126.0
 30
0.0
 11
62.625
 21
126.0
 31
0.0
  0
LINE
  5
1187
100
AcDbEntity
  8
10000_FRONT
370
    25
390
0
  6
CONTINUOUS
 62
     7
100
AcDbLine
 10
70.425
 20
127.460764
 30
0.0
 11
71.525
 21
127.460764
 31
0.0
  0
LINE
  5
1188
100
AcDbEntity
  8
10000_FRONT
370
    25
390
0
  6
CONTINUOUS
 62
     7
100
AcDbLine
 10
61.525
 20
127.460764
 30
0.0
 11
62.625
 21
127.460764
 31
0.0
  0
LINE
  5
1189
100
AcDbEntity
  8
10000_FRONT
370
    25
390
0
  6
CONTINUOUS
 62
     7
100
AcDbLine
 10
59.675
 20
127.9
 30
0.0
 11
59.975
 21
127.9
 31
0.0
  0
LINE
  5
118A
100
AcDbEntity
  8
10000_FRONT
370
    25
390
0
  6
CONTINUOUS
 62
     7
100
AcDbLine
 10
59.975
 20
129.0
 30
0.0
 11
61.525
 21
129.0
 31
0.0
  0
LINE
  5
118B
100
AcDbEntity
  8
10000_FRONT
370
    25
390
0
  6
CONTINUOUS
 62
     7
100
AcDbLine
 10
62.625
 20
129.0
 30
0.0
 11
70.425
 21
129.0
 31
0.0
  0
LINE
  5
118C
100
AcDbEntity
  8
10000_FRONT
370
    25
390
0
  6
CONTINUOUS
 62
     7
100
AcDbLine
 10
58.125
 20
132.0
 30
0.0
 11
61.525
 21
132.0
 31
0.0
  0
LINE
  5
118D
100
AcDbEntity
  8
10000_FRONT
370
    25
390
0
  6
CONTINUOUS
 62
     7
100
AcDbLine
 10
61.525
 20
134.0
 30
0.0
 11
71.525
 21
134.0
 31
0.0
  0
LINE
  5
118E
100
AcDbEntity
  8
10000_FRONT
370
    25
390
0
  6
CONTINUOUS
 62
     7
100
AcDbLine
 10
58.125
 20
135.0
 30
0.0
 11
61.525
 21
135.0
 31
0.0
  0
LINE
  5
118F
100
AcDbEntity
  8
10000_FRONT
370
    25
390
0
  6
CONTINUOUS
 62
     7
100
AcDbLine
 10
64.675
 20
138.015
 30
0.0
 11
68.225
 21
138.015
 31
0.0
  0
LINE
  5
1190
100
AcDbEntity
  8
10000_FRONT
370
    25
390
0
  6
CONTINUOUS
 62
     7
100
AcDbLine
 10
64.675
 20
139.015
 30
0.0
 11
68.225
 21
139.015
 31
0.0
  0
LINE
  5
1191
100
AcDbEntity
  8
10000_FRONT
370
    25
390
0
  6
CONTINUOUS
 62
     7
100
AcDbLine
 10
53.2752
 20
151.5
 30
0.0
 11
61.525013
 21
151.5
 31
0.0
  0
LINE
  5
1192
100
AcDbEntity
  8
10000_FRONT
370
    25
390
0
  6
CONTINUOUS
 62
     7
100
AcDbLine
 10
53.2752
 20
155.5
 30
0.0
 11
61.525013
 21
155.5
 31
0.0
  0
LINE
  5
1193
100
AcDbEntity
  8
10000_FRONT
370
    25
390
0
  6
CONTINUOUS
 62
     7
100
AcDbLine
 10
64.675
 20
168.015
 30
0.0
 11
68.225
 21
168.015
 31
0.0
  0
LINE
  5
1194
100
AcDbEntity
  8
10000_FRONT
370
    25
390
0
  6
CONTINUOUS
 62
     7
100
AcDbLine
 10
64.675
 20
169.015
 30
0.0
 11
68.225
 21
169.015
 31
0.0
  0
LINE
  5
1195
100
AcDbEntity
  8
10000_FRONT
370
    25
390
0
  6
CONTINUOUS
 62
     7
100
AcDbLine
 10
58.125
 20
172.0
 30
0.0
 11
61.525
 21
172.0
 31
0.0
  0
LINE
  5
1196
100
AcDbEntity
  8
10000_FRONT
370
    25
390
0
  6
CONTINUOUS
 62
     7
100
AcDbLine
 10
61.525
 20
173.0
 30
0.0
 11
71.525
 21
173.0
 31
0.0
  0
LINE
  5
1197
100
AcDbEntity
  8
10000_FRONT
370
    25
390
0
  6
CONTINUOUS
 62
     7
100
AcDbLine
 10
58.125
 20
175.0
 30
0.0
 11
61.525
 21
175.0
 31
0.0
  0
LINE
  5
1198
100
AcDbEntity
  8
10000_FRONT
370
    25
390
0
  6
CONTINUOUS
 62
     7
100
AcDbLine
 10
59.975
 20
178.0
 30
0.0
 11
61.525
 21
178.0
 31
0.0
  0
LINE
  5
1199
100
AcDbEntity
  8
10000_FRONT
370
    25
390
0
  6
CONTINUOUS
 62
     7
100
AcDbLine
 10
62.625
 20
178.0
 30
0.0
 11
70.425
 21
178.0
 31
0.0
  0
LINE
  5
119A
100
AcDbEntity
  8
10000_FRONT
370
    25
390
0
  6
CONTINUOUS
 62
     7
100
AcDbLine
 10
59.675
 20
179.1
 30
0.0
 11
59.975
 21
179.1
 31
0.0
  0
LINE
  5
119B
100
AcDbEntity
  8
10000_FRONT
370
    25
390
0
  6
CONTINUOUS
 62
     7
100
AcDbLine
 10
70.425
 20
179.539236
 30
0.0
 11
71.525
 21
179.539236
 31
0.0
  0
LINE
  5
119C
100
AcDbEntity
  8
10000_FRONT
370
    25
390
0
  6
CONTINUOUS
 62
     7
100
AcDbLine
 10
61.525
 20
179.539236
 30
0.0
 11
62.625
 21
179.539236
 31
0.0
  0
LINE
  5
119D
100
AcDbEntity
  8
10000_FRONT
370
    25
390
0
  6
CONTINUOUS
 62
     7
100
AcDbLine
 10
70.425
 20
181.0
 30
0.0
 11
71.525
 21
181.0
 31
0.0
  0
LINE
  5
119E
100
AcDbEntity
  8
10000_FRONT
370
    25
390
0
  6
CONTINUOUS
 62
     7
100
AcDbLine
 10
61.525
 20
181.0
 30
0.0
 11
62.625
 21
181.0
 31
0.0
  0
LINE
  5
119F
100
AcDbEntity
  8
10000_FRONT
370
    25
390
0
  6
CONTINUOUS
 62
     7
100
AcDbLine
 10
59.025
 20
181.200001
 30
0.0
 11
61.525
 21
181.200001
 31
0.0
  0
LINE
  5
11A0
100
AcDbEntity
  8
10000_FRONT
370
    25
390
0
  6
CONTINUOUS
 62
     7
100
AcDbLine
 10
70.425
 20
181.5
 30
0.0
 11
71.525
 21
181.5
 31
0.0
  0
LINE
  5
11A1
100
AcDbEntity
  8
10000_FRONT
370
    25
390
0
  6
CONTINUOUS
 62
     7
100
AcDbLine
 10
64.675
 20
182.014999
 30
0.0
 11
68.225
 21
182.014999
 31
0.0
  0
LINE
  5
11A2
100
AcDbEntity
  8
10000_FRONT
370
    25
390
0
  6
CONTINUOUS
 62
     7
100
AcDbLine
 10
64.675
 20
183.014999
 30
0.0
 11
68.225
 21
183.014999
 31
0.0
  0
LINE
  5
11A3
100
AcDbEntity
  8
10000_FRONT
370
    25
390
0
  6
CONTINUOUS
 62
     7
100
AcDbLine
 10
61.525
 20
183.700001
 30
0.0
 11
61.710311
 21
183.700001
 31
0.0
  0
LINE
  5
11A4
100
AcDbEntity
  8
10000_FRONT
370
    25
390
0
  6
CONTINUOUS
 62
     7
100
AcDbLine
 10
61.525
 20
184.5
 30
0.0
 11
61.666356
 21
184.5
 31
0.0
  0
LINE
  5
11A5
100
AcDbEntity
  8
10000_FRONT
370
    25
390
0
  6
CONTINUOUS
 62
     7
100
AcDbLine
 10
59.025
 20
184.700001
 30
0.0
 11
61.525
 21
184.700001
 31
0.0
  0
LINE
  5
11A6
100
AcDbEntity
  8
10000_FRONT
370
    25
390
0
  6
CONTINUOUS
 62
     7
100
AcDbLine
 10
70.025
 20
185.299999
 30
0.0
 11
71.525
 21
185.299999
 31
0.0
  0
LINE
  5
11A7
100
AcDbEntity
  8
10000_FRONT
370
    25
390
0
  6
CONTINUOUS
 62
     7
100
AcDbLine
 10
61.525
 20
185.299999
 30
0.0
 11
61.622402
 21
185.299999
 31
0.0
  0
LINE
  5
11A8
100
AcDbEntity
  8
10000_FRONT
370
    25
390
0
  6
CONTINUOUS
 62
     7
100
AcDbLine
 10
62.62391
 20
185.299999
 30
0.0
 11
62.625
 21
185.299999
 31
0.0
  0
LINE
  5
11A9
100
AcDbEntity
  8
10000_FRONT
370
    25
390
0
  6
CONTINUOUS
 62
     7
100
AcDbLine
 10
70.025
 20
186.099998
 30
0.0
 11
71.525
 21
186.099998
 31
0.0
  0
LINE
  5
11AA
100
AcDbEntity
  8
10000_FRONT
370
    25
390
0
  6
CONTINUOUS
 62
     7
100
AcDbLine
 10
71.325006
 20
186.900002
 30
0.0
 11
71.525
 21
186.900002
 31
0.0
  0
LINE
  5
11AB
100
AcDbEntity
  8
10000_FRONT
370
    25
390
0
  6
CONTINUOUS
 62
     7
100
AcDbLine
 10
61.523492
 20
187.099998
 30
0.0
 11
71.325
 21
187.099998
 31
0.0
  0
LINE
  5
11AC
100
AcDbEntity
  8
10000_FRONT
370
    25
390
0
  6
CONTINUOUS
 62
     7
100
AcDbLine
 10
61.497527
 20
188.099998
 30
0.0
 11
71.325
 21
188.099998
 31
0.0
  0
LINE
  5
11AD
100
AcDbEntity
  8
10000_FRONT
370
    25
390
0
  6
CONTINUOUS
 62
     7
100
AcDbLine
 10
62.625
 20
190.549999
 30
0.0
 11
70.425
 21
190.549999
 31
0.0
  0
LINE
  5
11AE
100
AcDbEntity
  8
10000_FRONT
370
    25
390
0
  6
CONTINUOUS
 62
     7
100
AcDbLine
 10
70.425
 20
192.0
 30
0.0
 11
71.525
 21
192.0
 31
0.0
  0
LINE
  5
11AF
100
AcDbEntity
  8
10000_FRONT
370
    25
390
0
  6
CONTINUOUS
 62
     7
100
AcDbLine
 10
61.525
 20
192.0
 30
0.0
 11
62.625
 21
192.0
 31
0.0
  0
LINE
  5
11B0
100
AcDbEntity
  8
10000_FRONT
370
    25
390
0
  6
CONTINUOUS
 62
     7
100
AcDbLine
 10
70.425
 20
193.5
 30
0.0
 11
71.525
 21
193.5
 31
0.0
  0
LINE
  5
11B1
100
AcDbEntity
  8
10000_FRONT
370
    25
390
0
  6
CONTINUOUS
 62
     7
100
AcDbLine
 10
61.525
 20
193.5
 30
0.0
 11
62.625
 21
193.5
 31
0.0
  0
LINE
  5
11B2
100
AcDbEntity
  8
10000_FRONT
370
    25
390
0
  6
CONTINUOUS
 62
     7
100
AcDbLine
 10
58.025
 20
129.799999
 30
0.0
 11
61.525
 21
130.245832
 31
0.0
  0
LINE
  5
11B3
100
AcDbEntity
  8
10000_FRONT
370
    25
390
0
  6
CONTINUOUS
 62
     7
100
AcDbLine
 10
58.025
 20
177.6
 30
0.0
 11
59.675
 21
179.1
 31
0.0
  0
LINE
  5
11B4
100
AcDbEntity
  8
10000_FRONT
370
    25
390
0
  6
CONTINUOUS
 62
     7
100
AcDbLine
 10
67.136249
 20
121.870602
 30
0.0
 11
67.138739
 21
121.873228
 31
0.0
  0
LINE
  5
11B5
100
AcDbEntity
  8
10000_FRONT
370
    25
390
0
  6
CONTINUOUS
 62
     7
100
AcDbLine
 10
67.136249
 20
135.870602
 30
0.0
 11
67.138739
 21
135.873228
 31
0.0
  0
LINE
  5
11B6
100
AcDbEntity
  8
10000_FRONT
370
    25
390
0
  6
CONTINUOUS
 62
     7
100
AcDbLine
 10
67.136249
 20
179.870602
 30
0.0
 11
67.138739
 21
179.873228
 31
0.0
  0
LINE
  5
11B7
100
AcDbEntity
  8
10000_FRONT
370
    25
390
0
  6
CONTINUOUS
 62
     7
100
AcDbLine
 10
67.136249
 20
165.870601
 30
0.0
 11
67.138739
 21
165.873229
 31
0.0
  0
LINE
  5
11B8
100
AcDbEntity
  8
10000_FRONT
370
    25
390
0
  6
CONTINUOUS
 62
     7
100
AcDbLine
 10
65.751673
 20
127.084713
 30
0.0
 11
65.753751
 21
127.086994
 31
0.0
  0
LINE
  5
11B9
100
AcDbEntity
  8
10000_FRONT
370
    25
390
0
  6
CONTINUOUS
 62
     7
100
AcDbLine
 10
65.751673
 20
141.084713
 30
0.0
 11
65.753751
 21
141.086994
 31
0.0
  0
LINE
  5
11BA
100
AcDbEntity
  8
10000_FRONT
370
    25
390
0
  6
CONTINUOUS
 62
     7
100
AcDbLine
 10
65.751673
 20
171.084713
 30
0.0
 11
65.753751
 21
171.086994
 31
0.0
  0
LINE
  5
11BB
100
AcDbEntity
  8
10000_FRONT
370
    25
390
0
  6
CONTINUOUS
 62
     7
100
AcDbLine
 10
65.751673
 20
185.084713
 30
0.0
 11
65.753751
 21
185.086994
 31
0.0
  0
LINE
  5
11BC
100
AcDbEntity
  8
10000_FRONT
370
    25
390
0
  6
CONTINUOUS
 62
     7
100
AcDbLine
 10
65.749584
 20
127.081602
 30
0.0
 11
65.751673
 21
127.084713
 31
0.0
  0
LINE
  5
11BD
100
AcDbEntity
  8
10000_FRONT
370
    25
390
0
  6
CONTINUOUS
 62
     7
100
AcDbLine
 10
65.749584
 20
141.081602
 30
0.0
 11
65.751673
 21
141.084713
 31
0.0
  0
LINE
  5
11BE
100
AcDbEntity
  8
10000_FRONT
370
    25
390
0
  6
CONTINUOUS
 62
     7
100
AcDbLine
 10
65.749584
 20
171.081602
 30
0.0
 11
65.751673
 21
171.084713
 31
0.0
  0
LINE
  5
11BF
100
AcDbEntity
  8
10000_FRONT
370
    25
390
0
  6
CONTINUOUS
 62
     7
100
AcDbLine
 10
65.749584
 20
185.081602
 30
0.0
 11
65.751673
 21
185.084713
 31
0.0
  0
LINE
  5
11C0
100
AcDbEntity
  8
10000_FRONT
370
    25
390
0
  6
CONTINUOUS
 62
     7
100
AcDbLine
 10
67.138739
 20
121.873228
 30
0.0
 11
67.141232
 21
121.877043
 31
0.0
  0
LINE
  5
11C1
100
AcDbEntity
  8
10000_FRONT
370
    25
390
0
  6
CONTINUOUS
 62
     7
100
AcDbLine
 10
67.138739
 20
135.873228
 30
0.0
 11
67.141232
 21
135.877043
 31
0.0
  0
LINE
  5
11C2
100
AcDbEntity
  8
10000_FRONT
370
    25
390
0
  6
CONTINUOUS
 62
     7
100
AcDbLine
 10
67.138739
 20
165.873229
 30
0.0
 11
67.141232
 21
165.877044
 31
0.0
  0
LINE
  5
11C3
100
AcDbEntity
  8
10000_FRONT
370
    25
390
0
  6
CONTINUOUS
 62
     7
100
AcDbLine
 10
67.138739
 20
179.873228
 30
0.0
 11
67.141232
 21
179.877043
 31
0.0
  0
LINE
  5
11C4
100
AcDbEntity
  8
10000_FRONT
370
    25
390
0
  6
CONTINUOUS
 62
     7
100
AcDbLine
 10
65.747536
 20
127.077665
 30
0.0
 11
65.749584
 21
127.081602
 31
0.0
  0
LINE
  5
11C5
100
AcDbEntity
  8
10000_FRONT
370
    25
390
0
  6
CONTINUOUS
 62
     7
100
AcDbLine
 10
65.747536
 20
141.077665
 30
0.0
 11
65.749584
 21
141.081602
 31
0.0
  0
LINE
  5
11C6
100
AcDbEntity
  8
10000_FRONT
370
    25
390
0
  6
CONTINUOUS
 62
     7
100
AcDbLine
 10
65.747536
 20
171.077665
 30
0.0
 11
65.749584
 21
171.081602
 31
0.0
  0
LINE
  5
11C7
100
AcDbEntity
  8
10000_FRONT
370
    25
390
0
  6
CONTINUOUS
 62
     7
100
AcDbLine
 10
65.747536
 20
185.077665
 30
0.0
 11
65.749584
 21
185.081602
 31
0.0
  0
LINE
  5
11C8
100
AcDbEntity
  8
10000_FRONT
370
    25
390
0
  6
CONTINUOUS
 62
     7
100
AcDbLine
 10
67.141232
 20
165.877044
 30
0.0
 11
67.143643
 21
165.881986
 31
0.0
  0
LINE
  5
11C9
100
AcDbEntity
  8
10000_FRONT
370
    25
390
0
  6
CONTINUOUS
 62
     7
100
AcDbLine
 10
67.141232
 20
121.877043
 30
0.0
 11
67.143643
 21
121.881987
 31
0.0
  0
LINE
  5
11CA
100
AcDbEntity
  8
10000_FRONT
370
    25
390
0
  6
CONTINUOUS
 62
     7
100
AcDbLine
 10
67.141232
 20
135.877043
 30
0.0
 11
67.143643
 21
135.881987
 31
0.0
  0
LINE
  5
11CB
100
AcDbEntity
  8
10000_FRONT
370
    25
390
0
  6
CONTINUOUS
 62
     7
100
AcDbLine
 10
67.141232
 20
179.877043
 30
0.0
 11
67.143643
 21
179.881987
 31
0.0
  0
LINE
  5
11CC
100
AcDbEntity
  8
10000_FRONT
370
    25
390
0
  6
CONTINUOUS
 62
     7
100
AcDbLine
 10
65.745578
 20
127.072994
 30
0.0
 11
65.747536
 21
127.077665
 31
0.0
  0
LINE
  5
11CD
100
AcDbEntity
  8
10000_FRONT
370
    25
390
0
  6
CONTINUOUS
 62
     7
100
AcDbLine
 10
65.745578
 20
141.072994
 30
0.0
 11
65.747536
 21
141.077665
 31
0.0
  0
LINE
  5
11CE
100
AcDbEntity
  8
10000_FRONT
370
    25
390
0
  6
CONTINUOUS
 62
     7
100
AcDbLine
 10
65.745578
 20
171.072994
 30
0.0
 11
65.747536
 21
171.077665
 31
0.0
  0
LINE
  5
11CF
100
AcDbEntity
  8
10000_FRONT
370
    25
390
0
  6
CONTINUOUS
 62
     7
100
AcDbLine
 10
65.745578
 20
185.072994
 30
0.0
 11
65.747536
 21
185.077665
 31
0.0
  0
LINE
  5
11D0
100
AcDbEntity
  8
10000_FRONT
370
    25
390
0
  6
CONTINUOUS
 62
     7
100
AcDbLine
 10
67.143643
 20
121.881987
 30
0.0
 11
67.145887
 21
121.887917
 31
0.0
  0
LINE
  5
11D1
100
AcDbEntity
  8
10000_FRONT
370
    25
390
0
  6
CONTINUOUS
 62
     7
100
AcDbLine
 10
67.143643
 20
135.881987
 30
0.0
 11
67.145887
 21
135.887917
 31
0.0
  0
LINE
  5
11D2
100
AcDbEntity
  8
10000_FRONT
370
    25
390
0
  6
CONTINUOUS
 62
     7
100
AcDbLine
 10
67.143643
 20
179.881987
 30
0.0
 11
67.145887
 21
179.887917
 31
0.0
  0
LINE
  5
11D3
100
AcDbEntity
  8
10000_FRONT
370
    25
390
0
  6
CONTINUOUS
 62
     7
100
AcDbLine
 10
67.143643
 20
165.881986
 30
0.0
 11
67.145887
 21
165.887917
 31
0.0
  0
LINE
  5
11D4
100
AcDbEntity
  8
10000_FRONT
370
    25
390
0
  6
CONTINUOUS
 62
     7
100
AcDbLine
 10
65.743752
 20
127.067648
 30
0.0
 11
65.745578
 21
127.072994
 31
0.0
  0
LINE
  5
11D5
100
AcDbEntity
  8
10000_FRONT
370
    25
390
0
  6
CONTINUOUS
 62
     7
100
AcDbLine
 10
65.743752
 20
141.067648
 30
0.0
 11
65.745578
 21
141.072994
 31
0.0
  0
LINE
  5
11D6
100
AcDbEntity
  8
10000_FRONT
370
    25
390
0
  6
CONTINUOUS
 62
     7
100
AcDbLine
 10
65.743752
 20
171.067648
 30
0.0
 11
65.745578
 21
171.072994
 31
0.0
  0
LINE
  5
11D7
100
AcDbEntity
  8
10000_FRONT
370
    25
390
0
  6
CONTINUOUS
 62
     7
100
AcDbLine
 10
65.743752
 20
185.067648
 30
0.0
 11
65.745578
 21
185.072994
 31
0.0
  0
LINE
  5
11D8
100
AcDbEntity
  8
10000_FRONT
370
    25
390
0
  6
CONTINUOUS
 62
     7
100
AcDbLine
 10
67.145887
 20
121.887917
 30
0.0
 11
67.148051
 21
121.895151
 31
0.0
  0
LINE
  5
11D9
100
AcDbEntity
  8
10000_FRONT
370
    25
390
0
  6
CONTINUOUS
 62
     7
100
AcDbLine
 10
67.145887
 20
135.887917
 30
0.0
 11
67.148051
 21
135.895151
 31
0.0
  0
LINE
  5
11DA
100
AcDbEntity
  8
10000_FRONT
370
    25
390
0
  6
CONTINUOUS
 62
     7
100
AcDbLine
 10
67.145887
 20
165.887917
 30
0.0
 11
67.148051
 21
165.895151
 31
0.0
  0
LINE
  5
11DB
100
AcDbEntity
  8
10000_FRONT
370
    25
390
0
  6
CONTINUOUS
 62
     7
100
AcDbLine
 10
67.145887
 20
179.887917
 30
0.0
 11
67.148051
 21
179.895151
 31
0.0
  0
LINE
  5
11DC
100
AcDbEntity
  8
10000_FRONT
370
    25
390
0
  6
CONTINUOUS
 62
     7
100
AcDbLine
 10
65.741949
 20
127.061293
 30
0.0
 11
65.743752
 21
127.067648
 31
0.0
  0
LINE
  5
11DD
100
AcDbEntity
  8
10000_FRONT
370
    25
390
0
  6
CONTINUOUS
 62
     7
100
AcDbLine
 10
65.741949
 20
141.061293
 30
0.0
 11
65.743752
 21
141.067648
 31
0.0
  0
LINE
  5
11DE
100
AcDbEntity
  8
10000_FRONT
370
    25
390
0
  6
CONTINUOUS
 62
     7
100
AcDbLine
 10
65.741949
 20
171.061293
 30
0.0
 11
65.743752
 21
171.067648
 31
0.0
  0
LINE
  5
11DF
100
AcDbEntity
  8
10000_FRONT
370
    25
390
0
  6
CONTINUOUS
 62
     7
100
AcDbLine
 10
65.741949
 20
185.061293
 30
0.0
 11
65.743752
 21
185.067648
 31
0.0
  0
LINE
  5
11E0
100
AcDbEntity
  8
10000_FRONT
370
    25
390
0
  6
CONTINUOUS
 62
     7
100
AcDbLine
 10
67.148051
 20
121.895151
 30
0.0
 11
67.150207
 21
121.903812
 31
0.0
  0
LINE
  5
11E1
100
AcDbEntity
  8
10000_FRONT
370
    25
390
0
  6
CONTINUOUS
 62
     7
100
AcDbLine
 10
67.148051
 20
135.895151
 30
0.0
 11
67.150207
 21
135.903812
 31
0.0
  0
LINE
  5
11E2
100
AcDbEntity
  8
10000_FRONT
370
    25
390
0
  6
CONTINUOUS
 62
     7
100
AcDbLine
 10
67.148051
 20
179.895151
 30
0.0
 11
67.150207
 21
179.903812
 31
0.0
  0
LINE
  5
11E3
100
AcDbEntity
  8
10000_FRONT
370
    25
390
0
  6
CONTINUOUS
 62
     7
100
AcDbLine
 10
67.148051
 20
165.895151
 30
0.0
 11
67.150207
 21
165.903813
 31
0.0
  0
LINE
  5
11E4
100
AcDbEntity
  8
10000_FRONT
370
    25
390
0
  6
CONTINUOUS
 62
     7
100
AcDbLine
 10
65.740154
 20
127.053953
 30
0.0
 11
65.741949
 21
127.061293
 31
0.0
  0
LINE
  5
11E5
100
AcDbEntity
  8
10000_FRONT
370
    25
390
0
  6
CONTINUOUS
 62
     7
100
AcDbLine
 10
65.740154
 20
171.053953
 30
0.0
 11
65.741949
 21
171.061293
 31
0.0
  0
LINE
  5
11E6
100
AcDbEntity
  8
10000_FRONT
370
    25
390
0
  6
CONTINUOUS
 62
     7
100
AcDbLine
 10
65.740154
 20
185.053953
 30
0.0
 11
65.741949
 21
185.061293
 31
0.0
  0
LINE
  5
11E7
100
AcDbEntity
  8
10000_FRONT
370
    25
390
0
  6
CONTINUOUS
 62
     7
100
AcDbLine
 10
65.740154
 20
141.053952
 30
0.0
 11
65.741949
 21
141.061293
 31
0.0
  0
LINE
  5
11E8
100
AcDbEntity
  8
10000_FRONT
370
    25
390
0
  6
CONTINUOUS
 62
     7
100
AcDbLine
 10
65.738406
 20
141.045818
 30
0.0
 11
65.740154
 21
141.053952
 31
0.0
  0
LINE
  5
11E9
100
AcDbEntity
  8
10000_FRONT
370
    25
390
0
  6
CONTINUOUS
 62
     7
100
AcDbLine
 10
65.738406
 20
127.045818
 30
0.0
 11
65.740154
 21
127.053953
 31
0.0
  0
LINE
  5
11EA
100
AcDbEntity
  8
10000_FRONT
370
    25
390
0
  6
CONTINUOUS
 62
     7
100
AcDbLine
 10
65.738406
 20
171.045818
 30
0.0
 11
65.740154
 21
171.053953
 31
0.0
  0
LINE
  5
11EB
100
AcDbEntity
  8
10000_FRONT
370
    25
390
0
  6
CONTINUOUS
 62
     7
100
AcDbLine
 10
65.738406
 20
185.045818
 30
0.0
 11
65.740154
 21
185.053953
 31
0.0
  0
LINE
  5
11EC
100
AcDbEntity
  8
10000_FRONT
370
    25
390
0
  6
CONTINUOUS
 62
     7
100
AcDbLine
 10
67.150207
 20
121.903812
 30
0.0
 11
67.152289
 21
121.91358
 31
0.0
  0
LINE
  5
11ED
100
AcDbEntity
  8
10000_FRONT
370
    25
390
0
  6
CONTINUOUS
 62
     7
100
AcDbLine
 10
67.150207
 20
135.903812
 30
0.0
 11
67.152289
 21
135.91358
 31
0.0
  0
LINE
  5
11EE
100
AcDbEntity
  8
10000_FRONT
370
    25
390
0
  6
CONTINUOUS
 62
     7
100
AcDbLine
 10
67.150207
 20
165.903813
 30
0.0
 11
67.152289
 21
165.913581
 31
0.0
  0
LINE
  5
11EF
100
AcDbEntity
  8
10000_FRONT
370
    25
390
0
  6
CONTINUOUS
 62
     7
100
AcDbLine
 10
67.150207
 20
179.903812
 30
0.0
 11
67.152289
 21
179.91358
 31
0.0
  0
LINE
  5
11F0
100
AcDbEntity
  8
10000_FRONT
370
    25
390
0
  6
CONTINUOUS
 62
     7
100
AcDbLine
 10
65.736743
 20
127.037079
 30
0.0
 11
65.738406
 21
127.045818
 31
0.0
  0
LINE
  5
11F1
100
AcDbEntity
  8
10000_FRONT
370
    25
390
0
  6
CONTINUOUS
 62
     7
100
AcDbLine
 10
65.736743
 20
141.037079
 30
0.0
 11
65.738406
 21
141.045818
 31
0.0
  0
LINE
  5
11F2
100
AcDbEntity
  8
10000_FRONT
370
    25
390
0
  6
CONTINUOUS
 62
     7
100
AcDbLine
 10
65.736743
 20
171.037079
 30
0.0
 11
65.738406
 21
171.045818
 31
0.0
  0
LINE
  5
11F3
100
AcDbEntity
  8
10000_FRONT
370
    25
390
0
  6
CONTINUOUS
 62
     7
100
AcDbLine
 10
65.736743
 20
185.037079
 30
0.0
 11
65.738406
 21
185.045818
 31
0.0
  0
LINE
  5
11F4
100
AcDbEntity
  8
10000_FRONT
370
    25
390
0
  6
CONTINUOUS
 62
     7
100
AcDbLine
 10
67.152289
 20
165.913581
 30
0.0
 11
67.15423
 21
165.924133
 31
0.0
  0
LINE
  5
11F5
100
AcDbEntity
  8
10000_FRONT
370
    25
390
0
  6
CONTINUOUS
 62
     7
100
AcDbLine
 10
67.152289
 20
121.91358
 30
0.0
 11
67.15423
 21
121.924133
 31
0.0
  0
LINE
  5
11F6
100
AcDbEntity
  8
10000_FRONT
370
    25
390
0
  6
CONTINUOUS
 62
     7
100
AcDbLine
 10
67.152289
 20
135.91358
 30
0.0
 11
67.15423
 21
135.924133
 31
0.0
  0
LINE
  5
11F7
100
AcDbEntity
  8
10000_FRONT
370
    25
390
0
  6
CONTINUOUS
 62
     7
100
AcDbLine
 10
67.152289
 20
179.91358
 30
0.0
 11
67.15423
 21
179.924133
 31
0.0
  0
LINE
  5
11F8
100
AcDbEntity
  8
10000_FRONT
370
    25
390
0
  6
CONTINUOUS
 62
     7
100
AcDbLine
 10
65.735202
 20
141.027925
 30
0.0
 11
65.736743
 21
141.037079
 31
0.0
  0
LINE
  5
11F9
100
AcDbEntity
  8
10000_FRONT
370
    25
390
0
  6
CONTINUOUS
 62
     7
100
AcDbLine
 10
65.735202
 20
127.027924
 30
0.0
 11
65.736743
 21
127.037079
 31
0.0
  0
LINE
  5
11FA
100
AcDbEntity
  8
10000_FRONT
370
    25
390
0
  6
CONTINUOUS
 62
     7
100
AcDbLine
 10
65.735202
 20
171.027924
 30
0.0
 11
65.736743
 21
171.037079
 31
0.0
  0
LINE
  5
11FB
100
AcDbEntity
  8
10000_FRONT
370
    25
390
0
  6
CONTINUOUS
 62
     7
100
AcDbLine
 10
65.735202
 20
185.027924
 30
0.0
 11
65.736743
 21
185.037079
 31
0.0
  0
LINE
  5
11FC
100
AcDbEntity
  8
10000_FRONT
370
    25
390
0
  6
CONTINUOUS
 62
     7
100
AcDbLine
 10
67.15423
 20
165.924133
 30
0.0
 11
67.155963
 21
165.935155
 31
0.0
  0
LINE
  5
11FD
100
AcDbEntity
  8
10000_FRONT
370
    25
390
0
  6
CONTINUOUS
 62
     7
100
AcDbLine
 10
67.15423
 20
121.924133
 30
0.0
 11
67.155963
 21
121.935156
 31
0.0
  0
LINE
  5
11FE
100
AcDbEntity
  8
10000_FRONT
370
    25
390
0
  6
CONTINUOUS
 62
     7
100
AcDbLine
 10
67.15423
 20
135.924133
 30
0.0
 11
67.155963
 21
135.935156
 31
0.0
  0
LINE
  5
11FF
100
AcDbEntity
  8
10000_FRONT
370
    25
390
0
  6
CONTINUOUS
 62
     7
100
AcDbLine
 10
67.15423
 20
179.924133
 30
0.0
 11
67.155963
 21
179.935156
 31
0.0
  0
LINE
  5
1200
100
AcDbEntity
  8
10000_FRONT
370
    25
390
0
  6
CONTINUOUS
 62
     7
100
AcDbLine
 10
65.733814
 20
127.018496
 30
0.0
 11
65.735202
 21
127.027924
 31
0.0
  0
LINE
  5
1201
100
AcDbEntity
  8
10000_FRONT
370
    25
390
0
  6
CONTINUOUS
 62
     7
100
AcDbLine
 10
65.733814
 20
171.018496
 30
0.0
 11
65.735202
 21
171.027924
 31
0.0
  0
LINE
  5
1202
100
AcDbEntity
  8
10000_FRONT
370
    25
390
0
  6
CONTINUOUS
 62
     7
100
AcDbLine
 10
65.733814
 20
185.018496
 30
0.0
 11
65.735202
 21
185.027924
 31
0.0
  0
LINE
  5
1203
100
AcDbEntity
  8
10000_FRONT
370
    25
390
0
  6
CONTINUOUS
 62
     7
100
AcDbLine
 10
65.733814
 20
141.018496
 30
0.0
 11
65.735202
 21
141.027925
 31
0.0
  0
LINE
  5
1204
100
AcDbEntity
  8
10000_FRONT
370
    25
390
0
  6
CONTINUOUS
 62
     7
100
AcDbLine
 10
67.155963
 20
121.935156
 30
0.0
 11
67.157556
 21
121.947184
 31
0.0
  0
LINE
  5
1205
100
AcDbEntity
  8
10000_FRONT
370
    25
390
0
  6
CONTINUOUS
 62
     7
100
AcDbLine
 10
67.155963
 20
135.935156
 30
0.0
 11
67.157556
 21
135.947184
 31
0.0
  0
LINE
  5
1206
100
AcDbEntity
  8
10000_FRONT
370
    25
390
0
  6
CONTINUOUS
 62
     7
100
AcDbLine
 10
67.155963
 20
179.935156
 30
0.0
 11
67.157556
 21
179.947184
 31
0.0
  0
LINE
  5
1207
100
AcDbEntity
  8
10000_FRONT
370
    25
390
0
  6
CONTINUOUS
 62
     7
100
AcDbLine
 10
67.155963
 20
165.935155
 30
0.0
 11
67.157556
 21
165.947184
 31
0.0
  0
LINE
  5
1208
100
AcDbEntity
  8
10000_FRONT
370
    25
390
0
  6
CONTINUOUS
 62
     7
100
AcDbLine
 10
65.7325
 20
127.008221
 30
0.0
 11
65.733814
 21
127.018496
 31
0.0
  0
LINE
  5
1209
100
AcDbEntity
  8
10000_FRONT
370
    25
390
0
  6
CONTINUOUS
 62
     7
100
AcDbLine
 10
65.7325
 20
141.008221
 30
0.0
 11
65.733814
 21
141.018496
 31
0.0
  0
LINE
  5
120A
100
AcDbEntity
  8
10000_FRONT
370
    25
390
0
  6
CONTINUOUS
 62
     7
100
AcDbLine
 10
65.7325
 20
171.008221
 30
0.0
 11
65.733814
 21
171.018496
 31
0.0
  0
LINE
  5
120B
100
AcDbEntity
  8
10000_FRONT
370
    25
390
0
  6
CONTINUOUS
 62
     7
100
AcDbLine
 10
65.7325
 20
185.008221
 30
0.0
 11
65.733814
 21
185.018496
 31
0.0
  0
LINE
  5
120C
100
AcDbEntity
  8
10000_FRONT
370
    25
390
0
  6
CONTINUOUS
 62
     7
100
AcDbLine
 10
67.157556
 20
121.947184
 30
0.0
 11
67.159065
 21
121.960485
 31
0.0
  0
LINE
  5
120D
100
AcDbEntity
  8
10000_FRONT
370
    25
390
0
  6
CONTINUOUS
 62
     7
100
AcDbLine
 10
67.157556
 20
135.947184
 30
0.0
 11
67.159065
 21
135.960485
 31
0.0
  0
LINE
  5
120E
100
AcDbEntity
  8
10000_FRONT
370
    25
390
0
  6
CONTINUOUS
 62
     7
100
AcDbLine
 10
67.157556
 20
179.947184
 30
0.0
 11
67.159065
 21
179.960485
 31
0.0
  0
LINE
  5
120F
100
AcDbEntity
  8
10000_FRONT
370
    25
390
0
  6
CONTINUOUS
 62
     7
100
AcDbLine
 10
67.157556
 20
165.947184
 30
0.0
 11
67.159065
 21
165.960486
 31
0.0
  0
LINE
  5
1210
100
AcDbEntity
  8
10000_FRONT
370
    25
390
0
  6
CONTINUOUS
 62
     7
100
AcDbLine
 10
65.731245
 20
126.997078
 30
0.0
 11
65.7325
 21
127.008221
 31
0.0
  0
LINE
  5
1211
100
AcDbEntity
  8
10000_FRONT
370
    25
390
0
  6
CONTINUOUS
 62
     7
100
AcDbLine
 10
65.731245
 20
140.997078
 30
0.0
 11
65.7325
 21
141.008221
 31
0.0
  0
LINE
  5
1212
100
AcDbEntity
  8
10000_FRONT
370
    25
390
0
  6
CONTINUOUS
 62
     7
100
AcDbLine
 10
65.731245
 20
170.997078
 30
0.0
 11
65.7325
 21
171.008221
 31
0.0
  0
LINE
  5
1213
100
AcDbEntity
  8
10000_FRONT
370
    25
390
0
  6
CONTINUOUS
 62
     7
100
AcDbLine
 10
65.731245
 20
184.997078
 30
0.0
 11
65.7325
 21
185.008221
 31
0.0
  0
LINE
  5
1214
100
AcDbEntity
  8
10000_FRONT
370
    25
390
0
  6
CONTINUOUS
 62
     7
100
AcDbLine
 10
65.730072
 20
126.985321
 30
0.0
 11
65.731245
 21
126.997078
 31
0.0
  0
LINE
  5
1215
100
AcDbEntity
  8
10000_FRONT
370
    25
390
0
  6
CONTINUOUS
 62
     7
100
AcDbLine
 10
65.730072
 20
170.985321
 30
0.0
 11
65.731245
 21
170.997078
 31
0.0
  0
LINE
  5
1216
100
AcDbEntity
  8
10000_FRONT
370
    25
390
0
  6
CONTINUOUS
 62
     7
100
AcDbLine
 10
65.730072
 20
184.985321
 30
0.0
 11
65.731245
 21
184.997078
 31
0.0
  0
LINE
  5
1217
100
AcDbEntity
  8
10000_FRONT
370
    25
390
0
  6
CONTINUOUS
 62
     7
100
AcDbLine
 10
65.730072
 20
140.98532
 30
0.0
 11
65.731245
 21
140.997078
 31
0.0
  0
LINE
  5
1218
100
AcDbEntity
  8
10000_FRONT
370
    25
390
0
  6
CONTINUOUS
 62
     7
100
AcDbLine
 10
67.159065
 20
165.960486
 30
0.0
 11
67.160444
 21
165.974618
 31
0.0
  0
LINE
  5
1219
100
AcDbEntity
  8
10000_FRONT
370
    25
390
0
  6
CONTINUOUS
 62
     7
100
AcDbLine
 10
67.159065
 20
121.960485
 30
0.0
 11
67.160444
 21
121.974619
 31
0.0
  0
LINE
  5
121A
100
AcDbEntity
  8
10000_FRONT
370
    25
390
0
  6
CONTINUOUS
 62
     7
100
AcDbLine
 10
67.159065
 20
135.960485
 30
0.0
 11
67.160444
 21
135.974619
 31
0.0
  0
LINE
  5
121B
100
AcDbEntity
  8
10000_FRONT
370
    25
390
0
  6
CONTINUOUS
 62
     7
100
AcDbLine
 10
67.159065
 20
179.960485
 30
0.0
 11
67.160444
 21
179.974619
 31
0.0
  0
LINE
  5
121C
100
AcDbEntity
  8
10000_FRONT
370
    25
390
0
  6
CONTINUOUS
 62
     7
100
AcDbLine
 10
65.729006
 20
140.973201
 30
0.0
 11
65.730072
 21
140.98532
 31
0.0
  0
LINE
  5
121D
100
AcDbEntity
  8
10000_FRONT
370
    25
390
0
  6
CONTINUOUS
 62
     7
100
AcDbLine
 10
65.729006
 20
126.9732
 30
0.0
 11
65.730072
 21
126.985321
 31
0.0
  0
LINE
  5
121E
100
AcDbEntity
  8
10000_FRONT
370
    25
390
0
  6
CONTINUOUS
 62
     7
100
AcDbLine
 10
65.729006
 20
170.9732
 30
0.0
 11
65.730072
 21
170.985321
 31
0.0
  0
LINE
  5
121F
100
AcDbEntity
  8
10000_FRONT
370
    25
390
0
  6
CONTINUOUS
 62
     7
100
AcDbLine
 10
65.729006
 20
184.9732
 30
0.0
 11
65.730072
 21
184.985321
 31
0.0
  0
LINE
  5
1220
100
AcDbEntity
  8
10000_FRONT
370
    25
390
0
  6
CONTINUOUS
 62
     7
100
AcDbLine
 10
67.160444
 20
121.974619
 30
0.0
 11
67.161653
 21
121.989134
 31
0.0
  0
LINE
  5
1221
100
AcDbEntity
  8
10000_FRONT
370
    25
390
0
  6
CONTINUOUS
 62
     7
100
AcDbLine
 10
67.160444
 20
135.974619
 30
0.0
 11
67.161653
 21
135.989134
 31
0.0
  0
LINE
  5
1222
100
AcDbEntity
  8
10000_FRONT
370
    25
390
0
  6
CONTINUOUS
 62
     7
100
AcDbLine
 10
67.160444
 20
179.974619
 30
0.0
 11
67.161653
 21
179.989134
 31
0.0
  0
LINE
  5
1223
100
AcDbEntity
  8
10000_FRONT
370
    25
390
0
  6
CONTINUOUS
 62
     7
100
AcDbLine
 10
67.160444
 20
165.974618
 30
0.0
 11
67.161653
 21
165.989135
 31
0.0
  0
LINE
  5
1224
100
AcDbEntity
  8
10000_FRONT
370
    25
390
0
  6
CONTINUOUS
 62
     7
100
AcDbLine
 10
65.728071
 20
126.960972
 30
0.0
 11
65.729006
 21
126.9732
 31
0.0
  0
LINE
  5
1225
100
AcDbEntity
  8
10000_FRONT
370
    25
390
0
  6
CONTINUOUS
 62
     7
100
AcDbLine
 10
65.728071
 20
170.960972
 30
0.0
 11
65.729006
 21
170.9732
 31
0.0
  0
LINE
  5
1226
100
AcDbEntity
  8
10000_FRONT
370
    25
390
0
  6
CONTINUOUS
 62
     7
100
AcDbLine
 10
65.728071
 20
184.960972
 30
0.0
 11
65.729006
 21
184.9732
 31
0.0
  0
LINE
  5
1227
100
AcDbEntity
  8
10000_FRONT
370
    25
390
0
  6
CONTINUOUS
 62
     7
100
AcDbLine
 10
65.728071
 20
140.960972
 30
0.0
 11
65.729006
 21
140.973201
 31
0.0
  0
LINE
  5
1228
100
AcDbEntity
  8
10000_FRONT
370
    25
390
0
  6
CONTINUOUS
 62
     7
100
AcDbLine
 10
67.161653
 20
165.989135
 30
0.0
 11
67.162646
 21
166.003592
 31
0.0
  0
LINE
  5
1229
100
AcDbEntity
  8
10000_FRONT
370
    25
390
0
  6
CONTINUOUS
 62
     7
100
AcDbLine
 10
67.161653
 20
121.989134
 30
0.0
 11
67.162646
 21
122.003592
 31
0.0
  0
LINE
  5
122A
100
AcDbEntity
  8
10000_FRONT
370
    25
390
0
  6
CONTINUOUS
 62
     7
100
AcDbLine
 10
67.161653
 20
135.989134
 30
0.0
 11
67.162646
 21
136.003592
 31
0.0
  0
LINE
  5
122B
100
AcDbEntity
  8
10000_FRONT
370
    25
390
0
  6
CONTINUOUS
 62
     7
100
AcDbLine
 10
67.161653
 20
179.989134
 30
0.0
 11
67.162646
 21
180.003592
 31
0.0
  0
LINE
  5
122C
100
AcDbEntity
  8
10000_FRONT
370
    25
390
0
  6
CONTINUOUS
 62
     7
100
AcDbLine
 10
65.727289
 20
126.94887
 30
0.0
 11
65.728071
 21
126.960972
 31
0.0
  0
LINE
  5
122D
100
AcDbEntity
  8
10000_FRONT
370
    25
390
0
  6
CONTINUOUS
 62
     7
100
AcDbLine
 10
65.727289
 20
140.94887
 30
0.0
 11
65.728071
 21
140.960972
 31
0.0
  0
LINE
  5
122E
100
AcDbEntity
  8
10000_FRONT
370
    25
390
0
  6
CONTINUOUS
 62
     7
100
AcDbLine
 10
65.727289
 20
170.94887
 30
0.0
 11
65.728071
 21
170.960972
 31
0.0
  0
LINE
  5
122F
100
AcDbEntity
  8
10000_FRONT
370
    25
390
0
  6
CONTINUOUS
 62
     7
100
AcDbLine
 10
65.727289
 20
184.94887
 30
0.0
 11
65.728071
 21
184.960972
 31
0.0
  0
LINE
  5
1230
100
AcDbEntity
  8
10000_FRONT
370
    25
390
0
  6
CONTINUOUS
 62
     7
100
AcDbLine
 10
62.86662
 20
126.117485
 30
0.0
 11
63.009421
 21
128.716459
 31
0.0
  0
LINE
  5
1231
100
AcDbEntity
  8
10000_FRONT
370
    25
390
0
  6
CONTINUOUS
 62
     7
100
AcDbLine
 10
62.525
 20
119.900002
 30
0.0
 11
62.711432
 21
123.293062
 31
0.0
  0
LINE
  5
1232
100
AcDbEntity
  8
10000_FRONT
370
    25
390
0
  6
CONTINUOUS
 62
     7
100
AcDbLine
 10
61.523492
 20
119.900002
 30
0.0
 11
61.858658
 21
126.000019
 31
0.0
  0
LINE
  5
1233
100
AcDbEntity
  8
10000_FRONT
370
    25
390
0
  6
CONTINUOUS
 62
     7
100
AcDbLine
 10
61.497527
 20
119.427433
 30
0.0
 11
61.523492
 21
119.900002
 31
0.0
  0
LINE
  5
1234
100
AcDbEntity
  8
10000_FRONT
370
    25
390
0
  6
CONTINUOUS
 62
     7
100
AcDbLine
 10
67.162646
 20
122.003592
 30
0.0
 11
67.16345
 21
122.018579
 31
0.0
  0
LINE
  5
1235
100
AcDbEntity
  8
10000_FRONT
370
    25
390
0
  6
CONTINUOUS
 62
     7
100
AcDbLine
 10
67.162646
 20
136.003592
 30
0.0
 11
67.16345
 21
136.018579
 31
0.0
  0
LINE
  5
1236
100
AcDbEntity
  8
10000_FRONT
370
    25
390
0
  6
CONTINUOUS
 62
     7
100
AcDbLine
 10
67.162646
 20
166.003592
 30
0.0
 11
67.16345
 21
166.018579
 31
0.0
  0
LINE
  5
1237
100
AcDbEntity
  8
10000_FRONT
370
    25
390
0
  6
CONTINUOUS
 62
     7
100
AcDbLine
 10
67.162646
 20
180.003592
 30
0.0
 11
67.16345
 21
180.018579
 31
0.0
  0
LINE
  5
1238
100
AcDbEntity
  8
10000_FRONT
370
    25
390
0
  6
CONTINUOUS
 62
     7
100
AcDbLine
 10
65.726627
 20
126.936277
 30
0.0
 11
65.727289
 21
126.94887
 31
0.0
  0
LINE
  5
1239
100
AcDbEntity
  8
10000_FRONT
370
    25
390
0
  6
CONTINUOUS
 62
     7
100
AcDbLine
 10
65.726627
 20
170.936277
 30
0.0
 11
65.727289
 21
170.94887
 31
0.0
  0
LINE
  5
123A
100
AcDbEntity
  8
10000_FRONT
370
    25
390
0
  6
CONTINUOUS
 62
     7
100
AcDbLine
 10
65.726627
 20
184.936277
 30
0.0
 11
65.727289
 21
184.94887
 31
0.0
  0
LINE
  5
123B
100
AcDbEntity
  8
10000_FRONT
370
    25
390
0
  6
CONTINUOUS
 62
     7
100
AcDbLine
 10
65.726627
 20
140.936276
 30
0.0
 11
65.727289
 21
140.94887
 31
0.0
  0
LINE
  5
123C
100
AcDbEntity
  8
10000_FRONT
370
    25
390
0
  6
CONTINUOUS
 62
     7
100
AcDbLine
 10
65.726065
 20
126.922979
 30
0.0
 11
65.726627
 21
126.936277
 31
0.0
  0
LINE
  5
123D
100
AcDbEntity
  8
10000_FRONT
370
    25
390
0
  6
CONTINUOUS
 62
     7
100
AcDbLine
 10
65.726065
 20
140.922978
 30
0.0
 11
65.726627
 21
140.936276
 31
0.0
  0
LINE
  5
123E
100
AcDbEntity
  8
10000_FRONT
370
    25
390
0
  6
CONTINUOUS
 62
     7
100
AcDbLine
 10
65.726065
 20
170.922979
 30
0.0
 11
65.726627
 21
170.936277
 31
0.0
  0
LINE
  5
123F
100
AcDbEntity
  8
10000_FRONT
370
    25
390
0
  6
CONTINUOUS
 62
     7
100
AcDbLine
 10
65.726065
 20
184.922979
 30
0.0
 11
65.726627
 21
184.936277
 31
0.0
  0
LINE
  5
1240
100
AcDbEntity
  8
10000_FRONT
370
    25
390
0
  6
CONTINUOUS
 62
     7
100
AcDbLine
 10
67.16345
 20
166.018579
 30
0.0
 11
67.164103
 21
166.034568
 31
0.0
  0
LINE
  5
1241
100
AcDbEntity
  8
10000_FRONT
370
    25
390
0
  6
CONTINUOUS
 62
     7
100
AcDbLine
 10
67.16345
 20
122.018579
 30
0.0
 11
67.164103
 21
122.034569
 31
0.0
  0
LINE
  5
1242
100
AcDbEntity
  8
10000_FRONT
370
    25
390
0
  6
CONTINUOUS
 62
     7
100
AcDbLine
 10
67.16345
 20
136.018579
 30
0.0
 11
67.164103
 21
136.034569
 31
0.0
  0
LINE
  5
1243
100
AcDbEntity
  8
10000_FRONT
370
    25
390
0
  6
CONTINUOUS
 62
     7
100
AcDbLine
 10
67.16345
 20
180.018579
 30
0.0
 11
67.164103
 21
180.034569
 31
0.0
  0
LINE
  5
1244
100
AcDbEntity
  8
10000_FRONT
370
    25
390
0
  6
CONTINUOUS
 62
     7
100
AcDbLine
 10
65.725612
 20
140.909266
 30
0.0
 11
65.726065
 21
140.922978
 31
0.0
  0
LINE
  5
1245
100
AcDbEntity
  8
10000_FRONT
370
    25
390
0
  6
CONTINUOUS
 62
     7
100
AcDbLine
 10
65.725612
 20
126.909266
 30
0.0
 11
65.726065
 21
126.922979
 31
0.0
  0
LINE
  5
1246
100
AcDbEntity
  8
10000_FRONT
370
    25
390
0
  6
CONTINUOUS
 62
     7
100
AcDbLine
 10
65.725612
 20
170.909266
 30
0.0
 11
65.726065
 21
170.922979
 31
0.0
  0
LINE
  5
1247
100
AcDbEntity
  8
10000_FRONT
370
    25
390
0
  6
CONTINUOUS
 62
     7
100
AcDbLine
 10
65.725612
 20
184.909266
 30
0.0
 11
65.726065
 21
184.922979
 31
0.0
  0
LINE
  5
1248
100
AcDbEntity
  8
10000_FRONT
370
    25
390
0
  6
CONTINUOUS
 62
     7
100
AcDbLine
 10
67.164103
 20
122.034569
 30
0.0
 11
67.164591
 21
122.051035
 31
0.0
  0
LINE
  5
1249
100
AcDbEntity
  8
10000_FRONT
370
    25
390
0
  6
CONTINUOUS
 62
     7
100
AcDbLine
 10
67.164103
 20
136.034569
 30
0.0
 11
67.164591
 21
136.051035
 31
0.0
  0
LINE
  5
124A
100
AcDbEntity
  8
10000_FRONT
370
    25
390
0
  6
CONTINUOUS
 62
     7
100
AcDbLine
 10
67.164103
 20
166.034568
 30
0.0
 11
67.164591
 21
166.051034
 31
0.0
  0
LINE
  5
124B
100
AcDbEntity
  8
10000_FRONT
370
    25
390
0
  6
CONTINUOUS
 62
     7
100
AcDbLine
 10
67.164103
 20
180.034569
 30
0.0
 11
67.164591
 21
180.051035
 31
0.0
  0
LINE
  5
124C
100
AcDbEntity
  8
10000_FRONT
370
    25
390
0
  6
CONTINUOUS
 62
     7
100
AcDbLine
 10
65.725278
 20
126.89543
 30
0.0
 11
65.725612
 21
126.909266
 31
0.0
  0
LINE
  5
124D
100
AcDbEntity
  8
10000_FRONT
370
    25
390
0
  6
CONTINUOUS
 62
     7
100
AcDbLine
 10
65.725278
 20
170.89543
 30
0.0
 11
65.725612
 21
170.909266
 31
0.0
  0
LINE
  5
124E
100
AcDbEntity
  8
10000_FRONT
370
    25
390
0
  6
CONTINUOUS
 62
     7
100
AcDbLine
 10
65.725278
 20
184.89543
 30
0.0
 11
65.725612
 21
184.909266
 31
0.0
  0
LINE
  5
124F
100
AcDbEntity
  8
10000_FRONT
370
    25
390
0
  6
CONTINUOUS
 62
     7
100
AcDbLine
 10
65.725278
 20
140.895429
 30
0.0
 11
65.725612
 21
140.909266
 31
0.0
  0
LINE
  5
1250
100
AcDbEntity
  8
10000_FRONT
370
    25
390
0
  6
CONTINUOUS
 62
     7
100
AcDbLine
 10
67.164591
 20
122.051035
 30
0.0
 11
67.164895
 21
122.067455
 31
0.0
  0
LINE
  5
1251
100
AcDbEntity
  8
10000_FRONT
370
    25
390
0
  6
CONTINUOUS
 62
     7
100
AcDbLine
 10
67.164591
 20
136.051035
 30
0.0
 11
67.164895
 21
136.067455
 31
0.0
  0
LINE
  5
1252
100
AcDbEntity
  8
10000_FRONT
370
    25
390
0
  6
CONTINUOUS
 62
     7
100
AcDbLine
 10
67.164591
 20
180.051035
 30
0.0
 11
67.164895
 21
180.067455
 31
0.0
  0
LINE
  5
1253
100
AcDbEntity
  8
10000_FRONT
370
    25
390
0
  6
CONTINUOUS
 62
     7
100
AcDbLine
 10
67.164591
 20
166.051034
 30
0.0
 11
67.164895
 21
166.067455
 31
0.0
  0
LINE
  5
1254
100
AcDbEntity
  8
10000_FRONT
370
    25
390
0
  6
CONTINUOUS
 62
     7
100
AcDbLine
 10
65.725071
 20
140.881758
 30
0.0
 11
65.725278
 21
140.895429
 31
0.0
  0
LINE
  5
1255
100
AcDbEntity
  8
10000_FRONT
370
    25
390
0
  6
CONTINUOUS
 62
     7
100
AcDbLine
 10
65.725071
 20
126.881758
 30
0.0
 11
65.725278
 21
126.89543
 31
0.0
  0
LINE
  5
1256
100
AcDbEntity
  8
10000_FRONT
370
    25
390
0
  6
CONTINUOUS
 62
     7
100
AcDbLine
 10
65.725071
 20
170.881758
 30
0.0
 11
65.725278
 21
170.89543
 31
0.0
  0
LINE
  5
1257
100
AcDbEntity
  8
10000_FRONT
370
    25
390
0
  6
CONTINUOUS
 62
     7
100
AcDbLine
 10
65.725071
 20
184.881758
 30
0.0
 11
65.725278
 21
184.89543
 31
0.0
  0
LINE
  5
1258
100
AcDbEntity
  8
10000_FRONT
370
    25
390
0
  6
CONTINUOUS
 62
     7
100
AcDbLine
 10
67.164895
 20
122.067455
 30
0.0
 11
67.165
 21
122.083307
 31
0.0
  0
LINE
  5
1259
100
AcDbEntity
  8
10000_FRONT
370
    25
390
0
  6
CONTINUOUS
 62
     7
100
AcDbLine
 10
67.164895
 20
136.067455
 30
0.0
 11
67.165
 21
136.083307
 31
0.0
  0
LINE
  5
125A
100
AcDbEntity
  8
10000_FRONT
370
    25
390
0
  6
CONTINUOUS
 62
     7
100
AcDbLine
 10
67.164895
 20
180.067455
 30
0.0
 11
67.165
 21
180.083307
 31
0.0
  0
LINE
  5
125B
100
AcDbEntity
  8
10000_FRONT
370
    25
390
0
  6
CONTINUOUS
 62
     7
100
AcDbLine
 10
67.164895
 20
166.067455
 30
0.0
 11
67.165
 21
166.083308
 31
0.0
  0
LINE
  5
125C
100
AcDbEntity
  8
10000_FRONT
370
    25
390
0
  6
CONTINUOUS
 62
     7
100
AcDbLine
 10
65.725
 20
126.868544
 30
0.0
 11
65.725071
 21
126.881758
 31
0.0
  0
LINE
  5
125D
100
AcDbEntity
  8
10000_FRONT
370
    25
390
0
  6
CONTINUOUS
 62
     7
100
AcDbLine
 10
65.725
 20
140.868544
 30
0.0
 11
65.725071
 21
140.881758
 31
0.0
  0
LINE
  5
125E
100
AcDbEntity
  8
10000_FRONT
370
    25
390
0
  6
CONTINUOUS
 62
     7
100
AcDbLine
 10
65.725
 20
170.868544
 30
0.0
 11
65.725071
 21
170.881758
 31
0.0
  0
LINE
  5
125F
100
AcDbEntity
  8
10000_FRONT
370
    25
390
0
  6
CONTINUOUS
 62
     7
100
AcDbLine
 10
65.725
 20
184.868544
 30
0.0
 11
65.725071
 21
184.881758
 31
0.0
  0
LINE
  5
1260
100
AcDbEntity
  8
10000_FRONT
370
    25
390
0
  6
CONTINUOUS
 62
     7
100
AcDbLine
 10
53.2752
 20
151.5
 30
0.0
 11
53.2752
 21
155.5
 31
0.0
  0
LINE
  5
1261
100
AcDbEntity
  8
10000_FRONT
370
    25
390
0
  6
CONTINUOUS
 62
     7
100
AcDbLine
 10
58.025
 20
129.4
 30
0.0
 11
58.025
 21
129.799999
 31
0.0
  0
LINE
  5
1262
100
AcDbEntity
  8
10000_FRONT
370
    25
390
0
  6
CONTINUOUS
 62
     7
100
AcDbLine
 10
58.025
 20
177.200001
 30
0.0
 11
58.025
 21
177.6
 31
0.0
  0
LINE
  5
1263
100
AcDbEntity
  8
10000_FRONT
370
    25
390
0
  6
CONTINUOUS
 62
     7
100
AcDbLine
 10
58.125
 20
172.0
 30
0.0
 11
58.125
 21
175.0
 31
0.0
  0
LINE
  5
1264
100
AcDbEntity
  8
10000_FRONT
370
    25
390
0
  6
CONTINUOUS
 62
     7
100
AcDbLine
 10
58.125
 20
132.0
 30
0.0
 11
58.125
 21
135.0
 31
0.0
  0
LINE
  5
1265
100
AcDbEntity
  8
10000_FRONT
370
    25
390
0
  6
CONTINUOUS
 62
     7
100
AcDbLine
 10
59.025
 20
181.200001
 30
0.0
 11
59.025
 21
184.700001
 31
0.0
  0
LINE
  5
1266
100
AcDbEntity
  8
10000_FRONT
370
    25
390
0
  6
CONTINUOUS
 62
     7
100
AcDbLine
 10
59.025
 20
122.297501
 30
0.0
 11
59.025
 21
125.799999
 31
0.0
  0
LINE
  5
1267
100
AcDbEntity
  8
10000_FRONT
370
    25
390
0
  6
CONTINUOUS
 62
     7
100
AcDbLine
 10
59.775
 20
181.200001
 30
0.0
 11
59.775
 21
184.700001
 31
0.0
  0
LINE
  5
1268
100
AcDbEntity
  8
10000_FRONT
370
    25
390
0
  6
CONTINUOUS
 62
     7
100
AcDbLine
 10
59.775
 20
122.297501
 30
0.0
 11
59.775
 21
125.799999
 31
0.0
  0
LINE
  5
1269
100
AcDbEntity
  8
10000_FRONT
370
    25
390
0
  6
CONTINUOUS
 62
     7
100
AcDbLine
 10
59.975
 20
127.9
 30
0.0
 11
59.975
 21
129.0
 31
0.0
  0
LINE
  5
126A
100
AcDbEntity
  8
10000_FRONT
370
    25
390
0
  6
CONTINUOUS
 62
     7
100
AcDbLine
 10
59.975
 20
178.0
 30
0.0
 11
59.975
 21
179.1
 31
0.0
  0
LINE
  5
126B
100
AcDbEntity
  8
10000_FRONT
370
    25
390
0
  6
CONTINUOUS
 62
     7
100
AcDbLine
 10
61.497527
 20
187.572567
 30
0.0
 11
61.497527
 21
188.099998
 31
0.0
  0
LINE
  5
126C
100
AcDbEntity
  8
10000_FRONT
370
    25
390
0
  6
CONTINUOUS
 62
     7
100
AcDbLine
 10
61.497527
 20
118.900002
 30
0.0
 11
61.497527
 21
119.427433
 31
0.0
  0
LINE
  5
126D
100
AcDbEntity
  8
10000_FRONT
370
    25
390
0
  6
CONTINUOUS
 62
     7
100
AcDbLine
 10
61.525
 20
113.5
 30
0.0
 11
61.525
 21
118.900009
 31
0.0
  0
LINE
  5
126E
100
AcDbEntity
  8
10000_FRONT
370
    25
390
0
  6
CONTINUOUS
 62
     7
100
AcDbLine
 10
61.525
 20
119.927307
 30
0.0
 11
61.525
 21
121.700001
 31
0.0
  0
LINE
  5
126F
100
AcDbEntity
  8
10000_FRONT
370
    25
390
0
  6
CONTINUOUS
 62
     7
100
AcDbLine
 10
61.525
 20
121.700001
 30
0.0
 11
61.525
 21
122.5
 31
0.0
  0
LINE
  5
1270
100
AcDbEntity
  8
10000_FRONT
370
    25
390
0
  6
CONTINUOUS
 62
     7
100
AcDbLine
 10
61.525
 20
122.5
 30
0.0
 11
61.525
 21
123.299999
 31
0.0
  0
LINE
  5
1271
100
AcDbEntity
  8
10000_FRONT
370
    25
390
0
  6
CONTINUOUS
 62
     7
100
AcDbLine
 10
61.525
 20
123.299999
 30
0.0
 11
61.525
 21
126.000025
 31
0.0
  0
LINE
  5
1272
100
AcDbEntity
  8
10000_FRONT
370
    25
390
0
  6
CONTINUOUS
 62
     7
100
AcDbLine
 10
61.525
 20
126.0
 30
0.0
 11
61.525
 21
127.460764
 31
0.0
  0
LINE
  5
1273
100
AcDbEntity
  8
10000_FRONT
370
    25
390
0
  6
CONTINUOUS
 62
     7
100
AcDbLine
 10
61.525
 20
127.460764
 30
0.0
 11
61.525
 21
134.0
 31
0.0
  0
LINE
  5
1274
100
AcDbEntity
  8
10000_FRONT
370
    25
390
0
  6
CONTINUOUS
 62
     7
100
AcDbLine
 10
61.525
 20
134.0
 30
0.0
 11
61.525
 21
173.0
 31
0.0
  0
LINE
  5
1275
100
AcDbEntity
  8
10000_FRONT
370
    25
390
0
  6
CONTINUOUS
 62
     7
100
AcDbLine
 10
61.525
 20
173.0
 30
0.0
 11
61.525
 21
179.539236
 31
0.0
  0
LINE
  5
1276
100
AcDbEntity
  8
10000_FRONT
370
    25
390
0
  6
CONTINUOUS
 62
     7
100
AcDbLine
 10
61.525
 20
179.539236
 30
0.0
 11
61.525
 21
181.0
 31
0.0
  0
LINE
  5
1277
100
AcDbEntity
  8
10000_FRONT
370
    25
390
0
  6
CONTINUOUS
 62
     7
100
AcDbLine
 10
61.525
 20
181.000025
 30
0.0
 11
61.525
 21
183.700001
 31
0.0
  0
LINE
  5
1278
100
AcDbEntity
  8
10000_FRONT
370
    25
390
0
  6
CONTINUOUS
 62
     7
100
AcDbLine
 10
61.525
 20
183.700001
 30
0.0
 11
61.525
 21
184.5
 31
0.0
  0
LINE
  5
1279
100
AcDbEntity
  8
10000_FRONT
370
    25
390
0
  6
CONTINUOUS
 62
     7
100
AcDbLine
 10
61.525
 20
184.5
 30
0.0
 11
61.525
 21
185.299999
 31
0.0
  0
LINE
  5
127A
100
AcDbEntity
  8
10000_FRONT
370
    25
390
0
  6
CONTINUOUS
 62
     7
100
AcDbLine
 10
61.525
 20
185.299999
 30
0.0
 11
61.525
 21
187.072708
 31
0.0
  0
LINE
  5
127B
100
AcDbEntity
  8
10000_FRONT
370
    25
390
0
  6
CONTINUOUS
 62
     7
100
AcDbLine
 10
61.525
 20
188.10001
 30
0.0
 11
61.525
 21
192.0
 31
0.0
  0
LINE
  5
127C
100
AcDbEntity
  8
10000_FRONT
370
    25
390
0
  6
CONTINUOUS
 62
     7
100
AcDbLine
 10
61.525
 20
192.0
 30
0.0
 11
61.525
 21
193.5
 31
0.0
  0
LINE
  5
127D
100
AcDbEntity
  8
10000_FRONT
370
    25
390
0
  6
CONTINUOUS
 62
     7
100
AcDbLine
 10
62.625
 20
181.611214
 30
0.0
 11
62.625
 21
183.388798
 31
0.0
  0
LINE
  5
127E
100
AcDbEntity
  8
10000_FRONT
370
    25
390
0
  6
CONTINUOUS
 62
     7
100
AcDbLine
 10
62.625
 20
185.280035
 30
0.0
 11
62.625
 21
185.299999
 31
0.0
  0
LINE
  5
127F
100
AcDbEntity
  8
10000_FRONT
370
    25
390
0
  6
CONTINUOUS
 62
     7
100
AcDbLine
 10
62.625
 20
192.0
 30
0.0
 11
62.625
 21
193.5
 31
0.0
  0
LINE
  5
1280
100
AcDbEntity
  8
10000_FRONT
370
    25
390
0
  6
CONTINUOUS
 62
     7
100
AcDbLine
 10
62.625
 20
190.549999
 30
0.0
 11
62.625
 21
192.0
 31
0.0
  0
LINE
  5
1281
100
AcDbEntity
  8
10000_FRONT
370
    25
390
0
  6
CONTINUOUS
 62
     7
100
AcDbLine
 10
62.625
 20
179.539236
 30
0.0
 11
62.625
 21
181.0
 31
0.0
  0
LINE
  5
1282
100
AcDbEntity
  8
10000_FRONT
370
    25
390
0
  6
CONTINUOUS
 62
     7
100
AcDbLine
 10
62.625
 20
178.0
 30
0.0
 11
62.625
 21
179.539236
 31
0.0
  0
LINE
  5
1283
100
AcDbEntity
  8
10000_FRONT
370
    25
390
0
  6
CONTINUOUS
 62
     7
100
AcDbLine
 10
62.625
 20
115.0
 30
0.0
 11
62.625
 21
116.450001
 31
0.0
  0
LINE
  5
1284
100
AcDbEntity
  8
10000_FRONT
370
    25
390
0
  6
CONTINUOUS
 62
     7
100
AcDbLine
 10
62.625
 20
113.5
 30
0.0
 11
62.625
 21
115.0
 31
0.0
  0
LINE
  5
1285
100
AcDbEntity
  8
10000_FRONT
370
    25
390
0
  6
CONTINUOUS
 62
     7
100
AcDbLine
 10
62.625
 20
123.611214
 30
0.0
 11
62.625
 21
125.388798
 31
0.0
  0
LINE
  5
1286
100
AcDbEntity
  8
10000_FRONT
370
    25
390
0
  6
CONTINUOUS
 62
     7
100
AcDbLine
 10
62.625
 20
121.700001
 30
0.0
 11
62.625
 21
121.71998
 31
0.0
  0
LINE
  5
1287
100
AcDbEntity
  8
10000_FRONT
370
    25
390
0
  6
CONTINUOUS
 62
     7
100
AcDbLine
 10
62.625
 20
127.460764
 30
0.0
 11
62.625
 21
129.0
 31
0.0
  0
LINE
  5
1288
100
AcDbEntity
  8
10000_FRONT
370
    25
390
0
  6
CONTINUOUS
 62
     7
100
AcDbLine
 10
62.625
 20
126.0
 30
0.0
 11
62.625
 21
127.460764
 31
0.0
  0
LINE
  5
1289
100
AcDbEntity
  8
10000_FRONT
370
    25
390
0
  6
CONTINUOUS
 62
     7
100
AcDbLine
 10
62.825
 20
136.980131
 30
0.0
 11
62.825
 21
140.019869
 31
0.0
  0
LINE
  5
128A
100
AcDbEntity
  8
10000_FRONT
370
    25
390
0
  6
CONTINUOUS
 62
     7
100
AcDbLine
 10
62.825
 20
166.980131
 30
0.0
 11
62.825
 21
170.019869
 31
0.0
  0
LINE
  5
128B
100
AcDbEntity
  8
10000_FRONT
370
    25
390
0
  6
CONTINUOUS
 62
     7
100
AcDbLine
 10
64.675
 20
138.015
 30
0.0
 11
64.675
 21
139.015
 31
0.0
  0
LINE
  5
128C
100
AcDbEntity
  8
10000_FRONT
370
    25
390
0
  6
CONTINUOUS
 62
     7
100
AcDbLine
 10
64.675
 20
124.014999
 30
0.0
 11
64.675
 21
125.014999
 31
0.0
  0
LINE
  5
128D
100
AcDbEntity
  8
10000_FRONT
370
    25
390
0
  6
CONTINUOUS
 62
     7
100
AcDbLine
 10
64.675
 20
182.014999
 30
0.0
 11
64.675
 21
183.014999
 31
0.0
  0
LINE
  5
128E
100
AcDbEntity
  8
10000_FRONT
370
    25
390
0
  6
CONTINUOUS
 62
     7
100
AcDbLine
 10
64.675
 20
168.015
 30
0.0
 11
64.675
 21
169.015
 31
0.0
  0
LINE
  5
128F
100
AcDbEntity
  8
10000_FRONT
370
    25
390
0
  6
CONTINUOUS
 62
     7
100
AcDbLine
 10
65.725
 20
136.131456
 30
0.0
 11
65.725
 21
138.015
 31
0.0
  0
LINE
  5
1290
100
AcDbEntity
  8
10000_FRONT
370
    25
390
0
  6
CONTINUOUS
 62
     7
100
AcDbLine
 10
65.725
 20
139.015
 30
0.0
 11
65.725
 21
140.868544
 31
0.0
  0
LINE
  5
1291
100
AcDbEntity
  8
10000_FRONT
370
    25
390
0
  6
CONTINUOUS
 62
     7
100
AcDbLine
 10
65.725
 20
122.131456
 30
0.0
 11
65.725
 21
124.014999
 31
0.0
  0
LINE
  5
1292
100
AcDbEntity
  8
10000_FRONT
370
    25
390
0
  6
CONTINUOUS
 62
     7
100
AcDbLine
 10
65.725
 20
125.014999
 30
0.0
 11
65.725
 21
126.868544
 31
0.0
  0
LINE
  5
1293
100
AcDbEntity
  8
10000_FRONT
370
    25
390
0
  6
CONTINUOUS
 62
     7
100
AcDbLine
 10
65.725
 20
180.131456
 30
0.0
 11
65.725
 21
182.014999
 31
0.0
  0
LINE
  5
1294
100
AcDbEntity
  8
10000_FRONT
370
    25
390
0
  6
CONTINUOUS
 62
     7
100
AcDbLine
 10
65.725
 20
183.014999
 30
0.0
 11
65.725
 21
184.868544
 31
0.0
  0
LINE
  5
1295
100
AcDbEntity
  8
10000_FRONT
370
    25
390
0
  6
CONTINUOUS
 62
     7
100
AcDbLine
 10
65.725
 20
166.131456
 30
0.0
 11
65.725
 21
168.015
 31
0.0
  0
LINE
  5
1296
100
AcDbEntity
  8
10000_FRONT
370
    25
390
0
  6
CONTINUOUS
 62
     7
100
AcDbLine
 10
65.725
 20
169.015
 30
0.0
 11
65.725
 21
170.868544
 31
0.0
  0
LINE
  5
1297
100
AcDbEntity
  8
10000_FRONT
370
    25
390
0
  6
CONTINUOUS
 62
     7
100
AcDbLine
 10
65.834744
 20
134.560007
 30
0.0
 11
65.834744
 21
135.683847
 31
0.0
  0
LINE
  5
1298
100
AcDbEntity
  8
10000_FRONT
370
    25
390
0
  6
CONTINUOUS
 62
     7
100
AcDbLine
 10
65.834744
 20
141.316153
 30
0.0
 11
65.834744
 21
142.439993
 31
0.0
  0
LINE
  5
1299
100
AcDbEntity
  8
10000_FRONT
370
    25
390
0
  6
CONTINUOUS
 62
     7
100
AcDbLine
 10
65.834744
 20
121.324146
 30
0.0
 11
65.834744
 21
121.683847
 31
0.0
  0
LINE
  5
129A
100
AcDbEntity
  8
10000_FRONT
370
    25
390
0
  6
CONTINUOUS
 62
     7
100
AcDbLine
 10
65.834744
 20
127.316153
 30
0.0
 11
65.834744
 21
127.675854
 31
0.0
  0
LINE
  5
129B
100
AcDbEntity
  8
10000_FRONT
370
    25
390
0
  6
CONTINUOUS
 62
     7
100
AcDbLine
 10
65.834744
 20
179.324146
 30
0.0
 11
65.834744
 21
179.683847
 31
0.0
  0
LINE
  5
129C
100
AcDbEntity
  8
10000_FRONT
370
    25
390
0
  6
CONTINUOUS
 62
     7
100
AcDbLine
 10
65.834744
 20
185.316153
 30
0.0
 11
65.834744
 21
185.675854
 31
0.0
  0
LINE
  5
129D
100
AcDbEntity
  8
10000_FRONT
370
    25
390
0
  6
CONTINUOUS
 62
     7
100
AcDbLine
 10
65.834744
 20
171.316153
 30
0.0
 11
65.834744
 21
172.439993
 31
0.0
  0
LINE
  5
129E
100
AcDbEntity
  8
10000_FRONT
370
    25
390
0
  6
CONTINUOUS
 62
     7
100
AcDbLine
 10
65.834744
 20
164.560007
 30
0.0
 11
65.834744
 21
165.683847
 31
0.0
  0
LINE
  5
129F
100
AcDbEntity
  8
10000_FRONT
370
    25
390
0
  6
CONTINUOUS
 62
     7
100
AcDbLine
 10
65.895
 20
139.015
 30
0.0
 11
65.895
 21
141.202781
 31
0.0
  0
LINE
  5
12A0
100
AcDbEntity
  8
10000_FRONT
370
    25
390
0
  6
CONTINUOUS
 62
     7
100
AcDbLine
 10
65.895
 20
135.79722
 30
0.0
 11
65.895
 21
138.015
 31
0.0
  0
LINE
  5
12A1
100
AcDbEntity
  8
10000_FRONT
370
    25
390
0
  6
CONTINUOUS
 62
     7
100
AcDbLine
 10
65.895
 20
125.014999
 30
0.0
 11
65.895
 21
127.20278
 31
0.0
  0
LINE
  5
12A2
100
AcDbEntity
  8
10000_FRONT
370
    25
390
0
  6
CONTINUOUS
 62
     7
100
AcDbLine
 10
65.895
 20
121.79722
 30
0.0
 11
65.895
 21
124.014999
 31
0.0
  0
LINE
  5
12A3
100
AcDbEntity
  8
10000_FRONT
370
    25
390
0
  6
CONTINUOUS
 62
     7
100
AcDbLine
 10
65.895
 20
179.79722
 30
0.0
 11
65.895
 21
182.014999
 31
0.0
  0
LINE
  5
12A4
100
AcDbEntity
  8
10000_FRONT
370
    25
390
0
  6
CONTINUOUS
 62
     7
100
AcDbLine
 10
65.895
 20
183.014999
 30
0.0
 11
65.895
 21
185.20278
 31
0.0
  0
LINE
  5
12A5
100
AcDbEntity
  8
10000_FRONT
370
    25
390
0
  6
CONTINUOUS
 62
     7
100
AcDbLine
 10
65.895
 20
165.797219
 30
0.0
 11
65.895
 21
168.015
 31
0.0
  0
LINE
  5
12A6
100
AcDbEntity
  8
10000_FRONT
370
    25
390
0
  6
CONTINUOUS
 62
     7
100
AcDbLine
 10
65.895
 20
169.015
 30
0.0
 11
65.895
 21
171.20278
 31
0.0
  0
LINE
  5
12A7
100
AcDbEntity
  8
10000_FRONT
370
    25
390
0
  6
CONTINUOUS
 62
     7
100
AcDbLine
 10
66.525
 20
142.5
 30
0.0
 11
66.525
 21
142.51
 31
0.0
  0
LINE
  5
12A8
100
AcDbEntity
  8
10000_FRONT
370
    25
390
0
  6
CONTINUOUS
 62
     7
100
AcDbLine
 10
66.525
 20
134.49
 30
0.0
 11
66.525
 21
134.5
 31
0.0
  0
LINE
  5
12A9
100
AcDbEntity
  8
10000_FRONT
370
    25
390
0
  6
CONTINUOUS
 62
     7
100
AcDbLine
 10
66.525
 20
121.240002
 30
0.0
 11
66.525
 21
121.25
 31
0.0
  0
LINE
  5
12AA
100
AcDbEntity
  8
10000_FRONT
370
    25
390
0
  6
CONTINUOUS
 62
     7
100
AcDbLine
 10
66.525
 20
127.75
 30
0.0
 11
66.525
 21
127.76
 31
0.0
  0
LINE
  5
12AB
100
AcDbEntity
  8
10000_FRONT
370
    25
390
0
  6
CONTINUOUS
 62
     7
100
AcDbLine
 10
66.525
 20
179.24
 30
0.0
 11
66.525
 21
179.25
 31
0.0
  0
LINE
  5
12AC
100
AcDbEntity
  8
10000_FRONT
370
    25
390
0
  6
CONTINUOUS
 62
     7
100
AcDbLine
 10
66.525
 20
185.75
 30
0.0
 11
66.525
 21
185.759998
 31
0.0
  0
LINE
  5
12AD
100
AcDbEntity
  8
10000_FRONT
370
    25
390
0
  6
CONTINUOUS
 62
     7
100
AcDbLine
 10
66.525
 20
172.5
 30
0.0
 11
66.525
 21
172.51
 31
0.0
  0
LINE
  5
12AE
100
AcDbEntity
  8
10000_FRONT
370
    25
390
0
  6
CONTINUOUS
 62
     7
100
AcDbLine
 10
66.525
 20
164.49
 30
0.0
 11
66.525
 21
164.5
 31
0.0
  0
LINE
  5
12AF
100
AcDbEntity
  8
10000_FRONT
370
    25
390
0
  6
CONTINUOUS
 62
     7
100
AcDbLine
 10
66.995
 20
139.015
 30
0.0
 11
66.995
 21
141.235146
 31
0.0
  0
LINE
  5
12B0
100
AcDbEntity
  8
10000_FRONT
370
    25
390
0
  6
CONTINUOUS
 62
     7
100
AcDbLine
 10
66.995
 20
135.764854
 30
0.0
 11
66.995
 21
138.015
 31
0.0
  0
LINE
  5
12B1
100
AcDbEntity
  8
10000_FRONT
370
    25
390
0
  6
CONTINUOUS
 62
     7
100
AcDbLine
 10
66.995
 20
125.014999
 30
0.0
 11
66.995
 21
127.235146
 31
0.0
  0
LINE
  5
12B2
100
AcDbEntity
  8
10000_FRONT
370
    25
390
0
  6
CONTINUOUS
 62
     7
100
AcDbLine
 10
66.995
 20
121.764854
 30
0.0
 11
66.995
 21
124.014999
 31
0.0
  0
LINE
  5
12B3
100
AcDbEntity
  8
10000_FRONT
370
    25
390
0
  6
CONTINUOUS
 62
     7
100
AcDbLine
 10
66.995
 20
179.764854
 30
0.0
 11
66.995
 21
182.014999
 31
0.0
  0
LINE
  5
12B4
100
AcDbEntity
  8
10000_FRONT
370
    25
390
0
  6
CONTINUOUS
 62
     7
100
AcDbLine
 10
66.995
 20
183.014999
 30
0.0
 11
66.995
 21
185.235146
 31
0.0
  0
LINE
  5
12B5
100
AcDbEntity
  8
10000_FRONT
370
    25
390
0
  6
CONTINUOUS
 62
     7
100
AcDbLine
 10
66.995
 20
165.764854
 30
0.0
 11
66.995
 21
168.015
 31
0.0
  0
LINE
  5
12B6
100
AcDbEntity
  8
10000_FRONT
370
    25
390
0
  6
CONTINUOUS
 62
     7
100
AcDbLine
 10
66.995
 20
169.015
 30
0.0
 11
66.995
 21
171.235146
 31
0.0
  0
LINE
  5
12B7
100
AcDbEntity
  8
10000_FRONT
370
    25
390
0
  6
CONTINUOUS
 62
     7
100
AcDbLine
 10
67.165
 20
139.015
 30
0.0
 11
67.165
 21
140.916692
 31
0.0
  0
LINE
  5
12B8
100
AcDbEntity
  8
10000_FRONT
370
    25
390
0
  6
CONTINUOUS
 62
     7
100
AcDbLine
 10
67.165
 20
136.083307
 30
0.0
 11
67.165
 21
138.015
 31
0.0
  0
LINE
  5
12B9
100
AcDbEntity
  8
10000_FRONT
370
    25
390
0
  6
CONTINUOUS
 62
     7
100
AcDbLine
 10
67.165
 20
125.014999
 30
0.0
 11
67.165
 21
126.916693
 31
0.0
  0
LINE
  5
12BA
100
AcDbEntity
  8
10000_FRONT
370
    25
390
0
  6
CONTINUOUS
 62
     7
100
AcDbLine
 10
67.165
 20
122.083307
 30
0.0
 11
67.165
 21
124.014999
 31
0.0
  0
LINE
  5
12BB
100
AcDbEntity
  8
10000_FRONT
370
    25
390
0
  6
CONTINUOUS
 62
     7
100
AcDbLine
 10
67.165
 20
180.083307
 30
0.0
 11
67.165
 21
182.014999
 31
0.0
  0
LINE
  5
12BC
100
AcDbEntity
  8
10000_FRONT
370
    25
390
0
  6
CONTINUOUS
 62
     7
100
AcDbLine
 10
67.165
 20
183.014999
 30
0.0
 11
67.165
 21
184.916693
 31
0.0
  0
LINE
  5
12BD
100
AcDbEntity
  8
10000_FRONT
370
    25
390
0
  6
CONTINUOUS
 62
     7
100
AcDbLine
 10
67.165
 20
166.083308
 30
0.0
 11
67.165
 21
168.015
 31
0.0
  0
LINE
  5
12BE
100
AcDbEntity
  8
10000_FRONT
370
    25
390
0
  6
CONTINUOUS
 62
     7
100
AcDbLine
 10
67.165
 20
169.015
 30
0.0
 11
67.165
 21
170.916693
 31
0.0
  0
LINE
  5
12BF
100
AcDbEntity
  8
10000_FRONT
370
    25
390
0
  6
CONTINUOUS
 62
     7
100
AcDbLine
 10
67.215256
 20
134.549854
 30
0.0
 11
67.215256
 21
135.683847
 31
0.0
  0
LINE
  5
12C0
100
AcDbEntity
  8
10000_FRONT
370
    25
390
0
  6
CONTINUOUS
 62
     7
100
AcDbLine
 10
67.215256
 20
141.316153
 30
0.0
 11
67.215256
 21
142.450145
 31
0.0
  0
LINE
  5
12C1
100
AcDbEntity
  8
10000_FRONT
370
    25
390
0
  6
CONTINUOUS
 62
     7
100
AcDbLine
 10
67.215256
 20
121.313915
 30
0.0
 11
67.215256
 21
121.683847
 31
0.0
  0
LINE
  5
12C2
100
AcDbEntity
  8
10000_FRONT
370
    25
390
0
  6
CONTINUOUS
 62
     7
100
AcDbLine
 10
67.215256
 20
127.316153
 30
0.0
 11
67.215256
 21
127.686087
 31
0.0
  0
LINE
  5
12C3
100
AcDbEntity
  8
10000_FRONT
370
    25
390
0
  6
CONTINUOUS
 62
     7
100
AcDbLine
 10
67.215256
 20
179.313913
 30
0.0
 11
67.215256
 21
179.683847
 31
0.0
  0
LINE
  5
12C4
100
AcDbEntity
  8
10000_FRONT
370
    25
390
0
  6
CONTINUOUS
 62
     7
100
AcDbLine
 10
67.215256
 20
185.316153
 30
0.0
 11
67.215256
 21
185.686085
 31
0.0
  0
LINE
  5
12C5
100
AcDbEntity
  8
10000_FRONT
370
    25
390
0
  6
CONTINUOUS
 62
     7
100
AcDbLine
 10
67.215256
 20
171.316153
 30
0.0
 11
67.215256
 21
172.450146
 31
0.0
  0
LINE
  5
12C6
100
AcDbEntity
  8
10000_FRONT
370
    25
390
0
  6
CONTINUOUS
 62
     7
100
AcDbLine
 10
67.215256
 20
164.549855
 30
0.0
 11
67.215256
 21
165.683847
 31
0.0
  0
LINE
  5
12C7
100
AcDbEntity
  8
10000_FRONT
370
    25
390
0
  6
CONTINUOUS
 62
     7
100
AcDbLine
 10
68.225
 20
138.015
 30
0.0
 11
68.225
 21
139.015
 31
0.0
  0
LINE
  5
12C8
100
AcDbEntity
  8
10000_FRONT
370
    25
390
0
  6
CONTINUOUS
 62
     7
100
AcDbLine
 10
68.225
 20
124.014999
 30
0.0
 11
68.225
 21
125.014999
 31
0.0
  0
LINE
  5
12C9
100
AcDbEntity
  8
10000_FRONT
370
    25
390
0
  6
CONTINUOUS
 62
     7
100
AcDbLine
 10
68.225
 20
182.014999
 30
0.0
 11
68.225
 21
183.014999
 31
0.0
  0
LINE
  5
12CA
100
AcDbEntity
  8
10000_FRONT
370
    25
390
0
  6
CONTINUOUS
 62
     7
100
AcDbLine
 10
68.225
 20
168.015
 30
0.0
 11
68.225
 21
169.015
 31
0.0
  0
LINE
  5
12CB
100
AcDbEntity
  8
10000_FRONT
370
    25
390
0
  6
CONTINUOUS
 62
     7
100
AcDbLine
 10
70.025
 20
184.436491
 30
0.0
 11
70.025
 21
187.099998
 31
0.0
  0
LINE
  5
12CC
100
AcDbEntity
  8
10000_FRONT
370
    25
390
0
  6
CONTINUOUS
 62
     7
100
AcDbLine
 10
70.025
 20
178.0
 30
0.0
 11
70.025
 21
180.563509
 31
0.0
  0
LINE
  5
12CD
100
AcDbEntity
  8
10000_FRONT
370
    25
390
0
  6
CONTINUOUS
 62
     7
100
AcDbLine
 10
70.025
 20
126.436491
 30
0.0
 11
70.025
 21
129.0
 31
0.0
  0
LINE
  5
12CE
100
AcDbEntity
  8
10000_FRONT
370
    25
390
0
  6
CONTINUOUS
 62
     7
100
AcDbLine
 10
70.025
 20
121.700001
 30
0.0
 11
70.025
 21
122.563509
 31
0.0
  0
LINE
  5
12CF
100
AcDbEntity
  8
10000_FRONT
370
    25
390
0
  6
CONTINUOUS
 62
     7
100
AcDbLine
 10
70.025
 20
119.900002
 30
0.0
 11
70.025
 21
120.900002
 31
0.0
  0
LINE
  5
12D0
100
AcDbEntity
  8
10000_FRONT
370
    25
390
0
  6
CONTINUOUS
 62
     7
100
AcDbLine
 10
70.025
 20
120.900002
 30
0.0
 11
70.025
 21
121.700001
 31
0.0
  0
LINE
  5
12D1
100
AcDbEntity
  8
10000_FRONT
370
    25
390
0
  6
CONTINUOUS
 62
     7
100
AcDbLine
 10
70.225
 20
136.954004
 30
0.0
 11
70.225
 21
140.045995
 31
0.0
  0
LINE
  5
12D2
100
AcDbEntity
  8
10000_FRONT
370
    25
390
0
  6
CONTINUOUS
 62
     7
100
AcDbLine
 10
70.225
 20
166.954005
 30
0.0
 11
70.225
 21
170.045996
 31
0.0
  0
LINE
  5
12D3
100
AcDbEntity
  8
10000_FRONT
370
    25
390
0
  6
CONTINUOUS
 62
     7
100
AcDbLine
 10
70.425
 20
178.0
 30
0.0
 11
70.425
 21
181.5
 31
0.0
  0
LINE
  5
12D4
100
AcDbEntity
  8
10000_FRONT
370
    25
390
0
  6
CONTINUOUS
 62
     7
100
AcDbLine
 10
70.425
 20
125.5
 30
0.0
 11
70.425
 21
126.0
 31
0.0
  0
LINE
  5
12D5
100
AcDbEntity
  8
10000_FRONT
370
    25
390
0
  6
CONTINUOUS
 62
     7
100
AcDbLine
 10
70.425
 20
126.0
 30
0.0
 11
70.425
 21
127.460764
 31
0.0
  0
LINE
  5
12D6
100
AcDbEntity
  8
10000_FRONT
370
    25
390
0
  6
CONTINUOUS
 62
     7
100
AcDbLine
 10
70.425
 20
127.460764
 30
0.0
 11
70.425
 21
129.0
 31
0.0
  0
LINE
  5
12D7
100
AcDbEntity
  8
10000_FRONT
370
    25
390
0
  6
CONTINUOUS
 62
     7
100
AcDbLine
 10
70.425
 20
190.549999
 30
0.0
 11
70.425
 21
192.0
 31
0.0
  0
LINE
  5
12D8
100
AcDbEntity
  8
10000_FRONT
370
    25
390
0
  6
CONTINUOUS
 62
     7
100
AcDbLine
 10
70.425
 20
192.0
 30
0.0
 11
70.425
 21
193.5
 31
0.0
  0
LINE
  5
12D9
100
AcDbEntity
  8
10000_FRONT
370
    25
390
0
  6
CONTINUOUS
 62
     7
100
AcDbLine
 10
70.425
 20
113.5
 30
0.0
 11
70.425
 21
115.0
 31
0.0
  0
LINE
  5
12DA
100
AcDbEntity
  8
10000_FRONT
370
    25
390
0
  6
CONTINUOUS
 62
     7
100
AcDbLine
 10
70.425
 20
115.0
 30
0.0
 11
70.425
 21
116.450001
 31
0.0
  0
LINE
  5
12DB
100
AcDbEntity
  8
10000_FRONT
370
    25
390
0
  6
CONTINUOUS
 62
     7
100
AcDbLine
 10
71.325
 20
186.099998
 30
0.0
 11
71.325
 21
188.099998
 31
0.0
  0
LINE
  5
12DC
100
AcDbEntity
  8
10000_FRONT
370
    25
390
0
  6
CONTINUOUS
 62
     7
100
AcDbLine
 10
71.325
 20
118.900002
 30
0.0
 11
71.325
 21
119.900002
 31
0.0
  0
LINE
  5
12DD
100
AcDbEntity
  8
10000_FRONT
370
    25
390
0
  6
CONTINUOUS
 62
     7
100
AcDbLine
 10
71.325
 20
119.900002
 30
0.0
 11
71.325
 21
120.900002
 31
0.0
  0
LINE
  5
12DE
100
AcDbEntity
  8
10000_FRONT
370
    25
390
0
  6
CONTINUOUS
 62
     7
100
AcDbLine
 10
71.525
 20
113.5
 30
0.0
 11
71.525
 21
193.5
 31
0.0
  0
ARC
  5
12DF
100
AcDbEntity
  8
10000_FRONT
370
    25
390
0
  6
CONTINUOUS
 62
     7
100
AcDbCircle
 10
63.308969
 20
128.7
 30
0.0
 40
0.3
100
AcDbArc
 50
89.999965
 51
176.85493
  0
ARC
  5
12E0
100
AcDbEntity
  8
10000_FRONT
370
    25
390
0
  6
CONTINUOUS
 62
     7
100
AcDbCircle
 10
63.308969
 20
178.3
 30
0.0
 40
0.3
100
AcDbArc
 50
183.145059
 51
270.000039
  0
LINE
  5
12E1
100
AcDbEntity
  8
10000_FRONT
370
    25
390
0
  6
CONTINUOUS
 62
     7
100
AcDbLine
 10
67.13625
 20
127.129399
 30
0.0
 11
66.995
 21
127.235146
 31
0.0
  0
LINE
  5
12E2
100
AcDbEntity
  8
10000_FRONT
370
    25
390
0
  6
CONTINUOUS
 62
     7
100
AcDbLine
 10
66.995
 20
121.764854
 30
0.0
 11
67.13625
 21
121.870601
 31
0.0
  0
LINE
  5
12E3
100
AcDbEntity
  8
10000_FRONT
370
    25
390
0
  6
CONTINUOUS
 62
     7
100
AcDbLine
 10
67.136249
 20
141.129399
 30
0.0
 11
66.995
 21
141.235146
 31
0.0
  0
LINE
  5
12E4
100
AcDbEntity
  8
10000_FRONT
370
    25
390
0
  6
CONTINUOUS
 62
     7
100
AcDbLine
 10
66.995
 20
135.764854
 30
0.0
 11
67.13625
 21
135.870601
 31
0.0
  0
LINE
  5
12E5
100
AcDbEntity
  8
10000_FRONT
370
    25
390
0
  6
CONTINUOUS
 62
     7
100
AcDbLine
 10
67.13625
 20
171.129399
 30
0.0
 11
66.995
 21
171.235146
 31
0.0
  0
LINE
  5
12E6
100
AcDbEntity
  8
10000_FRONT
370
    25
390
0
  6
CONTINUOUS
 62
     7
100
AcDbLine
 10
66.995
 20
165.764854
 30
0.0
 11
67.136249
 21
165.870601
 31
0.0
  0
LINE
  5
12E7
100
AcDbEntity
  8
10000_FRONT
370
    25
390
0
  6
CONTINUOUS
 62
     7
100
AcDbLine
 10
67.13625
 20
185.129399
 30
0.0
 11
66.995
 21
185.235146
 31
0.0
  0
LINE
  5
12E8
100
AcDbEntity
  8
10000_FRONT
370
    25
390
0
  6
CONTINUOUS
 62
     7
100
AcDbLine
 10
66.995
 20
179.764854
 30
0.0
 11
67.13625
 21
179.870601
 31
0.0
  0
ARC
  5
12E9
100
AcDbEntity
  8
10000_FRONT
370
    25
390
0
  6
CONTINUOUS
 62
     7
100
AcDbCircle
 10
66.525
 20
124.5
 30
0.0
 40
2.5
100
AcDbArc
 50
108.662927
 51
251.337073
  0
ARC
  5
12EA
100
AcDbEntity
  8
10000_FRONT
370
    25
390
0
  6
CONTINUOUS
 62
     7
100
AcDbCircle
 10
66.525
 20
124.5
 30
0.0
 40
2.5
100
AcDbArc
 50
284.832843
 51
75.167157
  0
ARC
  5
12EB
100
AcDbEntity
  8
10000_FRONT
370
    25
390
0
  6
CONTINUOUS
 62
     7
100
AcDbCircle
 10
66.525
 20
124.5
 30
0.0
 40
2.699512
100
AcDbArc
 50
283.086958
 51
76.913042
  0
ARC
  5
12EC
100
AcDbEntity
  8
10000_FRONT
370
    25
390
0
  6
CONTINUOUS
 62
     7
100
AcDbCircle
 10
66.525
 20
124.5
 30
0.0
 40
2.699512
100
AcDbArc
 50
106.600668
 51
180.0
  0
ARC
  5
12ED
100
AcDbEntity
  8
10000_FRONT
370
    25
390
0
  6
CONTINUOUS
 62
     7
100
AcDbCircle
 10
66.525
 20
124.5
 30
0.0
 40
2.699512
100
AcDbArc
 50
180.0
 51
253.399332
  0
ARC
  5
12EE
100
AcDbEntity
  8
10000_FRONT
370
    25
390
0
  6
CONTINUOUS
 62
     7
100
AcDbCircle
 10
66.525
 20
124.5
 30
0.0
 40
2.775234
100
AcDbArc
 50
80.249674
 51
103.120982
  0
ARC
  5
12EF
100
AcDbEntity
  8
10000_FRONT
370
    25
390
0
  6
CONTINUOUS
 62
     7
100
AcDbCircle
 10
66.525
 20
124.5
 30
0.0
 40
2.775234
100
AcDbArc
 50
256.879018
 51
279.750326
  0
CIRCLE
  5
12F0
100
AcDbEntity
  8
10000_FRONT
370
    25
390
0
  6
CONTINUOUS
 62
     7
100
AcDbCircle
 10
66.525
 20
124.5
 30
0.0
 40
2.899512
  0
ARC
  5
12F1
100
AcDbEntity
  8
10000_FRONT
370
    25
390
0
  6
CONTINUOUS
 62
     7
100
AcDbCircle
 10
66.525
 20
124.5
 30
0.0
 40
3.25
100
AcDbArc
 50
90.0
 51
270.0
  0
ARC
  5
12F2
100
AcDbEntity
  8
10000_FRONT
370
    25
390
0
  6
CONTINUOUS
 62
     7
100
AcDbCircle
 10
66.525
 20
124.5
 30
0.0
 40
3.26
100
AcDbArc
 50
270.0
 51
90.0
  0
ARC
  5
12F3
100
AcDbEntity
  8
10000_FRONT
370
    25
390
0
  6
CONTINUOUS
 62
     7
100
AcDbCircle
 10
66.525
 20
124.5
 30
0.0
 40
4.0
100
AcDbArc
 50
331.044984
 51
28.955016
  0
ARC
  5
12F4
100
AcDbEntity
  8
10000_FRONT
370
    25
390
0
  6
CONTINUOUS
 62
     7
100
AcDbCircle
 10
66.525
 20
124.5
 30
0.0
 40
4.0
100
AcDbArc
 50
180.0
 51
197.561808
  0
ARC
  5
12F5
100
AcDbEntity
  8
10000_FRONT
370
    25
390
0
  6
CONTINUOUS
 62
     7
100
AcDbCircle
 10
66.525
 20
124.5
 30
0.0
 40
4.0
100
AcDbArc
 50
156.148269
 51
180.0
  0
ARC
  5
12F6
100
AcDbEntity
  8
10000_FRONT
370
    25
390
0
  6
CONTINUOUS
 62
     7
100
AcDbCircle
 10
66.525
 20
138.5
 30
0.0
 40
2.5
100
AcDbArc
 50
108.662927
 51
251.337073
  0
ARC
  5
12F7
100
AcDbEntity
  8
10000_FRONT
370
    25
390
0
  6
CONTINUOUS
 62
     7
100
AcDbCircle
 10
66.525
 20
138.5
 30
0.0
 40
2.5
100
AcDbArc
 50
284.832843
 51
75.167151
  0
ARC
  5
12F8
100
AcDbEntity
  8
10000_FRONT
370
    25
390
0
  6
CONTINUOUS
 62
     7
100
AcDbCircle
 10
66.525
 20
138.5
 30
0.0
 40
2.699512
100
AcDbArc
 50
283.086958
 51
76.913047
  0
ARC
  5
12F9
100
AcDbEntity
  8
10000_FRONT
370
    25
390
0
  6
CONTINUOUS
 62
     7
100
AcDbCircle
 10
66.525
 20
138.5
 30
0.0
 40
2.699512
100
AcDbArc
 50
106.600668
 51
180.0
  0
ARC
  5
12FA
100
AcDbEntity
  8
10000_FRONT
370
    25
390
0
  6
CONTINUOUS
 62
     7
100
AcDbCircle
 10
66.525
 20
138.5
 30
0.0
 40
2.699512
100
AcDbArc
 50
180.0
 51
253.399332
  0
ARC
  5
12FB
100
AcDbEntity
  8
10000_FRONT
370
    25
390
0
  6
CONTINUOUS
 62
     7
100
AcDbCircle
 10
66.525
 20
138.5
 30
0.0
 40
2.775234
100
AcDbArc
 50
80.249674
 51
103.120977
  0
ARC
  5
12FC
100
AcDbEntity
  8
10000_FRONT
370
    25
390
0
  6
CONTINUOUS
 62
     7
100
AcDbCircle
 10
66.525
 20
138.5
 30
0.0
 40
2.775234
100
AcDbArc
 50
256.879018
 51
279.750326
  0
CIRCLE
  5
12FD
100
AcDbEntity
  8
10000_FRONT
370
    25
390
0
  6
CONTINUOUS
 62
     7
100
AcDbCircle
 10
66.525
 20
138.5
 30
0.0
 40
2.899512
  0
ARC
  5
12FE
100
AcDbEntity
  8
10000_FRONT
370
    25
390
0
  6
CONTINUOUS
 62
     7
100
AcDbCircle
 10
66.525
 20
138.5
 30
0.0
 40
4.0
100
AcDbArc
 50
90.0
 51
270.0
  0
ARC
  5
12FF
100
AcDbEntity
  8
10000_FRONT
370
    25
390
0
  6
CONTINUOUS
 62
     7
100
AcDbCircle
 10
66.525
 20
138.5
 30
0.0
 40
4.01
100
AcDbArc
 50
270.0
 51
90.0
  0
ARC
  5
1300
100
AcDbEntity
  8
10000_FRONT
370
    25
390
0
  6
CONTINUOUS
 62
     7
100
AcDbCircle
 10
66.525
 20
168.5
 30
0.0
 40
2.5
100
AcDbArc
 50
284.832849
 51
75.167157
  0
ARC
  5
1301
100
AcDbEntity
  8
10000_FRONT
370
    25
390
0
  6
CONTINUOUS
 62
     7
100
AcDbCircle
 10
66.525
 20
168.5
 30
0.0
 40
2.5
100
AcDbArc
 50
108.662927
 51
251.337073
  0
ARC
  5
1302
100
AcDbEntity
  8
10000_FRONT
370
    25
390
0
  6
CONTINUOUS
 62
     7
100
AcDbCircle
 10
66.525
 20
168.5
 30
0.0
 40
2.699512
100
AcDbArc
 50
283.086953
 51
76.913042
  0
ARC
  5
1303
100
AcDbEntity
  8
10000_FRONT
370
    25
390
0
  6
CONTINUOUS
 62
     7
100
AcDbCircle
 10
66.525
 20
168.5
 30
0.0
 40
2.699512
100
AcDbArc
 50
106.600668
 51
180.0
  0
ARC
  5
1304
100
AcDbEntity
  8
10000_FRONT
370
    25
390
0
  6
CONTINUOUS
 62
     7
100
AcDbCircle
 10
66.525
 20
168.5
 30
0.0
 40
2.699512
100
AcDbArc
 50
180.0
 51
253.399332
  0
ARC
  5
1305
100
AcDbEntity
  8
10000_FRONT
370
    25
390
0
  6
CONTINUOUS
 62
     7
100
AcDbCircle
 10
66.525
 20
168.5
 30
0.0
 40
2.775234
100
AcDbArc
 50
80.249674
 51
103.120982
  0
ARC
  5
1306
100
AcDbEntity
  8
10000_FRONT
370
    25
390
0
  6
CONTINUOUS
 62
     7
100
AcDbCircle
 10
66.525
 20
168.5
 30
0.0
 40
2.775234
100
AcDbArc
 50
256.879023
 51
279.750326
  0
CIRCLE
  5
1307
100
AcDbEntity
  8
10000_FRONT
370
    25
390
0
  6
CONTINUOUS
 62
     7
100
AcDbCircle
 10
66.525
 20
168.5
 30
0.0
 40
2.899512
  0
ARC
  5
1308
100
AcDbEntity
  8
10000_FRONT
370
    25
390
0
  6
CONTINUOUS
 62
     7
100
AcDbCircle
 10
66.525
 20
168.5
 30
0.0
 40
4.0
100
AcDbArc
 50
90.0
 51
270.0
  0
ARC
  5
1309
100
AcDbEntity
  8
10000_FRONT
370
    25
390
0
  6
CONTINUOUS
 62
     7
100
AcDbCircle
 10
66.525
 20
168.5
 30
0.0
 40
4.01
100
AcDbArc
 50
270.0
 51
90.0
  0
ARC
  5
130A
100
AcDbEntity
  8
10000_FRONT
370
    25
390
0
  6
CONTINUOUS
 62
     7
100
AcDbCircle
 10
66.525
 20
182.5
 30
0.0
 40
2.5
100
AcDbArc
 50
284.832843
 51
75.167157
  0
ARC
  5
130B
100
AcDbEntity
  8
10000_FRONT
370
    25
390
0
  6
CONTINUOUS
 62
     7
100
AcDbCircle
 10
66.525
 20
182.5
 30
0.0
 40
2.5
100
AcDbArc
 50
108.662927
 51
251.337073
  0
ARC
  5
130C
100
AcDbEntity
  8
10000_FRONT
370
    25
390
0
  6
CONTINUOUS
 62
     7
100
AcDbCircle
 10
66.525
 20
182.5
 30
0.0
 40
2.699512
100
AcDbArc
 50
283.086958
 51
76.913042
  0
ARC
  5
130D
100
AcDbEntity
  8
10000_FRONT
370
    25
390
0
  6
CONTINUOUS
 62
     7
100
AcDbCircle
 10
66.525
 20
182.5
 30
0.0
 40
2.699512
100
AcDbArc
 50
106.600668
 51
180.0
  0
ARC
  5
130E
100
AcDbEntity
  8
10000_FRONT
370
    25
390
0
  6
CONTINUOUS
 62
     7
100
AcDbCircle
 10
66.525
 20
182.5
 30
0.0
 40
2.699512
100
AcDbArc
 50
180.0
 51
253.399332
  0
ARC
  5
130F
100
AcDbEntity
  8
10000_FRONT
370
    25
390
0
  6
CONTINUOUS
 62
     7
100
AcDbCircle
 10
66.525
 20
182.5
 30
0.0
 40
2.775234
100
AcDbArc
 50
80.249674
 51
103.120982
  0
ARC
  5
1310
100
AcDbEntity
  8
10000_FRONT
370
    25
390
0
  6
CONTINUOUS
 62
     7
100
AcDbCircle
 10
66.525
 20
182.5
 30
0.0
 40
2.775234
100
AcDbArc
 50
256.879018
 51
279.750326
  0
CIRCLE
  5
1311
100
AcDbEntity
  8
10000_FRONT
370
    25
390
0
  6
CONTINUOUS
 62
     7
100
AcDbCircle
 10
66.525
 20
182.5
 30
0.0
 40
2.899512
  0
ARC
  5
1312
100
AcDbEntity
  8
10000_FRONT
370
    25
390
0
  6
CONTINUOUS
 62
     7
100
AcDbCircle
 10
66.525
 20
182.5
 30
0.0
 40
3.25
100
AcDbArc
 50
90.0
 51
270.0
  0
ARC
  5
1313
100
AcDbEntity
  8
10000_FRONT
370
    25
390
0
  6
CONTINUOUS
 62
     7
100
AcDbCircle
 10
66.525
 20
182.5
 30
0.0
 40
3.26
100
AcDbArc
 50
270.0
 51
90.0
  0
ARC
  5
1314
100
AcDbEntity
  8
10000_FRONT
370
    25
390
0
  6
CONTINUOUS
 62
     7
100
AcDbCircle
 10
66.525
 20
182.5
 30
0.0
 40
4.0
100
AcDbArc
 50
331.044984
 51
28.955016
  0
ARC
  5
1315
100
AcDbEntity
  8
10000_FRONT
370
    25
390
0
  6
CONTINUOUS
 62
     7
100
AcDbCircle
 10
66.525
 20
182.5
 30
0.0
 40
4.0
100
AcDbArc
 50
180.0
 51
203.851731
  0
ARC
  5
1316
100
AcDbEntity
  8
10000_FRONT
370
    25
390
0
  6
CONTINUOUS
 62
     7
100
AcDbCircle
 10
66.525
 20
182.5
 30
0.0
 40
4.0
100
AcDbArc
 50
162.438192
 51
180.0
  0
LINE
  5
1317
100
AcDbEntity
  8
10000_FRONT
370
    25
390
0
  6
CONTINUOUS
 62
     7
100
AcDbLine
 10
65.894999
 20
127.20278
 30
0.0
 11
65.753751
 21
127.086994
 31
0.0
  0
LINE
  5
1318
100
AcDbEntity
  8
10000_FRONT
370
    25
390
0
  6
CONTINUOUS
 62
     7
100
AcDbLine
 10
65.753751
 20
121.913006
 30
0.0
 11
65.894999
 21
121.79722
 31
0.0
  0
LINE
  5
1319
100
AcDbEntity
  8
10000_FRONT
370
    25
390
0
  6
CONTINUOUS
 62
     7
100
AcDbLine
 10
65.895
 20
141.202781
 30
0.0
 11
65.753751
 21
141.086994
 31
0.0
  0
LINE
  5
131A
100
AcDbEntity
  8
10000_FRONT
370
    25
390
0
  6
CONTINUOUS
 62
     7
100
AcDbLine
 10
65.753751
 20
135.913006
 30
0.0
 11
65.894999
 21
135.79722
 31
0.0
  0
LINE
  5
131B
100
AcDbEntity
  8
10000_FRONT
370
    25
390
0
  6
CONTINUOUS
 62
     7
100
AcDbLine
 10
65.894999
 20
171.20278
 30
0.0
 11
65.753751
 21
171.086994
 31
0.0
  0
LINE
  5
131C
100
AcDbEntity
  8
10000_FRONT
370
    25
390
0
  6
CONTINUOUS
 62
     7
100
AcDbLine
 10
65.753751
 20
165.913006
 30
0.0
 11
65.895
 21
165.797219
 31
0.0
  0
LINE
  5
131D
100
AcDbEntity
  8
10000_FRONT
370
    25
390
0
  6
CONTINUOUS
 62
     7
100
AcDbLine
 10
65.894999
 20
185.20278
 30
0.0
 11
65.753751
 21
185.086994
 31
0.0
  0
LINE
  5
131E
100
AcDbEntity
  8
10000_FRONT
370
    25
390
0
  6
CONTINUOUS
 62
     7
100
AcDbLine
 10
65.753751
 20
179.913006
 30
0.0
 11
65.894999
 21
179.79722
 31
0.0
  0
TEXT
  5
131F
100
AcDbEntity
  8
10000_FRONT
370
    25
390
0
  6
CONTINUOUS
 62
     7
100
AcDbText
 10
62.659125
 20
175.203
 30
0.0
 40
1.478873
  1
1
100
AcDbText
  0
TEXT
  5
1320
100
AcDbEntity
  8
10000_FRONT
370
    25
390
0
  6
CONTINUOUS
 62
     7
100
AcDbText
 10
63.836375
 20
175.203
 30
0.0
 40
1.478873
  1
7
100
AcDbText
  0
TEXT
  5
1321
100
AcDbEntity
  8
10000_FRONT
370
    25
390
0
  6
CONTINUOUS
 62
     7
100
AcDbText
 10
65.013625
 20
175.203
 30
0.0
 40
1.478873
  1
1
100
AcDbText
  0
TEXT
  5
1322
100
AcDbEntity
  8
10000_FRONT
370
    25
390
0
  6
CONTINUOUS
 62
     7
100
AcDbText
 10
63.164875
 20
173.203
 30
0.0
 40
1.478873
  1
N
100
AcDbText
  0
TEXT
  5
1323
100
AcDbEntity
  8
10000_FRONT
370
    25
390
0
  6
CONTINUOUS
 62
     7
100
AcDbText
 10
64.456875
 20
173.203
 30
0.0
 40
1.478873
  1
C
100
AcDbText
  0
TEXT
  5
1324
100
AcDbEntity
  8
10000_FRONT
370
    25
390
0
  6
CONTINUOUS
 62
     7
100
AcDbText
 10
62.659125
 20
162.703
 30
0.0
 40
1.478873
  1
1
100
AcDbText
  0
TEXT
  5
1325
100
AcDbEntity
  8
10000_FRONT
370
    25
390
0
  6
CONTINUOUS
 62
     7
100
AcDbText
 10
63.836375
 20
162.703
 30
0.0
 40
1.478873
  1
8
100
AcDbText
  0
TEXT
  5
1326
100
AcDbEntity
  8
10000_FRONT
370
    25
390
0
  6
CONTINUOUS
 62
     7
100
AcDbText
 10
65.013625
 20
162.703
 30
0.0
 40
1.478873
  1
1
100
AcDbText
  0
TEXT
  5
1327
100
AcDbEntity
  8
10000_FRONT
370
    25
390
0
  6
CONTINUOUS
 62
     7
100
AcDbText
 10
63.164875
 20
160.703
 30
0.0
 40
1.478873
  1
N
100
AcDbText
  0
TEXT
  5
1328
100
AcDbEntity
  8
10000_FRONT
370
    25
390
0
  6
CONTINUOUS
 62
     7
100
AcDbText
 10
64.456875
 20
160.703
 30
0.0
 40
1.478873
  1
C
100
AcDbText
  0
TEXT
  5
1329
100
AcDbEntity
  8
10000_FRONT
370
    25
390
0
  6
CONTINUOUS
 62
     7
100
AcDbText
 10
62.659125
 20
144.703
 30
0.0
 40
1.478873
  1
1
100
AcDbText
  0
TEXT
  5
132A
100
AcDbEntity
  8
10000_FRONT
370
    25
390
0
  6
CONTINUOUS
 62
     7
100
AcDbText
 10
63.836375
 20
144.703
 30
0.0
 40
1.478873
  1
8
100
AcDbText
  0
TEXT
  5
132B
100
AcDbEntity
  8
10000_FRONT
370
    25
390
0
  6
CONTINUOUS
 62
     7
100
AcDbText
 10
65.013625
 20
144.703
 30
0.0
 40
1.478873
  1
2
100
AcDbText
  0
TEXT
  5
132C
100
AcDbEntity
  8
10000_FRONT
370
    25
390
0
  6
CONTINUOUS
 62
     7
100
AcDbText
 10
63.164875
 20
142.703
 30
0.0
 40
1.478873
  1
N
100
AcDbText
  0
TEXT
  5
132D
100
AcDbEntity
  8
10000_FRONT
370
    25
390
0
  6
CONTINUOUS
 62
     7
100
AcDbText
 10
64.456875
 20
142.703
 30
0.0
 40
1.478873
  1
C
100
AcDbText
  0
TEXT
  5
132E
100
AcDbEntity
  8
10000_FRONT
370
    25
390
0
  6
CONTINUOUS
 62
     7
100
AcDbText
 10
62.659125
 20
132.303
 30
0.0
 40
1.478873
  1
1
100
AcDbText
  0
TEXT
  5
132F
100
AcDbEntity
  8
10000_FRONT
370
    25
390
0
  6
CONTINUOUS
 62
     7
100
AcDbText
 10
63.836375
 20
132.303
 30
0.0
 40
1.478873
  1
7
100
AcDbText
  0
TEXT
  5
1330
100
AcDbEntity
  8
10000_FRONT
370
    25
390
0
  6
CONTINUOUS
 62
     7
100
AcDbText
 10
65.013625
 20
132.303
 30
0.0
 40
1.478873
  1
2
100
AcDbText
  0
TEXT
  5
1331
100
AcDbEntity
  8
10000_FRONT
370
    25
390
0
  6
CONTINUOUS
 62
     7
100
AcDbText
 10
63.164875
 20
130.303
 30
0.0
 40
1.478873
  1
N
100
AcDbText
  0
TEXT
  5
1332
100
AcDbEntity
  8
10000_FRONT
370
    25
390
0
  6
CONTINUOUS
 62
     7
100
AcDbText
 10
64.456875
 20
130.303
 30
0.0
 40
1.478873
  1
C
100
AcDbText
  0
TEXT
  5
1333
100
AcDbEntity
  8
10000_FRONT
370
    25
390
0
  6
CONTINUOUS
 62
     7
100
AcDbText
 10
70.390875
 20
131.797
 30
0.0
 40
1.478873
  1
1
 50
180.0
100
AcDbText
  0
TEXT
  5
1334
100
AcDbEntity
  8
10000_FRONT
370
    25
390
0
  6
CONTINUOUS
 62
     7
100
AcDbText
 10
69.213625
 20
131.797
 30
0.0
 40
1.478873
  1
5
 50
180.0
100
AcDbText
  0
TEXT
  5
1335
100
AcDbEntity
  8
10000_FRONT
370
    25
390
0
  6
CONTINUOUS
 62
     7
100
AcDbText
 10
68.036375
 20
131.797
 30
0.0
 40
1.478873
  1
1
 50
180.0
100
AcDbText
  0
TEXT
  5
1336
100
AcDbEntity
  8
10000_FRONT
370
    25
390
0
  6
CONTINUOUS
 62
     7
100
AcDbText
 10
69.885125
 20
133.797
 30
0.0
 40
1.478873
  1
N
 50
180.0
100
AcDbText
  0
TEXT
  5
1337
100
AcDbEntity
  8
10000_FRONT
370
    25
390
0
  6
CONTINUOUS
 62
     7
100
AcDbText
 10
68.593125
 20
133.797
 30
0.0
 40
1.478873
  1
C
 50
180.0
100
AcDbText
  0
TEXT
  5
1338
100
AcDbEntity
  8
10000_FRONT
370
    25
390
0
  6
CONTINUOUS
 62
     7
100
AcDbText
 10
70.390875
 20
144.297
 30
0.0
 40
1.478873
  1
1
 50
180.0
100
AcDbText
  0
TEXT
  5
1339
100
AcDbEntity
  8
10000_FRONT
370
    25
390
0
  6
CONTINUOUS
 62
     7
100
AcDbText
 10
69.213625
 20
144.297
 30
0.0
 40
1.478873
  1
6
 50
180.0
100
AcDbText
  0
TEXT
  5
133A
100
AcDbEntity
  8
10000_FRONT
370
    25
390
0
  6
CONTINUOUS
 62
     7
100
AcDbText
 10
68.036375
 20
144.297
 30
0.0
 40
1.478873
  1
1
 50
180.0
100
AcDbText
  0
TEXT
  5
133B
100
AcDbEntity
  8
10000_FRONT
370
    25
390
0
  6
CONTINUOUS
 62
     7
100
AcDbText
 10
69.885125
 20
146.297
 30
0.0
 40
1.478873
  1
N
 50
180.0
100
AcDbText
  0
TEXT
  5
133C
100
AcDbEntity
  8
10000_FRONT
370
    25
390
0
  6
CONTINUOUS
 62
     7
100
AcDbText
 10
68.593125
 20
146.297
 30
0.0
 40
1.478873
  1
C
 50
180.0
100
AcDbText
  0
TEXT
  5
133D
100
AcDbEntity
  8
10000_FRONT
370
    25
390
0
  6
CONTINUOUS
 62
     7
100
AcDbText
 10
70.390875
 20
162.297
 30
0.0
 40
1.478873
  1
1
 50
180.0
100
AcDbText
  0
TEXT
  5
133E
100
AcDbEntity
  8
10000_FRONT
370
    25
390
0
  6
CONTINUOUS
 62
     7
100
AcDbText
 10
69.213625
 20
162.297
 30
0.0
 40
1.478873
  1
6
 50
180.0
100
AcDbText
  0
TEXT
  5
133F
100
AcDbEntity
  8
10000_FRONT
370
    25
390
0
  6
CONTINUOUS
 62
     7
100
AcDbText
 10
68.036375
 20
162.297
 30
0.0
 40
1.478873
  1
2
 50
180.0
100
AcDbText
  0
TEXT
  5
1340
100
AcDbEntity
  8
10000_FRONT
370
    25
390
0
  6
CONTINUOUS
 62
     7
100
AcDbText
 10
69.885125
 20
164.297
 30
0.0
 40
1.478873
  1
N
 50
180.0
100
AcDbText
  0
TEXT
  5
1341
100
AcDbEntity
  8
10000_FRONT
370
    25
390
0
  6
CONTINUOUS
 62
     7
100
AcDbText
 10
68.593125
 20
164.297
 30
0.0
 40
1.478873
  1
C
 50
180.0
100
AcDbText
  0
TEXT
  5
1342
100
AcDbEntity
  8
10000_FRONT
370
    25
390
0
  6
CONTINUOUS
 62
     7
100
AcDbText
 10
70.390875
 20
174.697
 30
0.0
 40
1.478873
  1
1
 50
180.0
100
AcDbText
  0
TEXT
  5
1343
100
AcDbEntity
  8
10000_FRONT
370
    25
390
0
  6
CONTINUOUS
 62
     7
100
AcDbText
 10
69.213625
 20
174.697
 30
0.0
 40
1.478873
  1
5
 50
180.0
100
AcDbText
  0
TEXT
  5
1344
100
AcDbEntity
  8
10000_FRONT
370
    25
390
0
  6
CONTINUOUS
 62
     7
100
AcDbText
 10
68.036375
 20
174.697
 30
0.0
 40
1.478873
  1
2
 50
180.0
100
AcDbText
  0
TEXT
  5
1345
100
AcDbEntity
  8
10000_FRONT
370
    25
390
0
  6
CONTINUOUS
 62
     7
100
AcDbText
 10
69.885125
 20
176.697
 30
0.0
 40
1.478873
  1
N
 50
180.0
100
AcDbText
  0
TEXT
  5
1346
100
AcDbEntity
  8
10000_FRONT
370
    25
390
0
  6
CONTINUOUS
 62
     7
100
AcDbText
 10
68.593125
 20
176.697
 30
0.0
 40
1.478873
  1
C
 50
180.0
100
AcDbText
  0
LINE
  5
1347
100
AcDbEntity
  8
10100_FRONT_DIM
370
    13
390
0
  6
CONTINUOUS
 62
     7
100
AcDbLine
 10
61.525
 20
193.5
 30
0.0
 11
61.525
 21
204.5
 31
0.0
  0
LINE
  5
1348
100
AcDbEntity
  8
10100_FRONT_DIM
370
    13
390
0
  6
CONTINUOUS
 62
     7
100
AcDbLine
 10
71.525
 20
204.5
 30
0.0
 11
71.525
 21
193.5
 31
0.0
  0
LINE
  5
1349
100
AcDbEntity
  8
10100_FRONT_DIM
370
    13
390
0
  6
CONTINUOUS
 62
     7
100
AcDbLine
 10
54.025
 20
203.5
 30
0.0
 11
79.025
 21
203.5
 31
0.0
  0
TEXT
  5
134A
100
AcDbEntity
  8
10100_FRONT_DIM
370
    13
390
0
  6
CONTINUOUS
 62
     7
100
AcDbText
 10
65.358333
 20
204.5
 30
0.0
 40
2.0
  1
10
 72
     1
 11
66.525
 21
204.5
 31
0.0
100
AcDbText
  0
LINE
  5
134B
100
AcDbEntity
  8
10100_FRONT_DIM
370
    13
390
0
  6
CONTINUOUS
 62
     7
100
AcDbLine
 10
53.275
 20
155.5
 30
0.0
 11
53.275
 21
211.5
 31
0.0
  0
LINE
  5
134C
100
AcDbEntity
  8
10100_FRONT_DIM
370
    13
390
0
  6
CONTINUOUS
 62
     7
100
AcDbLine
 10
71.525
 20
211.5
 30
0.0
 11
71.525
 21
193.5
 31
0.0
  0
LINE
  5
134D
100
AcDbEntity
  8
10100_FRONT_DIM
370
    13
390
0
  6
CONTINUOUS
 62
     7
100
AcDbLine
 10
45.775
 20
210.5
 30
0.0
 11
79.025
 21
210.5
 31
0.0
  0
TEXT
  5
134E
100
AcDbEntity
  8
10100_FRONT_DIM
370
    13
390
0
  6
CONTINUOUS
 62
     7
100
AcDbText
 10
59.733333
 20
211.5
 30
0.0
 40
2.0
  1
18.3
 72
     1
 11
62.4
 21
211.5
 31
0.0
100
AcDbText
  0
LINE
  5
134F
100
AcDbEntity
  8
10100_FRONT_DIM
370
    13
390
0
  6
CONTINUOUS
 62
     7
100
AcDbLine
 10
61.525
 20
113.5
 30
0.0
 11
42.275
 21
113.5
 31
0.0
  0
LINE
  5
1350
100
AcDbEntity
  8
10100_FRONT_DIM
370
    13
390
0
  6
CONTINUOUS
 62
     7
100
AcDbLine
 10
42.275
 20
193.5
 30
0.0
 11
61.525
 21
193.5
 31
0.0
  0
LINE
  5
1351
100
AcDbEntity
  8
10100_FRONT_DIM
370
    13
390
0
  6
CONTINUOUS
 62
     7
100
AcDbLine
 10
43.275
 20
113.5
 30
0.0
 11
43.275
 21
193.5
 31
0.0
  0
TEXT
  5
1352
100
AcDbEntity
  8
10100_FRONT_DIM
370
    13
390
0
  6
CONTINUOUS
 62
     7
100
AcDbText
 10
42.275
 20
152.0
 30
0.0
 40
2.0
  1
80
 50
90.0
 72
     1
 11
42.275
 21
153.5
 31
0.0
100
AcDbText
  0
SOLID
  5
1353
100
AcDbEntity
  8
10100_FRONT_DIM
370
    13
390
0
  6
CONTINUOUS
 62
     7
100
AcDbTrace
 10
56.525
 20
202.841738
 30
0.0
 11
61.525
 21
203.5
 31
0.0
 12
56.525
 22
204.158262
 32
0.0
 13
61.525
 23
203.5
 33
0.0
  0
SOLID
  5
1354
100
AcDbEntity
  8
10100_FRONT_DIM
370
    13
390
0
  6
CONTINUOUS
 62
     7
100
AcDbTrace
 10
76.525
 20
204.158262
 30
0.0
 11
71.525
 21
203.5
 31
0.0
 12
76.525
 22
202.841738
 32
0.0
 13
71.525
 23
203.5
 33
0.0
  0
SOLID
  5
1355
100
AcDbEntity
  8
10100_FRONT_DIM
370
    13
390
0
  6
CONTINUOUS
 62
     7
100
AcDbTrace
 10
48.275
 20
209.841738
 30
0.0
 11
53.275
 21
210.5
 31
0.0
 12
48.275
 22
211.158262
 32
0.0
 13
53.275
 23
210.5
 33
0.0
  0
SOLID
  5
1356
100
AcDbEntity
  8
10100_FRONT_DIM
370
    13
390
0
  6
CONTINUOUS
 62
     7
100
AcDbTrace
 10
76.525
 20
211.158262
 30
0.0
 11
71.525
 21
210.5
 31
0.0
 12
76.525
 22
209.841738
 32
0.0
 13
71.525
 23
210.5
 33
0.0
  0
SOLID
  5
1357
100
AcDbEntity
  8
10100_FRONT_DIM
370
    13
390
0
  6
CONTINUOUS
 62
     7
100
AcDbTrace
 10
42.616738
 20
118.5
 30
0.0
 11
43.275
 21
113.5
 31
0.0
 12
43.933262
 22
118.5
 32
0.0
 13
43.275
 23
113.5
 33
0.0
  0
SOLID
  5
1358
100
AcDbEntity
  8
10100_FRONT_DIM
370
    13
390
0
  6
CONTINUOUS
 62
     7
100
AcDbTrace
 10
43.933262
 20
188.5
 30
0.0
 11
43.275
 21
193.5
 31
0.0
 12
42.616738
 22
188.5
 32
0.0
 13
43.275
 23
193.5
 33
0.0
  0
LINE
  5
1359
100
AcDbEntity
  8
11000_LEFT
370
    25
390
0
  6
CONTINUOUS
 62
     7
100
AcDbLine
 10
140.720274
 20
178.316458
 30
0.0
 11
140.599623
 21
187.099998
 31
0.0
  0
LINE
  5
135A
100
AcDbEntity
  8
11000_LEFT
370
    25
390
0
  6
CONTINUOUS
 62
     7
100
AcDbLine
 10
140.896609
 20
183.706938
 30
0.0
 11
140.850001
 21
187.099998
 31
0.0
  0
LINE
  5
135B
100
AcDbEntity
  8
11000_LEFT
370
    25
390
0
  6
CONTINUOUS
 62
     7
100
AcDbLine
 10
140.971106
 20
178.283541
 30
0.0
 11
140.935404
 21
180.882515
 31
0.0
  0
LINE
  5
135C
100
AcDbEntity
  8
11000_LEFT
370
    25
390
0
  6
CONTINUOUS
 62
     7
100
AcDbLine
 10
134.372057
 20
119.900002
 30
0.0
 11
134.306258
 21
123.293062
 31
0.0
  0
LINE
  5
135D
100
AcDbEntity
  8
11000_LEFT
370
    25
390
0
  6
CONTINUOUS
 62
     7
100
AcDbLine
 10
134.251486
 20
126.117485
 30
0.0
 11
134.201086
 21
128.716459
 31
0.0
  0
LINE
  5
135E
100
AcDbEntity
  8
11000_LEFT
370
    25
390
0
  6
CONTINUOUS
 62
     7
100
AcDbLine
 10
134.725001
 20
119.927452
 30
0.0
 11
134.555197
 21
128.68354
 31
0.0
  0
LINE
  5
135F
100
AcDbEntity
  8
11000_LEFT
370
    25
390
0
  6
CONTINUOUS
 62
     7
100
AcDbLine
 10
140.137499
 20
127.9
 30
0.0
 11
139.725001
 21
129.4
 31
0.0
  0
LINE
  5
1360
100
AcDbEntity
  8
11000_LEFT
370
    25
390
0
  6
CONTINUOUS
 62
     7
100
AcDbLine
 10
135.725001
 20
177.6
 30
0.0
 11
134.725001
 21
178.50909
 31
0.0
  0
LINE
  5
1361
100
AcDbEntity
  8
11000_LEFT
370
    25
390
0
  6
CONTINUOUS
 62
     7
100
AcDbLine
 10
140.600001
 20
176.754168
 30
0.0
 11
139.725001
 21
177.200001
 31
0.0
  0
LINE
  5
1362
100
AcDbEntity
  8
11000_LEFT
370
    25
390
0
  6
CONTINUOUS
 62
     7
100
AcDbLine
 10
113.525
 20
178.517471
 30
0.0
 11
108.025
 21
181.200001
 31
0.0
  0
LINE
  5
1363
100
AcDbEntity
  8
11000_LEFT
370
    25
390
0
  6
CONTINUOUS
 62
     7
100
AcDbLine
 10
103.525
 20
181.200001
 30
0.0
 11
101.925
 21
181.628719
 31
0.0
  0
LINE
  5
1364
100
AcDbEntity
  8
11000_LEFT
370
    25
390
0
  6
CONTINUOUS
 62
     7
100
AcDbLine
 10
141.725005
 20
176.566666
 30
0.0
 11
140.600001
 21
176.754168
 31
0.0
  0
LINE
  5
1365
100
AcDbEntity
  8
11000_LEFT
370
    25
390
0
  6
CONTINUOUS
 62
     7
100
AcDbLine
 10
135.725001
 20
129.799999
 30
0.0
 11
134.725001
 21
129.927382
 31
0.0
  0
LINE
  5
1366
100
AcDbEntity
  8
11000_LEFT
370
    25
390
0
  6
CONTINUOUS
 62
     7
100
AcDbLine
 10
134.725001
 20
130.245832
 30
0.0
 11
132.960295
 21
130.454166
 31
0.0
  0
LINE
  5
1367
100
AcDbEntity
  8
11000_LEFT
370
    25
390
0
  6
CONTINUOUS
 62
     7
100
AcDbLine
 10
112.925
 20
113.5
 30
0.0
 11
127.475001
 21
113.5
 31
0.0
  0
LINE
  5
1368
100
AcDbEntity
  8
11000_LEFT
370
    25
390
0
  6
CONTINUOUS
 62
     7
100
AcDbLine
 10
131.225001
 20
118.900002
 30
0.0
 11
143.225001
 21
118.900002
 31
0.0
  0
LINE
  5
1369
100
AcDbEntity
  8
11000_LEFT
370
    25
390
0
  6
CONTINUOUS
 62
     7
100
AcDbLine
 10
131.225001
 20
119.427433
 30
0.0
 11
143.225001
 21
119.427433
 31
0.0
  0
LINE
  5
136A
100
AcDbEntity
  8
11000_LEFT
370
    25
390
0
  6
CONTINUOUS
 62
     7
100
AcDbLine
 10
131.225001
 20
119.900002
 30
0.0
 11
134.725001
 21
119.900002
 31
0.0
  0
LINE
  5
136B
100
AcDbEntity
  8
11000_LEFT
370
    25
390
0
  6
CONTINUOUS
 62
     7
100
AcDbLine
 10
140.599623
 20
119.900002
 30
0.0
 11
143.225001
 21
119.900002
 31
0.0
  0
LINE
  5
136C
100
AcDbEntity
  8
11000_LEFT
370
    25
390
0
  6
CONTINUOUS
 62
     7
100
AcDbLine
 10
129.775
 20
120.900002
 30
0.0
 11
134.352671
 21
120.900002
 31
0.0
  0
LINE
  5
136D
100
AcDbEntity
  8
11000_LEFT
370
    25
390
0
  6
CONTINUOUS
 62
     7
100
AcDbLine
 10
140.863741
 20
120.900002
 30
0.0
 11
142.425002
 21
120.900002
 31
0.0
  0
LINE
  5
136E
100
AcDbEntity
  8
11000_LEFT
370
    25
390
0
  6
CONTINUOUS
 62
     7
100
AcDbLine
 10
100.525
 20
121.0
 30
0.0
 11
110.625
 21
121.0
 31
0.0
  0
LINE
  5
136F
100
AcDbEntity
  8
11000_LEFT
370
    25
390
0
  6
CONTINUOUS
 62
     7
100
AcDbLine
 10
101.925
 20
122.045
 30
0.0
 11
113.525
 21
122.045
 31
0.0
  0
LINE
  5
1370
100
AcDbEntity
  8
11000_LEFT
370
    25
390
0
  6
CONTINUOUS
 62
     7
100
AcDbLine
 10
101.925
 20
122.297501
 30
0.0
 11
113.525
 21
122.297501
 31
0.0
  0
LINE
  5
1371
100
AcDbEntity
  8
11000_LEFT
370
    25
390
0
  6
CONTINUOUS
 62
     7
100
AcDbLine
 10
129.775
 20
122.5
 30
0.0
 11
131.525
 21
122.5
 31
0.0
  0
LINE
  5
1372
100
AcDbEntity
  8
11000_LEFT
370
    25
390
0
  6
CONTINUOUS
 62
     7
100
AcDbLine
 10
140.886591
 20
122.563509
 30
0.0
 11
143.225001
 21
122.563509
 31
0.0
  0
LINE
  5
1373
100
AcDbEntity
  8
11000_LEFT
370
    25
390
0
  6
CONTINUOUS
 62
     7
100
AcDbLine
 10
131.83737
 20
122.563509
 30
0.0
 11
134.320414
 21
122.563509
 31
0.0
  0
LINE
  5
1374
100
AcDbEntity
  8
11000_LEFT
370
    25
390
0
  6
CONTINUOUS
 62
     7
100
AcDbLine
 10
103.525
 20
125.799999
 30
0.0
 11
108.025
 21
125.799999
 31
0.0
  0
LINE
  5
1375
100
AcDbEntity
  8
11000_LEFT
370
    25
390
0
  6
CONTINUOUS
 62
     7
100
AcDbLine
 10
142.525
 20
126.0
 30
0.0
 11
168.139975
 21
126.0
 31
0.0
  0
LINE
  5
1376
100
AcDbEntity
  8
11000_LEFT
370
    25
390
0
  6
CONTINUOUS
 62
     7
100
AcDbLine
 10
132.325007
 20
126.436491
 30
0.0
 11
134.245306
 21
126.436491
 31
0.0
  0
LINE
  5
1377
100
AcDbEntity
  8
11000_LEFT
370
    25
390
0
  6
CONTINUOUS
 62
     7
100
AcDbLine
 10
140.939791
 20
126.436491
 30
0.0
 11
141.812365
 21
126.436491
 31
0.0
  0
LINE
  5
1378
100
AcDbEntity
  8
11000_LEFT
370
    25
390
0
  6
CONTINUOUS
 62
     7
100
AcDbLine
 10
134.725001
 20
127.9
 30
0.0
 11
140.2125
 21
127.9
 31
0.0
  0
LINE
  5
1379
100
AcDbEntity
  8
11000_LEFT
370
    25
390
0
  6
CONTINUOUS
 62
     7
100
AcDbLine
 10
134.058005
 20
128.5
 30
0.0
 11
134.20529
 21
128.5
 31
0.0
  0
LINE
  5
137A
100
AcDbEntity
  8
11000_LEFT
370
    25
390
0
  6
CONTINUOUS
 62
     7
100
AcDbLine
 10
140.2125
 20
128.68354
 30
0.0
 11
140.720274
 21
128.68354
 31
0.0
  0
LINE
  5
137B
100
AcDbEntity
  8
11000_LEFT
370
    25
390
0
  6
CONTINUOUS
 62
     7
100
AcDbLine
 10
134.555197
 20
128.68354
 30
0.0
 11
134.725001
 21
128.68354
 31
0.0
  0
LINE
  5
137C
100
AcDbEntity
  8
11000_LEFT
370
    25
390
0
  6
CONTINUOUS
 62
     7
100
AcDbLine
 10
132.325003
 20
129.0
 30
0.0
 11
134.095362
 21
129.0
 31
0.0
  0
LINE
  5
137D
100
AcDbEntity
  8
11000_LEFT
370
    25
390
0
  6
CONTINUOUS
 62
     7
100
AcDbLine
 10
141.045992
 20
129.0
 30
0.0
 11
141.725005
 21
129.0
 31
0.0
  0
LINE
  5
137E
100
AcDbEntity
  8
11000_LEFT
370
    25
390
0
  6
CONTINUOUS
 62
     7
100
AcDbLine
 10
140.2125
 20
129.0
 30
0.0
 11
140.645388
 21
129.0
 31
0.0
  0
LINE
  5
137F
100
AcDbEntity
  8
11000_LEFT
370
    25
390
0
  6
CONTINUOUS
 62
     7
100
AcDbLine
 10
134.660921
 20
129.0
 30
0.0
 11
134.725001
 21
129.0
 31
0.0
  0
LINE
  5
1380
100
AcDbEntity
  8
11000_LEFT
370
    25
390
0
  6
CONTINUOUS
 62
     7
100
AcDbLine
 10
101.925
 20
129.32
 30
0.0
 11
113.525
 21
129.32
 31
0.0
  0
LINE
  5
1381
100
AcDbEntity
  8
11000_LEFT
370
    25
390
0
  6
CONTINUOUS
 62
     7
100
AcDbLine
 10
135.725001
 20
129.4
 30
0.0
 11
139.725001
 21
129.4
 31
0.0
  0
LINE
  5
1382
100
AcDbEntity
  8
11000_LEFT
370
    25
390
0
  6
CONTINUOUS
 62
     7
100
AcDbLine
 10
135.725001
 20
129.799999
 30
0.0
 11
139.725001
 21
129.799999
 31
0.0
  0
LINE
  5
1383
100
AcDbEntity
  8
11000_LEFT
370
    25
390
0
  6
CONTINUOUS
 62
     7
100
AcDbLine
 10
134.725001
 20
130.245832
 30
0.0
 11
140.600001
 21
130.245832
 31
0.0
  0
LINE
  5
1384
100
AcDbEntity
  8
11000_LEFT
370
    25
390
0
  6
CONTINUOUS
 62
     7
100
AcDbLine
 10
132.960295
 20
130.454166
 30
0.0
 11
141.725005
 21
130.454166
 31
0.0
  0
LINE
  5
1385
100
AcDbEntity
  8
11000_LEFT
370
    25
390
0
  6
CONTINUOUS
 62
     7
100
AcDbLine
 10
132.324999
 20
132.0
 30
0.0
 11
141.725001
 21
132.0
 31
0.0
  0
LINE
  5
1386
100
AcDbEntity
  8
11000_LEFT
370
    25
390
0
  6
CONTINUOUS
 62
     7
100
AcDbLine
 10
134.425002
 20
135.0
 30
0.0
 11
140.925002
 21
135.0
 31
0.0
  0
LINE
  5
1387
100
AcDbEntity
  8
11000_LEFT
370
    25
390
0
  6
CONTINUOUS
 62
     7
100
AcDbLine
 10
129.875
 20
136.5
 30
0.0
 11
133.574999
 21
136.5
 31
0.0
  0
LINE
  5
1388
100
AcDbEntity
  8
11000_LEFT
370
    25
390
0
  6
CONTINUOUS
 62
     7
100
AcDbLine
 10
129.875
 20
143.3
 30
0.0
 11
133.574999
 21
143.3
 31
0.0
  0
LINE
  5
1389
100
AcDbEntity
  8
11000_LEFT
370
    25
390
0
  6
CONTINUOUS
 62
     7
100
AcDbLine
 10
132.225001
 20
151.25
 30
0.0
 11
153.225001
 21
151.25
 31
0.0
  0
LINE
  5
138A
100
AcDbEntity
  8
11000_LEFT
370
    25
390
0
  6
CONTINUOUS
 62
     7
100
AcDbLine
 10
146.8245
 20
151.5
 30
0.0
 11
151.5245
 21
151.5
 31
0.0
  0
LINE
  5
138B
100
AcDbEntity
  8
11000_LEFT
370
    25
390
0
  6
CONTINUOUS
 62
     7
100
AcDbLine
 10
146.8245
 20
155.5
 30
0.0
 11
151.5245
 21
155.5
 31
0.0
  0
LINE
  5
138C
100
AcDbEntity
  8
11000_LEFT
370
    25
390
0
  6
CONTINUOUS
 62
     7
100
AcDbLine
 10
132.225001
 20
155.75
 30
0.0
 11
153.225001
 21
155.75
 31
0.0
  0
LINE
  5
138D
100
AcDbEntity
  8
11000_LEFT
370
    25
390
0
  6
CONTINUOUS
 62
     7
100
AcDbLine
 10
129.875
 20
163.7
 30
0.0
 11
133.574999
 21
163.7
 31
0.0
  0
LINE
  5
138E
100
AcDbEntity
  8
11000_LEFT
370
    25
390
0
  6
CONTINUOUS
 62
     7
100
AcDbLine
 10
129.875
 20
170.5
 30
0.0
 11
133.574999
 21
170.5
 31
0.0
  0
LINE
  5
138F
100
AcDbEntity
  8
11000_LEFT
370
    25
390
0
  6
CONTINUOUS
 62
     7
100
AcDbLine
 10
134.425002
 20
172.0
 30
0.0
 11
140.925002
 21
172.0
 31
0.0
  0
LINE
  5
1390
100
AcDbEntity
  8
11000_LEFT
370
    25
390
0
  6
CONTINUOUS
 62
     7
100
AcDbLine
 10
132.324999
 20
175.0
 30
0.0
 11
141.725001
 21
175.0
 31
0.0
  0
LINE
  5
1391
100
AcDbEntity
  8
11000_LEFT
370
    25
390
0
  6
CONTINUOUS
 62
     7
100
AcDbLine
 10
132.960295
 20
176.545834
 30
0.0
 11
141.725005
 21
176.545834
 31
0.0
  0
LINE
  5
1392
100
AcDbEntity
  8
11000_LEFT
370
    25
390
0
  6
CONTINUOUS
 62
     7
100
AcDbLine
 10
134.725001
 20
176.754168
 30
0.0
 11
140.600001
 21
176.754168
 31
0.0
  0
LINE
  5
1393
100
AcDbEntity
  8
11000_LEFT
370
    25
390
0
  6
CONTINUOUS
 62
     7
100
AcDbLine
 10
135.725001
 20
177.200001
 30
0.0
 11
139.725001
 21
177.200001
 31
0.0
  0
LINE
  5
1394
100
AcDbEntity
  8
11000_LEFT
370
    25
390
0
  6
CONTINUOUS
 62
     7
100
AcDbLine
 10
135.725001
 20
177.6
 30
0.0
 11
139.725001
 21
177.6
 31
0.0
  0
LINE
  5
1395
100
AcDbEntity
  8
11000_LEFT
370
    25
390
0
  6
CONTINUOUS
 62
     7
100
AcDbLine
 10
101.925
 20
177.68
 30
0.0
 11
113.525
 21
177.68
 31
0.0
  0
LINE
  5
1396
100
AcDbEntity
  8
11000_LEFT
370
    25
390
0
  6
CONTINUOUS
 62
     7
100
AcDbLine
 10
132.325003
 20
178.0
 30
0.0
 11
134.095362
 21
178.0
 31
0.0
  0
LINE
  5
1397
100
AcDbEntity
  8
11000_LEFT
370
    25
390
0
  6
CONTINUOUS
 62
     7
100
AcDbLine
 10
134.660921
 20
178.0
 30
0.0
 11
134.725001
 21
178.0
 31
0.0
  0
LINE
  5
1398
100
AcDbEntity
  8
11000_LEFT
370
    25
390
0
  6
CONTINUOUS
 62
     7
100
AcDbLine
 10
140.2125
 20
178.0
 30
0.0
 11
140.645388
 21
178.0
 31
0.0
  0
LINE
  5
1399
100
AcDbEntity
  8
11000_LEFT
370
    25
390
0
  6
CONTINUOUS
 62
     7
100
AcDbLine
 10
141.045992
 20
178.0
 30
0.0
 11
141.725005
 21
178.0
 31
0.0
  0
LINE
  5
139A
100
AcDbEntity
  8
11000_LEFT
370
    25
390
0
  6
CONTINUOUS
 62
     7
100
AcDbLine
 10
140.2125
 20
178.316458
 30
0.0
 11
140.720274
 21
178.316458
 31
0.0
  0
LINE
  5
139B
100
AcDbEntity
  8
11000_LEFT
370
    25
390
0
  6
CONTINUOUS
 62
     7
100
AcDbLine
 10
134.555197
 20
178.316458
 30
0.0
 11
134.725001
 21
178.316458
 31
0.0
  0
LINE
  5
139C
100
AcDbEntity
  8
11000_LEFT
370
    25
390
0
  6
CONTINUOUS
 62
     7
100
AcDbLine
 10
134.058005
 20
178.5
 30
0.0
 11
134.20529
 21
178.5
 31
0.0
  0
LINE
  5
139D
100
AcDbEntity
  8
11000_LEFT
370
    25
390
0
  6
CONTINUOUS
 62
     7
100
AcDbLine
 10
134.725001
 20
179.1
 30
0.0
 11
140.2125
 21
179.1
 31
0.0
  0
LINE
  5
139E
100
AcDbEntity
  8
11000_LEFT
370
    25
390
0
  6
CONTINUOUS
 62
     7
100
AcDbLine
 10
140.939791
 20
180.563509
 30
0.0
 11
141.812357
 21
180.563509
 31
0.0
  0
LINE
  5
139F
100
AcDbEntity
  8
11000_LEFT
370
    25
390
0
  6
CONTINUOUS
 62
     7
100
AcDbLine
 10
132.325007
 20
180.563509
 30
0.0
 11
134.245306
 21
180.563509
 31
0.0
  0
LINE
  5
13A0
100
AcDbEntity
  8
11000_LEFT
370
    25
390
0
  6
CONTINUOUS
 62
     7
100
AcDbLine
 10
142.525
 20
181.0
 30
0.0
 11
168.139975
 21
181.0
 31
0.0
  0
LINE
  5
13A1
100
AcDbEntity
  8
11000_LEFT
370
    25
390
0
  6
CONTINUOUS
 62
     7
100
AcDbLine
 10
103.525
 20
181.200001
 30
0.0
 11
108.025
 21
181.200001
 31
0.0
  0
LINE
  5
13A2
100
AcDbEntity
  8
11000_LEFT
370
    25
390
0
  6
CONTINUOUS
 62
     7
100
AcDbLine
 10
131.837397
 20
184.436491
 30
0.0
 11
134.320414
 21
184.436491
 31
0.0
  0
LINE
  5
13A3
100
AcDbEntity
  8
11000_LEFT
370
    25
390
0
  6
CONTINUOUS
 62
     7
100
AcDbLine
 10
140.886591
 20
184.436491
 30
0.0
 11
143.225001
 21
184.436491
 31
0.0
  0
LINE
  5
13A4
100
AcDbEntity
  8
11000_LEFT
370
    25
390
0
  6
CONTINUOUS
 62
     7
100
AcDbLine
 10
129.775
 20
184.5
 30
0.0
 11
131.525
 21
184.5
 31
0.0
  0
LINE
  5
13A5
100
AcDbEntity
  8
11000_LEFT
370
    25
390
0
  6
CONTINUOUS
 62
     7
100
AcDbLine
 10
101.925
 20
184.700001
 30
0.0
 11
113.525
 21
184.700001
 31
0.0
  0
LINE
  5
13A6
100
AcDbEntity
  8
11000_LEFT
370
    25
390
0
  6
CONTINUOUS
 62
     7
100
AcDbLine
 10
101.925
 20
184.945
 30
0.0
 11
113.525
 21
184.945
 31
0.0
  0
LINE
  5
13A7
100
AcDbEntity
  8
11000_LEFT
370
    25
390
0
  6
CONTINUOUS
 62
     7
100
AcDbLine
 10
100.525
 20
186.0
 30
0.0
 11
110.625
 21
186.0
 31
0.0
  0
LINE
  5
13A8
100
AcDbEntity
  8
11000_LEFT
370
    25
390
0
  6
CONTINUOUS
 62
     7
100
AcDbLine
 10
129.775
 20
186.099998
 30
0.0
 11
134.352671
 21
186.099998
 31
0.0
  0
LINE
  5
13A9
100
AcDbEntity
  8
11000_LEFT
370
    25
390
0
  6
CONTINUOUS
 62
     7
100
AcDbLine
 10
140.863741
 20
186.099998
 30
0.0
 11
142.425002
 21
186.099998
 31
0.0
  0
LINE
  5
13AA
100
AcDbEntity
  8
11000_LEFT
370
    25
390
0
  6
CONTINUOUS
 62
     7
100
AcDbLine
 10
131.225001
 20
187.099998
 30
0.0
 11
134.725001
 21
187.099998
 31
0.0
  0
LINE
  5
13AB
100
AcDbEntity
  8
11000_LEFT
370
    25
390
0
  6
CONTINUOUS
 62
     7
100
AcDbLine
 10
140.599623
 20
187.099998
 30
0.0
 11
143.225001
 21
187.099998
 31
0.0
  0
LINE
  5
13AC
100
AcDbEntity
  8
11000_LEFT
370
    25
390
0
  6
CONTINUOUS
 62
     7
100
AcDbLine
 10
131.225001
 20
187.572567
 30
0.0
 11
143.225001
 21
187.572567
 31
0.0
  0
LINE
  5
13AD
100
AcDbEntity
  8
11000_LEFT
370
    25
390
0
  6
CONTINUOUS
 62
     7
100
AcDbLine
 10
131.225001
 20
188.099998
 30
0.0
 11
143.225001
 21
188.099998
 31
0.0
  0
LINE
  5
13AE
100
AcDbEntity
  8
11000_LEFT
370
    25
390
0
  6
CONTINUOUS
 62
     7
100
AcDbLine
 10
112.925
 20
193.5
 30
0.0
 11
127.475001
 21
193.5
 31
0.0
  0
LINE
  5
13AF
100
AcDbEntity
  8
11000_LEFT
370
    25
390
0
  6
CONTINUOUS
 62
     7
100
AcDbLine
 10
132.960295
 20
176.545834
 30
0.0
 11
134.725001
 21
176.754168
 31
0.0
  0
LINE
  5
13B0
100
AcDbEntity
  8
11000_LEFT
370
    25
390
0
  6
CONTINUOUS
 62
     7
100
AcDbLine
 10
134.725001
 20
177.072618
 30
0.0
 11
135.725001
 21
177.200001
 31
0.0
  0
LINE
  5
13B1
100
AcDbEntity
  8
11000_LEFT
370
    25
390
0
  6
CONTINUOUS
 62
     7
100
AcDbLine
 10
140.600001
 20
130.245832
 30
0.0
 11
141.725005
 21
130.433334
 31
0.0
  0
LINE
  5
13B2
100
AcDbEntity
  8
11000_LEFT
370
    25
390
0
  6
CONTINUOUS
 62
     7
100
AcDbLine
 10
101.925
 20
125.371281
 30
0.0
 11
103.525
 21
125.799999
 31
0.0
  0
LINE
  5
13B3
100
AcDbEntity
  8
11000_LEFT
370
    25
390
0
  6
CONTINUOUS
 62
     7
100
AcDbLine
 10
108.025
 20
125.799999
 30
0.0
 11
113.525
 21
128.482529
 31
0.0
  0
LINE
  5
13B4
100
AcDbEntity
  8
11000_LEFT
370
    25
390
0
  6
CONTINUOUS
 62
     7
100
AcDbLine
 10
139.725001
 20
129.799999
 30
0.0
 11
140.600001
 21
130.245832
 31
0.0
  0
LINE
  5
13B5
100
AcDbEntity
  8
11000_LEFT
370
    25
390
0
  6
CONTINUOUS
 62
     7
100
AcDbLine
 10
134.725001
 20
128.49091
 30
0.0
 11
135.725001
 21
129.4
 31
0.0
  0
LINE
  5
13B6
100
AcDbEntity
  8
11000_LEFT
370
    25
390
0
  6
CONTINUOUS
 62
     7
100
AcDbLine
 10
139.725001
 20
177.6
 30
0.0
 11
140.137499
 21
179.1
 31
0.0
  0
LINE
  5
13B7
100
AcDbEntity
  8
11000_LEFT
370
    25
390
0
  6
CONTINUOUS
 62
     7
100
AcDbLine
 10
134.555197
 20
178.316458
 30
0.0
 11
134.725001
 21
187.072548
 31
0.0
  0
LINE
  5
13B8
100
AcDbEntity
  8
11000_LEFT
370
    25
390
0
  6
CONTINUOUS
 62
     7
100
AcDbLine
 10
134.201086
 20
178.283541
 30
0.0
 11
134.251486
 21
180.882515
 31
0.0
  0
LINE
  5
13B9
100
AcDbEntity
  8
11000_LEFT
370
    25
390
0
  6
CONTINUOUS
 62
     7
100
AcDbLine
 10
134.306258
 20
183.706938
 30
0.0
 11
134.372057
 21
187.099998
 31
0.0
  0
LINE
  5
13BA
100
AcDbEntity
  8
11000_LEFT
370
    25
390
0
  6
CONTINUOUS
 62
     7
100
AcDbLine
 10
140.935404
 20
126.117485
 30
0.0
 11
140.971106
 21
128.716459
 31
0.0
  0
LINE
  5
13BB
100
AcDbEntity
  8
11000_LEFT
370
    25
390
0
  6
CONTINUOUS
 62
     7
100
AcDbLine
 10
140.850001
 20
119.900002
 30
0.0
 11
140.896609
 21
123.293062
 31
0.0
  0
LINE
  5
13BC
100
AcDbEntity
  8
11000_LEFT
370
    25
390
0
  6
CONTINUOUS
 62
     7
100
AcDbLine
 10
140.599623
 20
119.900002
 30
0.0
 11
140.720274
 21
128.68354
 31
0.0
  0
LINE
  5
13BD
100
AcDbEntity
  8
11000_LEFT
370
    25
390
0
  6
CONTINUOUS
 62
     7
100
AcDbLine
 10
99.025
 20
122.5
 30
0.0
 11
99.025
 21
184.5
 31
0.0
  0
LINE
  5
13BE
100
AcDbEntity
  8
11000_LEFT
370
    25
390
0
  6
CONTINUOUS
 62
     7
100
AcDbLine
 10
101.925
 20
177.68
 30
0.0
 11
101.925
 21
184.700001
 31
0.0
  0
LINE
  5
13BF
100
AcDbEntity
  8
11000_LEFT
370
    25
390
0
  6
CONTINUOUS
 62
     7
100
AcDbLine
 10
101.925
 20
184.700003
 30
0.0
 11
101.925
 21
184.945
 31
0.0
  0
LINE
  5
13C0
100
AcDbEntity
  8
11000_LEFT
370
    25
390
0
  6
CONTINUOUS
 62
     7
100
AcDbLine
 10
101.925
 20
125.371283
 30
0.0
 11
101.925
 21
129.32
 31
0.0
  0
LINE
  5
13C1
100
AcDbEntity
  8
11000_LEFT
370
    25
390
0
  6
CONTINUOUS
 62
     7
100
AcDbLine
 10
101.925
 20
122.045
 30
0.0
 11
101.925
 21
122.297501
 31
0.0
  0
LINE
  5
13C2
100
AcDbEntity
  8
11000_LEFT
370
    25
390
0
  6
CONTINUOUS
 62
     7
100
AcDbLine
 10
101.925
 20
122.297501
 30
0.0
 11
101.925
 21
125.371281
 31
0.0
  0
LINE
  5
13C3
100
AcDbEntity
  8
11000_LEFT
370
    25
390
0
  6
CONTINUOUS
 62
     7
100
AcDbLine
 10
105.525
 20
129.32
 30
0.0
 11
105.525
 21
177.68
 31
0.0
  0
LINE
  5
13C4
100
AcDbEntity
  8
11000_LEFT
370
    25
390
0
  6
CONTINUOUS
 62
     7
100
AcDbLine
 10
105.525
 20
121.0
 30
0.0
 11
105.525
 21
122.045
 31
0.0
  0
LINE
  5
13C5
100
AcDbEntity
  8
11000_LEFT
370
    25
390
0
  6
CONTINUOUS
 62
     7
100
AcDbLine
 10
105.525
 20
184.945
 30
0.0
 11
105.525
 21
186.0
 31
0.0
  0
LINE
  5
13C6
100
AcDbEntity
  8
11000_LEFT
370
    25
390
0
  6
CONTINUOUS
 62
     7
100
AcDbLine
 10
105.550998
 20
181.200001
 30
0.0
 11
105.550998
 21
184.700001
 31
0.0
  0
LINE
  5
13C7
100
AcDbEntity
  8
11000_LEFT
370
    25
390
0
  6
CONTINUOUS
 62
     7
100
AcDbLine
 10
105.550998
 20
122.297501
 30
0.0
 11
105.550998
 21
125.799999
 31
0.0
  0
LINE
  5
13C8
100
AcDbEntity
  8
11000_LEFT
370
    25
390
0
  6
CONTINUOUS
 62
     7
100
AcDbLine
 10
107.014637
 20
181.200001
 30
0.0
 11
107.014637
 21
184.700001
 31
0.0
  0
LINE
  5
13C9
100
AcDbEntity
  8
11000_LEFT
370
    25
390
0
  6
CONTINUOUS
 62
     7
100
AcDbLine
 10
107.014637
 20
122.297501
 30
0.0
 11
107.014637
 21
125.799999
 31
0.0
  0
LINE
  5
13CA
100
AcDbEntity
  8
11000_LEFT
370
    25
390
0
  6
CONTINUOUS
 62
     7
100
AcDbLine
 10
108.025
 20
181.200001
 30
0.0
 11
108.025
 21
184.700001
 31
0.0
  0
LINE
  5
13CB
100
AcDbEntity
  8
11000_LEFT
370
    25
390
0
  6
CONTINUOUS
 62
     7
100
AcDbLine
 10
108.025
 20
122.297501
 30
0.0
 11
108.025
 21
125.799999
 31
0.0
  0
LINE
  5
13CC
100
AcDbEntity
  8
11000_LEFT
370
    25
390
0
  6
CONTINUOUS
 62
     7
100
AcDbLine
 10
111.425
 20
115.0
 30
0.0
 11
111.425
 21
120.200001
 31
0.0
  0
LINE
  5
13CD
100
AcDbEntity
  8
11000_LEFT
370
    25
390
0
  6
CONTINUOUS
 62
     7
100
AcDbLine
 10
111.425
 20
186.799999
 30
0.0
 11
111.425
 21
192.0
 31
0.0
  0
LINE
  5
13CE
100
AcDbEntity
  8
11000_LEFT
370
    25
390
0
  6
CONTINUOUS
 62
     7
100
AcDbLine
 10
113.525
 20
177.68
 30
0.0
 11
113.525
 21
178.517471
 31
0.0
  0
LINE
  5
13CF
100
AcDbEntity
  8
11000_LEFT
370
    25
390
0
  6
CONTINUOUS
 62
     7
100
AcDbLine
 10
113.525
 20
128.482529
 30
0.0
 11
113.525
 21
129.32
 31
0.0
  0
LINE
  5
13D0
100
AcDbEntity
  8
11000_LEFT
370
    25
390
0
  6
CONTINUOUS
 62
     7
100
AcDbLine
 10
113.525
 20
122.045
 30
0.0
 11
113.525
 21
122.297501
 31
0.0
  0
LINE
  5
13D1
100
AcDbEntity
  8
11000_LEFT
370
    25
390
0
  6
CONTINUOUS
 62
     7
100
AcDbLine
 10
113.525
 20
184.700001
 30
0.0
 11
113.525
 21
184.945
 31
0.0
  0
LINE
  5
13D2
100
AcDbEntity
  8
11000_LEFT
370
    25
390
0
  6
CONTINUOUS
 62
     7
100
AcDbLine
 10
128.975001
 20
115.0
 30
0.0
 11
128.975001
 21
121.700001
 31
0.0
  0
LINE
  5
13D3
100
AcDbEntity
  8
11000_LEFT
370
    25
390
0
  6
CONTINUOUS
 62
     7
100
AcDbLine
 10
128.975001
 20
185.299999
 30
0.0
 11
128.975001
 21
192.0
 31
0.0
  0
LINE
  5
13D4
100
AcDbEntity
  8
11000_LEFT
370
    25
390
0
  6
CONTINUOUS
 62
     7
100
AcDbLine
 10
129.875
 20
163.7
 30
0.0
 11
129.875
 21
170.5
 31
0.0
  0
LINE
  5
13D5
100
AcDbEntity
  8
11000_LEFT
370
    25
390
0
  6
CONTINUOUS
 62
     7
100
AcDbLine
 10
129.875
 20
136.5
 30
0.0
 11
129.875
 21
143.3
 31
0.0
  0
LINE
  5
13D6
100
AcDbEntity
  8
11000_LEFT
370
    25
390
0
  6
CONTINUOUS
 62
     7
100
AcDbLine
 10
131.175002
 20
136.5
 30
0.0
 11
131.175002
 21
143.3
 31
0.0
  0
LINE
  5
13D7
100
AcDbEntity
  8
11000_LEFT
370
    25
390
0
  6
CONTINUOUS
 62
     7
100
AcDbLine
 10
131.175002
 20
163.7
 30
0.0
 11
131.175002
 21
170.5
 31
0.0
  0
LINE
  5
13D8
100
AcDbEntity
  8
11000_LEFT
370
    25
390
0
  6
CONTINUOUS
 62
     7
100
AcDbLine
 10
131.225001
 20
184.500006
 30
0.0
 11
131.225001
 21
186.099998
 31
0.0
  0
LINE
  5
13D9
100
AcDbEntity
  8
11000_LEFT
370
    25
390
0
  6
CONTINUOUS
 62
     7
100
AcDbLine
 10
131.225001
 20
120.900002
 30
0.0
 11
131.225001
 21
122.500006
 31
0.0
  0
LINE
  5
13DA
100
AcDbEntity
  8
11000_LEFT
370
    25
390
0
  6
CONTINUOUS
 62
     7
100
AcDbLine
 10
131.225001
 20
119.427433
 30
0.0
 11
131.225001
 21
119.900002
 31
0.0
  0
LINE
  5
13DB
100
AcDbEntity
  8
11000_LEFT
370
    25
390
0
  6
CONTINUOUS
 62
     7
100
AcDbLine
 10
131.225001
 20
118.900002
 30
0.0
 11
131.225001
 21
119.427433
 31
0.0
  0
LINE
  5
13DC
100
AcDbEntity
  8
11000_LEFT
370
    25
390
0
  6
CONTINUOUS
 62
     7
100
AcDbLine
 10
131.225001
 20
187.099998
 30
0.0
 11
131.225001
 21
187.572567
 31
0.0
  0
LINE
  5
13DD
100
AcDbEntity
  8
11000_LEFT
370
    25
390
0
  6
CONTINUOUS
 62
     7
100
AcDbLine
 10
131.225001
 20
187.572567
 30
0.0
 11
131.225001
 21
188.099998
 31
0.0
  0
LINE
  5
13DE
100
AcDbEntity
  8
11000_LEFT
370
    25
390
0
  6
CONTINUOUS
 62
     7
100
AcDbLine
 10
132.175002
 20
163.7
 30
0.0
 11
132.175002
 21
170.5
 31
0.0
  0
LINE
  5
13DF
100
AcDbEntity
  8
11000_LEFT
370
    25
390
0
  6
CONTINUOUS
 62
     7
100
AcDbLine
 10
132.175002
 20
136.5
 30
0.0
 11
132.175002
 21
143.3
 31
0.0
  0
LINE
  5
13E0
100
AcDbEntity
  8
11000_LEFT
370
    25
390
0
  6
CONTINUOUS
 62
     7
100
AcDbLine
 10
132.225001
 20
151.25
 30
0.0
 11
132.225001
 21
155.75
 31
0.0
  0
LINE
  5
13E1
100
AcDbEntity
  8
11000_LEFT
370
    25
390
0
  6
CONTINUOUS
 62
     7
100
AcDbLine
 10
132.324999
 20
123.299999
 30
0.0
 11
132.324999
 21
132.0
 31
0.0
  0
LINE
  5
13E2
100
AcDbEntity
  8
11000_LEFT
370
    25
390
0
  6
CONTINUOUS
 62
     7
100
AcDbLine
 10
132.324999
 20
175.0
 30
0.0
 11
132.324999
 21
183.700001
 31
0.0
  0
LINE
  5
13E3
100
AcDbEntity
  8
11000_LEFT
370
    25
390
0
  6
CONTINUOUS
 62
     7
100
AcDbLine
 10
132.960295
 20
129.0
 30
0.0
 11
132.960295
 21
130.454166
 31
0.0
  0
LINE
  5
13E4
100
AcDbEntity
  8
11000_LEFT
370
    25
390
0
  6
CONTINUOUS
 62
     7
100
AcDbLine
 10
132.960295
 20
176.545834
 30
0.0
 11
132.960295
 21
178.0
 31
0.0
  0
LINE
  5
13E5
100
AcDbEntity
  8
11000_LEFT
370
    25
390
0
  6
CONTINUOUS
 62
     7
100
AcDbLine
 10
133.574999
 20
163.7
 30
0.0
 11
133.574999
 21
170.5
 31
0.0
  0
LINE
  5
13E6
100
AcDbEntity
  8
11000_LEFT
370
    25
390
0
  6
CONTINUOUS
 62
     7
100
AcDbLine
 10
133.574999
 20
136.5
 30
0.0
 11
133.574999
 21
143.3
 31
0.0
  0
LINE
  5
13E7
100
AcDbEntity
  8
11000_LEFT
370
    25
390
0
  6
CONTINUOUS
 62
     7
100
AcDbLine
 10
134.058005
 20
178.0
 30
0.0
 11
134.058005
 21
178.5
 31
0.0
  0
LINE
  5
13E8
100
AcDbEntity
  8
11000_LEFT
370
    25
390
0
  6
CONTINUOUS
 62
     7
100
AcDbLine
 10
134.058005
 20
128.5
 30
0.0
 11
134.058005
 21
129.0
 31
0.0
  0
LINE
  5
13E9
100
AcDbEntity
  8
11000_LEFT
370
    25
390
0
  6
CONTINUOUS
 62
     7
100
AcDbLine
 10
134.425002
 20
172.0
 30
0.0
 11
134.425002
 21
175.0
 31
0.0
  0
LINE
  5
13EA
100
AcDbEntity
  8
11000_LEFT
370
    25
390
0
  6
CONTINUOUS
 62
     7
100
AcDbLine
 10
134.425002
 20
132.0
 30
0.0
 11
134.425002
 21
135.0
 31
0.0
  0
LINE
  5
13EB
100
AcDbEntity
  8
11000_LEFT
370
    25
390
0
  6
CONTINUOUS
 62
     7
100
AcDbLine
 10
134.725001
 20
187.072548
 30
0.0
 11
134.725001
 21
187.099998
 31
0.0
  0
LINE
  5
13EC
100
AcDbEntity
  8
11000_LEFT
370
    25
390
0
  6
CONTINUOUS
 62
     7
100
AcDbLine
 10
134.725001
 20
176.754168
 30
0.0
 11
134.725001
 21
177.072618
 31
0.0
  0
LINE
  5
13ED
100
AcDbEntity
  8
11000_LEFT
370
    25
390
0
  6
CONTINUOUS
 62
     7
100
AcDbLine
 10
134.725001
 20
177.072618
 30
0.0
 11
134.725001
 21
178.50909
 31
0.0
  0
LINE
  5
13EE
100
AcDbEntity
  8
11000_LEFT
370
    25
390
0
  6
CONTINUOUS
 62
     7
100
AcDbLine
 10
134.725001
 20
178.50909
 30
0.0
 11
134.725001
 21
179.1
 31
0.0
  0
LINE
  5
13EF
100
AcDbEntity
  8
11000_LEFT
370
    25
390
0
  6
CONTINUOUS
 62
     7
100
AcDbLine
 10
134.725001
 20
127.9
 30
0.0
 11
134.725001
 21
128.49091
 31
0.0
  0
LINE
  5
13F0
100
AcDbEntity
  8
11000_LEFT
370
    25
390
0
  6
CONTINUOUS
 62
     7
100
AcDbLine
 10
134.725001
 20
128.49091
 30
0.0
 11
134.725001
 21
129.927382
 31
0.0
  0
LINE
  5
13F1
100
AcDbEntity
  8
11000_LEFT
370
    25
390
0
  6
CONTINUOUS
 62
     7
100
AcDbLine
 10
134.725001
 20
129.927382
 30
0.0
 11
134.725001
 21
130.245832
 31
0.0
  0
LINE
  5
13F2
100
AcDbEntity
  8
11000_LEFT
370
    25
390
0
  6
CONTINUOUS
 62
     7
100
AcDbLine
 10
134.725001
 20
119.900002
 30
0.0
 11
134.725001
 21
119.927452
 31
0.0
  0
LINE
  5
13F3
100
AcDbEntity
  8
11000_LEFT
370
    25
390
0
  6
CONTINUOUS
 62
     7
100
AcDbLine
 10
135.725001
 20
177.200001
 30
0.0
 11
135.725001
 21
177.6
 31
0.0
  0
LINE
  5
13F4
100
AcDbEntity
  8
11000_LEFT
370
    25
390
0
  6
CONTINUOUS
 62
     7
100
AcDbLine
 10
135.725001
 20
129.4
 30
0.0
 11
135.725001
 21
129.799999
 31
0.0
  0
LINE
  5
13F5
100
AcDbEntity
  8
11000_LEFT
370
    25
390
0
  6
CONTINUOUS
 62
     7
100
AcDbLine
 10
139.725001
 20
129.4
 30
0.0
 11
139.725001
 21
129.799999
 31
0.0
  0
LINE
  5
13F6
100
AcDbEntity
  8
11000_LEFT
370
    25
390
0
  6
CONTINUOUS
 62
     7
100
AcDbLine
 10
139.725001
 20
177.200001
 30
0.0
 11
139.725001
 21
177.6
 31
0.0
  0
LINE
  5
13F7
100
AcDbEntity
  8
11000_LEFT
370
    25
390
0
  6
CONTINUOUS
 62
     7
100
AcDbLine
 10
140.2125
 20
127.9
 30
0.0
 11
140.2125
 21
129.0
 31
0.0
  0
LINE
  5
13F8
100
AcDbEntity
  8
11000_LEFT
370
    25
390
0
  6
CONTINUOUS
 62
     7
100
AcDbLine
 10
140.2125
 20
178.0
 30
0.0
 11
140.2125
 21
179.1
 31
0.0
  0
LINE
  5
13F9
100
AcDbEntity
  8
11000_LEFT
370
    25
390
0
  6
CONTINUOUS
 62
     7
100
AcDbLine
 10
140.925002
 20
172.0
 30
0.0
 11
140.925002
 21
175.0
 31
0.0
  0
LINE
  5
13FA
100
AcDbEntity
  8
11000_LEFT
370
    25
390
0
  6
CONTINUOUS
 62
     7
100
AcDbLine
 10
140.925002
 20
132.0
 30
0.0
 11
140.925002
 21
135.0
 31
0.0
  0
LINE
  5
13FB
100
AcDbEntity
  8
11000_LEFT
370
    25
390
0
  6
CONTINUOUS
 62
     7
100
AcDbLine
 10
141.725001
 20
126.799999
 30
0.0
 11
141.725001
 21
132.0
 31
0.0
  0
LINE
  5
13FC
100
AcDbEntity
  8
11000_LEFT
370
    25
390
0
  6
CONTINUOUS
 62
     7
100
AcDbLine
 10
141.725001
 20
175.0
 30
0.0
 11
141.725001
 21
180.200001
 31
0.0
  0
LINE
  5
13FD
100
AcDbEntity
  8
11000_LEFT
370
    25
390
0
  6
CONTINUOUS
 62
     7
100
AcDbLine
 10
143.225001
 20
121.700001
 30
0.0
 11
143.225001
 21
125.999992
 31
0.0
  0
LINE
  5
13FE
100
AcDbEntity
  8
11000_LEFT
370
    25
390
0
  6
CONTINUOUS
 62
     7
100
AcDbLine
 10
143.225001
 20
181.000008
 30
0.0
 11
143.225001
 21
182.5
 31
0.0
  0
LINE
  5
13FF
100
AcDbEntity
  8
11000_LEFT
370
    25
390
0
  6
CONTINUOUS
 62
     7
100
AcDbLine
 10
143.225001
 20
182.5
 30
0.0
 11
143.225001
 21
184.436491
 31
0.0
  0
LINE
  5
1400
100
AcDbEntity
  8
11000_LEFT
370
    25
390
0
  6
CONTINUOUS
 62
     7
100
AcDbLine
 10
143.225001
 20
184.436491
 30
0.0
 11
143.225001
 21
185.299999
 31
0.0
  0
LINE
  5
1401
100
AcDbEntity
  8
11000_LEFT
370
    25
390
0
  6
CONTINUOUS
 62
     7
100
AcDbLine
 10
143.225001
 20
187.099998
 30
0.0
 11
143.225001
 21
187.572567
 31
0.0
  0
LINE
  5
1402
100
AcDbEntity
  8
11000_LEFT
370
    25
390
0
  6
CONTINUOUS
 62
     7
100
AcDbLine
 10
143.225001
 20
187.572567
 30
0.0
 11
143.225001
 21
188.099998
 31
0.0
  0
LINE
  5
1403
100
AcDbEntity
  8
11000_LEFT
370
    25
390
0
  6
CONTINUOUS
 62
     7
100
AcDbLine
 10
143.225001
 20
119.427433
 30
0.0
 11
143.225001
 21
119.900002
 31
0.0
  0
LINE
  5
1404
100
AcDbEntity
  8
11000_LEFT
370
    25
390
0
  6
CONTINUOUS
 62
     7
100
AcDbLine
 10
143.225001
 20
118.900002
 30
0.0
 11
143.225001
 21
119.427433
 31
0.0
  0
LINE
  5
1405
100
AcDbEntity
  8
11000_LEFT
370
    25
390
0
  6
CONTINUOUS
 62
     7
100
AcDbLine
 10
146.8245
 20
151.25
 30
0.0
 11
146.8245
 21
155.75
 31
0.0
  0
LINE
  5
1406
100
AcDbEntity
  8
11000_LEFT
370
    25
390
0
  6
CONTINUOUS
 62
     7
100
AcDbLine
 10
151.5245
 20
151.25
 30
0.0
 11
151.5245
 21
155.75
 31
0.0
  0
LINE
  5
1407
100
AcDbEntity
  8
11000_LEFT
370
    25
390
0
  6
CONTINUOUS
 62
     7
100
AcDbLine
 10
153.225001
 20
151.25
 30
0.0
 11
153.225001
 21
155.75
 31
0.0
  0
LINE
  5
1408
100
AcDbEntity
  8
11000_LEFT
370
    25
390
0
  6
CONTINUOUS
 62
     7
100
AcDbLine
 10
169.724997
 20
134.0
 30
0.0
 11
169.724997
 21
173.0
 31
0.0
  0
ARC
  5
1409
100
AcDbEntity
  8
11000_LEFT
370
    25
390
0
  6
CONTINUOUS
 62
     7
100
AcDbCircle
 10
-80.274983
 20
134.0
 30
0.0
 40
249.999983
100
AcDbArc
 50
358.501147
 51
0.0
  0
ARC
  5
140A
100
AcDbEntity
  8
11000_LEFT
370
    25
390
0
  6
CONTINUOUS
 62
     7
100
AcDbCircle
 10
-80.274983
 20
173.0
 30
0.0
 40
249.999983
100
AcDbArc
 50
0.0
 51
1.498853
  0
ARC
  5
140B
100
AcDbEntity
  8
11000_LEFT
370
    25
390
0
  6
CONTINUOUS
 62
     7
100
AcDbCircle
 10
100.525
 20
122.5
 30
0.0
 40
1.5
100
AcDbArc
 50
180.0
 51
270.0
  0
ARC
  5
140C
100
AcDbEntity
  8
11000_LEFT
370
    25
390
0
  6
CONTINUOUS
 62
     7
100
AcDbCircle
 10
100.525
 20
184.5
 30
0.0
 40
1.5
100
AcDbArc
 50
90.0
 51
180.0
  0
ARC
  5
140D
100
AcDbEntity
  8
11000_LEFT
370
    25
390
0
  6
CONTINUOUS
 62
     7
100
AcDbCircle
 10
110.625
 20
120.2
 30
0.0
 40
0.8
100
AcDbArc
 50
0.0
 51
89.999971
  0
ARC
  5
140E
100
AcDbEntity
  8
11000_LEFT
370
    25
390
0
  6
CONTINUOUS
 62
     7
100
AcDbCircle
 10
110.625
 20
186.8
 30
0.0
 40
0.8
100
AcDbArc
 50
270.000029
 51
0.0
  0
ARC
  5
140F
100
AcDbEntity
  8
11000_LEFT
370
    25
390
0
  6
CONTINUOUS
 62
     7
100
AcDbCircle
 10
112.925
 20
115.0
 30
0.0
 40
1.5
100
AcDbArc
 50
180.0
 51
269.999985
  0
ARC
  5
1410
100
AcDbEntity
  8
11000_LEFT
370
    25
390
0
  6
CONTINUOUS
 62
     7
100
AcDbCircle
 10
112.925
 20
192.0
 30
0.0
 40
1.5
100
AcDbArc
 50
90.000015
 51
180.0
  0
ARC
  5
1411
100
AcDbEntity
  8
11000_LEFT
370
    25
390
0
  6
CONTINUOUS
 62
     7
100
AcDbCircle
 10
127.475
 20
115.0
 30
0.0
 40
1.5
100
AcDbArc
 50
270.000029
 51
0.0
  0
ARC
  5
1412
100
AcDbEntity
  8
11000_LEFT
370
    25
390
0
  6
CONTINUOUS
 62
     7
100
AcDbCircle
 10
127.475
 20
192.0
 30
0.0
 40
1.5
100
AcDbArc
 50
0.0
 51
89.999971
  0
ARC
  5
1413
100
AcDbEntity
  8
11000_LEFT
370
    25
390
0
  6
CONTINUOUS
 62
     7
100
AcDbCircle
 10
129.775
 20
120.1
 30
0.0
 40
0.8
100
AcDbArc
 50
90.000001
 51
179.771706
  0
ARC
  5
1414
100
AcDbEntity
  8
11000_LEFT
370
    25
390
0
  6
CONTINUOUS
 62
     7
100
AcDbCircle
 10
129.775
 20
121.7
 30
0.0
 40
0.8
100
AcDbArc
 50
90.000001
 51
180.0
  0
ARC
  5
1415
100
AcDbEntity
  8
11000_LEFT
370
    25
390
0
  6
CONTINUOUS
 62
     7
100
AcDbCircle
 10
129.775
 20
185.3
 30
0.0
 40
0.8
100
AcDbArc
 50
180.0
 51
269.999999
  0
ARC
  5
1416
100
AcDbEntity
  8
11000_LEFT
370
    25
390
0
  6
CONTINUOUS
 62
     7
100
AcDbCircle
 10
129.775
 20
186.9
 30
0.0
 40
0.8
100
AcDbArc
 50
180.228294
 51
269.999999
  0
ARC
  5
1417
100
AcDbEntity
  8
11000_LEFT
370
    25
390
0
  6
CONTINUOUS
 62
     7
100
AcDbCircle
 10
131.525
 20
123.3
 30
0.0
 40
0.8
100
AcDbArc
 50
270.000001
 51
0.0
  0
ARC
  5
1418
100
AcDbEntity
  8
11000_LEFT
370
    25
390
0
  6
CONTINUOUS
 62
     7
100
AcDbCircle
 10
131.525
 20
183.7
 30
0.0
 40
0.8
100
AcDbArc
 50
0.0
 51
89.999999
  0
POLYLINE
  5
1419
100
AcDbEntity
  8
11000_LEFT
370
    25
390
0
  6
CONTINUOUS
 62
     7
100
AcDb2dPolyline
 66
     1
 10
0.0
 20
0.0
 30
0.0
  0
VERTEX
  5
141A
100
AcDbEntity
  8
11000_LEFT
370
    25
390
0
  6
CONTINUOUS
 62
     7
100
AcDbVertex
100
AcDb2dVertex
 10
134.306259
 20
123.293061
 30
0.0
  0
VERTEX
  5
141B
100
AcDbEntity
  8
11000_LEFT
370
    25
390
0
  6
CONTINUOUS
 62
     7
100
AcDbVertex
100
AcDb2dVertex
 10
134.360901
 20
123.998083
 30
0.0
  0
VERTEX
  5
141C
100
AcDbEntity
  8
11000_LEFT
370
    25
390
0
  6
CONTINUOUS
 62
     7
100
AcDbVertex
100
AcDb2dVertex
 10
134.369933
 20
124.719449
 30
0.0
  0
VERTEX
  5
141D
100
AcDbEntity
  8
11000_LEFT
370
    25
390
0
  6
CONTINUOUS
 62
     7
100
AcDbVertex
100
AcDb2dVertex
 10
134.333061
 20
125.43367
 30
0.0
  0
VERTEX
  5
141E
100
AcDbEntity
  8
11000_LEFT
370
    25
390
0
  6
CONTINUOUS
 62
     7
100
AcDbVertex
100
AcDb2dVertex
 10
134.251487
 20
126.117486
 30
0.0
  0
SEQEND
  5
141F
100
AcDbEntity
  8
11000_LEFT
370
    25
390
0
  6
CONTINUOUS
 62
     7
  0
POLYLINE
  5
1420
100
AcDbEntity
  8
11000_LEFT
370
    25
390
0
  6
CONTINUOUS
 62
     7
100
AcDb2dPolyline
 66
     1
 10
0.0
 20
0.0
 30
0.0
  0
VERTEX
  5
1421
100
AcDbEntity
  8
11000_LEFT
370
    25
390
0
  6
CONTINUOUS
 62
     7
100
AcDbVertex
100
AcDb2dVertex
 10
134.251487
 20
180.882514
 30
0.0
  0
VERTEX
  5
1422
100
AcDbEntity
  8
11000_LEFT
370
    25
390
0
  6
CONTINUOUS
 62
     7
100
AcDbVertex
100
AcDb2dVertex
 10
134.333061
 20
181.56633
 30
0.0
  0
VERTEX
  5
1423
100
AcDbEntity
  8
11000_LEFT
370
    25
390
0
  6
CONTINUOUS
 62
     7
100
AcDbVertex
100
AcDb2dVertex
 10
134.369933
 20
182.280551
 30
0.0
  0
VERTEX
  5
1424
100
AcDbEntity
  8
11000_LEFT
370
    25
390
0
  6
CONTINUOUS
 62
     7
100
AcDbVertex
100
AcDb2dVertex
 10
134.360901
 20
183.001917
 30
0.0
  0
VERTEX
  5
1425
100
AcDbEntity
  8
11000_LEFT
370
    25
390
0
  6
CONTINUOUS
 62
     7
100
AcDbVertex
100
AcDb2dVertex
 10
134.306259
 20
183.706939
 30
0.0
  0
SEQEND
  5
1426
100
AcDbEntity
  8
11000_LEFT
370
    25
390
0
  6
CONTINUOUS
 62
     7
  0
POLYLINE
  5
1427
100
AcDbEntity
  8
11000_LEFT
370
    25
390
0
  6
CONTINUOUS
 62
     7
100
AcDb2dPolyline
 66
     1
 10
0.0
 20
0.0
 30
0.0
  0
VERTEX
  5
1428
100
AcDbEntity
  8
11000_LEFT
370
    25
390
0
  6
CONTINUOUS
 62
     7
100
AcDbVertex
100
AcDb2dVertex
 10
134.201087
 20
128.716459
 30
0.0
  0
VERTEX
  5
1429
100
AcDbEntity
  8
11000_LEFT
370
    25
390
0
  6
CONTINUOUS
 62
     7
100
AcDbVertex
100
AcDb2dVertex
 10
134.1981
 20
128.772587
 30
0.0
  0
VERTEX
  5
142A
100
AcDbEntity
  8
11000_LEFT
370
    25
390
0
  6
CONTINUOUS
 62
     7
100
AcDbVertex
100
AcDb2dVertex
 10
134.191435
 20
128.826116
 30
0.0
  0
VERTEX
  5
142B
100
AcDbEntity
  8
11000_LEFT
370
    25
390
0
  6
CONTINUOUS
 62
     7
100
AcDbVertex
100
AcDb2dVertex
 10
134.181332
 20
128.875131
 30
0.0
  0
VERTEX
  5
142C
100
AcDbEntity
  8
11000_LEFT
370
    25
390
0
  6
CONTINUOUS
 62
     7
100
AcDbVertex
100
AcDb2dVertex
 10
134.16815
 20
128.917875
 30
0.0
  0
VERTEX
  5
142D
100
AcDbEntity
  8
11000_LEFT
370
    25
390
0
  6
CONTINUOUS
 62
     7
100
AcDbVertex
100
AcDb2dVertex
 10
134.152363
 20
128.95282
 30
0.0
  0
VERTEX
  5
142E
100
AcDbEntity
  8
11000_LEFT
370
    25
390
0
  6
CONTINUOUS
 62
     7
100
AcDbVertex
100
AcDb2dVertex
 10
134.134536
 20
128.978715
 30
0.0
  0
VERTEX
  5
142F
100
AcDbEntity
  8
11000_LEFT
370
    25
390
0
  6
CONTINUOUS
 62
     7
100
AcDbVertex
100
AcDb2dVertex
 10
134.115306
 20
128.994631
 30
0.0
  0
VERTEX
  5
1430
100
AcDbEntity
  8
11000_LEFT
370
    25
390
0
  6
CONTINUOUS
 62
     7
100
AcDbVertex
100
AcDb2dVertex
 10
134.095362
 20
129.0
 30
0.0
  0
SEQEND
  5
1431
100
AcDbEntity
  8
11000_LEFT
370
    25
390
0
  6
CONTINUOUS
 62
     7
  0
POLYLINE
  5
1432
100
AcDbEntity
  8
11000_LEFT
370
    25
390
0
  6
CONTINUOUS
 62
     7
100
AcDb2dPolyline
 66
     1
 10
0.0
 20
0.0
 30
0.0
  0
VERTEX
  5
1433
100
AcDbEntity
  8
11000_LEFT
370
    25
390
0
  6
CONTINUOUS
 62
     7
100
AcDbVertex
100
AcDb2dVertex
 10
134.095362
 20
178.0
 30
0.0
  0
VERTEX
  5
1434
100
AcDbEntity
  8
11000_LEFT
370
    25
390
0
  6
CONTINUOUS
 62
     7
100
AcDbVertex
100
AcDb2dVertex
 10
134.115306
 20
178.005369
 30
0.0
  0
VERTEX
  5
1435
100
AcDbEntity
  8
11000_LEFT
370
    25
390
0
  6
CONTINUOUS
 62
     7
100
AcDbVertex
100
AcDb2dVertex
 10
134.134536
 20
178.021285
 30
0.0
  0
VERTEX
  5
1436
100
AcDbEntity
  8
11000_LEFT
370
    25
390
0
  6
CONTINUOUS
 62
     7
100
AcDbVertex
100
AcDb2dVertex
 10
134.152363
 20
178.04718
 30
0.0
  0
VERTEX
  5
1437
100
AcDbEntity
  8
11000_LEFT
370
    25
390
0
  6
CONTINUOUS
 62
     7
100
AcDbVertex
100
AcDb2dVertex
 10
134.16815
 20
178.082125
 30
0.0
  0
VERTEX
  5
1438
100
AcDbEntity
  8
11000_LEFT
370
    25
390
0
  6
CONTINUOUS
 62
     7
100
AcDbVertex
100
AcDb2dVertex
 10
134.181332
 20
178.124869
 30
0.0
  0
VERTEX
  5
1439
100
AcDbEntity
  8
11000_LEFT
370
    25
390
0
  6
CONTINUOUS
 62
     7
100
AcDbVertex
100
AcDb2dVertex
 10
134.191435
 20
178.173884
 30
0.0
  0
VERTEX
  5
143A
100
AcDbEntity
  8
11000_LEFT
370
    25
390
0
  6
CONTINUOUS
 62
     7
100
AcDbVertex
100
AcDb2dVertex
 10
134.1981
 20
178.227413
 30
0.0
  0
VERTEX
  5
143B
100
AcDbEntity
  8
11000_LEFT
370
    25
390
0
  6
CONTINUOUS
 62
     7
100
AcDbVertex
100
AcDb2dVertex
 10
134.201087
 20
178.283541
 30
0.0
  0
SEQEND
  5
143C
100
AcDbEntity
  8
11000_LEFT
370
    25
390
0
  6
CONTINUOUS
 62
     7
  0
POLYLINE
  5
143D
100
AcDbEntity
  8
11000_LEFT
370
    25
390
0
  6
CONTINUOUS
 62
     7
100
AcDb2dPolyline
 66
     1
 10
0.0
 20
0.0
 30
0.0
  0
VERTEX
  5
143E
100
AcDbEntity
  8
11000_LEFT
370
    25
390
0
  6
CONTINUOUS
 62
     7
100
AcDbVertex
100
AcDb2dVertex
 10
134.660922
 20
129.0
 30
0.0
  0
VERTEX
  5
143F
100
AcDbEntity
  8
11000_LEFT
370
    25
390
0
  6
CONTINUOUS
 62
     7
100
AcDbVertex
100
AcDb2dVertex
 10
134.639553
 20
128.993827
 30
0.0
  0
VERTEX
  5
1440
100
AcDbEntity
  8
11000_LEFT
370
    25
390
0
  6
CONTINUOUS
 62
     7
100
AcDbVertex
100
AcDb2dVertex
 10
134.619064
 20
128.975562
 30
0.0
  0
VERTEX
  5
1441
100
AcDbEntity
  8
11000_LEFT
370
    25
390
0
  6
CONTINUOUS
 62
     7
100
AcDbVertex
100
AcDb2dVertex
 10
134.600297
 20
128.945957
 30
0.0
  0
VERTEX
  5
1442
100
AcDbEntity
  8
11000_LEFT
370
    25
390
0
  6
CONTINUOUS
 62
     7
100
AcDbVertex
100
AcDb2dVertex
 10
134.584026
 20
128.906231
 30
0.0
  0
VERTEX
  5
1443
100
AcDbEntity
  8
11000_LEFT
370
    25
390
0
  6
CONTINUOUS
 62
     7
100
AcDbVertex
100
AcDb2dVertex
 10
134.570918
 20
128.858017
 30
0.0
  0
VERTEX
  5
1444
100
AcDbEntity
  8
11000_LEFT
370
    25
390
0
  6
CONTINUOUS
 62
     7
100
AcDbVertex
100
AcDb2dVertex
 10
134.561515
 20
128.8033
 30
0.0
  0
VERTEX
  5
1445
100
AcDbEntity
  8
11000_LEFT
370
    25
390
0
  6
CONTINUOUS
 62
     7
100
AcDbVertex
100
AcDb2dVertex
 10
134.556202
 20
128.744333
 30
0.0
  0
VERTEX
  5
1446
100
AcDbEntity
  8
11000_LEFT
370
    25
390
0
  6
CONTINUOUS
 62
     7
100
AcDbVertex
100
AcDb2dVertex
 10
134.555199
 20
128.683541
 30
0.0
  0
SEQEND
  5
1447
100
AcDbEntity
  8
11000_LEFT
370
    25
390
0
  6
CONTINUOUS
 62
     7
  0
POLYLINE
  5
1448
100
AcDbEntity
  8
11000_LEFT
370
    25
390
0
  6
CONTINUOUS
 62
     7
100
AcDb2dPolyline
 66
     1
 10
0.0
 20
0.0
 30
0.0
  0
VERTEX
  5
1449
100
AcDbEntity
  8
11000_LEFT
370
    25
390
0
  6
CONTINUOUS
 62
     7
100
AcDbVertex
100
AcDb2dVertex
 10
134.555199
 20
178.316457
 30
0.0
  0
VERTEX
  5
144A
100
AcDbEntity
  8
11000_LEFT
370
    25
390
0
  6
CONTINUOUS
 62
     7
100
AcDbVertex
100
AcDb2dVertex
 10
134.556203
 20
178.255666
 30
0.0
  0
VERTEX
  5
144B
100
AcDbEntity
  8
11000_LEFT
370
    25
390
0
  6
CONTINUOUS
 62
     7
100
AcDbVertex
100
AcDb2dVertex
 10
134.561515
 20
178.196698
 30
0.0
  0
VERTEX
  5
144C
100
AcDbEntity
  8
11000_LEFT
370
    25
390
0
  6
CONTINUOUS
 62
     7
100
AcDbVertex
100
AcDb2dVertex
 10
134.570919
 20
178.141982
 30
0.0
  0
VERTEX
  5
144D
100
AcDbEntity
  8
11000_LEFT
370
    25
390
0
  6
CONTINUOUS
 62
     7
100
AcDbVertex
100
AcDb2dVertex
 10
134.584026
 20
178.093769
 30
0.0
  0
VERTEX
  5
144E
100
AcDbEntity
  8
11000_LEFT
370
    25
390
0
  6
CONTINUOUS
 62
     7
100
AcDbVertex
100
AcDb2dVertex
 10
134.600298
 20
178.054042
 30
0.0
  0
VERTEX
  5
144F
100
AcDbEntity
  8
11000_LEFT
370
    25
390
0
  6
CONTINUOUS
 62
     7
100
AcDbVertex
100
AcDb2dVertex
 10
134.619064
 20
178.024438
 30
0.0
  0
VERTEX
  5
1450
100
AcDbEntity
  8
11000_LEFT
370
    25
390
0
  6
CONTINUOUS
 62
     7
100
AcDbVertex
100
AcDb2dVertex
 10
134.639553
 20
178.006173
 30
0.0
  0
VERTEX
  5
1451
100
AcDbEntity
  8
11000_LEFT
370
    25
390
0
  6
CONTINUOUS
 62
     7
100
AcDbVertex
100
AcDb2dVertex
 10
134.660922
 20
178.0
 30
0.0
  0
SEQEND
  5
1452
100
AcDbEntity
  8
11000_LEFT
370
    25
390
0
  6
CONTINUOUS
 62
     7
  0
POLYLINE
  5
1453
100
AcDbEntity
  8
11000_LEFT
370
    25
390
0
  6
CONTINUOUS
 62
     7
100
AcDb2dPolyline
 66
     1
 10
0.0
 20
0.0
 30
0.0
  0
VERTEX
  5
1454
100
AcDbEntity
  8
11000_LEFT
370
    25
390
0
  6
CONTINUOUS
 62
     7
100
AcDbVertex
100
AcDb2dVertex
 10
140.720276
 20
128.68354
 30
0.0
  0
VERTEX
  5
1455
100
AcDbEntity
  8
11000_LEFT
370
    25
390
0
  6
CONTINUOUS
 62
     7
100
AcDbVertex
100
AcDb2dVertex
 10
140.719566
 20
128.744333
 30
0.0
  0
VERTEX
  5
1456
100
AcDbEntity
  8
11000_LEFT
370
    25
390
0
  6
CONTINUOUS
 62
     7
100
AcDbVertex
100
AcDb2dVertex
 10
140.715802
 20
128.803301
 30
0.0
  0
VERTEX
  5
1457
100
AcDbEntity
  8
11000_LEFT
370
    25
390
0
  6
CONTINUOUS
 62
     7
100
AcDbVertex
100
AcDb2dVertex
 10
140.709142
 20
128.858018
 30
0.0
  0
VERTEX
  5
1458
100
AcDbEntity
  8
11000_LEFT
370
    25
390
0
  6
CONTINUOUS
 62
     7
100
AcDbVertex
100
AcDb2dVertex
 10
140.699857
 20
128.906232
 30
0.0
  0
VERTEX
  5
1459
100
AcDbEntity
  8
11000_LEFT
370
    25
390
0
  6
CONTINUOUS
 62
     7
100
AcDbVertex
100
AcDb2dVertex
 10
140.688331
 20
128.945959
 30
0.0
  0
VERTEX
  5
145A
100
AcDbEntity
  8
11000_LEFT
370
    25
390
0
  6
CONTINUOUS
 62
     7
100
AcDbVertex
100
AcDb2dVertex
 10
140.675038
 20
128.975563
 30
0.0
  0
VERTEX
  5
145B
100
AcDbEntity
  8
11000_LEFT
370
    25
390
0
  6
CONTINUOUS
 62
     7
100
AcDbVertex
100
AcDb2dVertex
 10
140.660524
 20
128.993828
 30
0.0
  0
VERTEX
  5
145C
100
AcDbEntity
  8
11000_LEFT
370
    25
390
0
  6
CONTINUOUS
 62
     7
100
AcDbVertex
100
AcDb2dVertex
 10
140.645388
 20
129.0
 30
0.0
  0
SEQEND
  5
145D
100
AcDbEntity
  8
11000_LEFT
370
    25
390
0
  6
CONTINUOUS
 62
     7
  0
POLYLINE
  5
145E
100
AcDbEntity
  8
11000_LEFT
370
    25
390
0
  6
CONTINUOUS
 62
     7
100
AcDb2dPolyline
 66
     1
 10
0.0
 20
0.0
 30
0.0
  0
VERTEX
  5
145F
100
AcDbEntity
  8
11000_LEFT
370
    25
390
0
  6
CONTINUOUS
 62
     7
100
AcDbVertex
100
AcDb2dVertex
 10
140.645388
 20
178.0
 30
0.0
  0
VERTEX
  5
1460
100
AcDbEntity
  8
11000_LEFT
370
    25
390
0
  6
CONTINUOUS
 62
     7
100
AcDbVertex
100
AcDb2dVertex
 10
140.660524
 20
178.006172
 30
0.0
  0
VERTEX
  5
1461
100
AcDbEntity
  8
11000_LEFT
370
    25
390
0
  6
CONTINUOUS
 62
     7
100
AcDbVertex
100
AcDb2dVertex
 10
140.675038
 20
178.024436
 30
0.0
  0
VERTEX
  5
1462
100
AcDbEntity
  8
11000_LEFT
370
    25
390
0
  6
CONTINUOUS
 62
     7
100
AcDbVertex
100
AcDb2dVertex
 10
140.688331
 20
178.054041
 30
0.0
  0
VERTEX
  5
1463
100
AcDbEntity
  8
11000_LEFT
370
    25
390
0
  6
CONTINUOUS
 62
     7
100
AcDbVertex
100
AcDb2dVertex
 10
140.699857
 20
178.093768
 30
0.0
  0
VERTEX
  5
1464
100
AcDbEntity
  8
11000_LEFT
370
    25
390
0
  6
CONTINUOUS
 62
     7
100
AcDbVertex
100
AcDb2dVertex
 10
140.709141
 20
178.141981
 30
0.0
  0
VERTEX
  5
1465
100
AcDbEntity
  8
11000_LEFT
370
    25
390
0
  6
CONTINUOUS
 62
     7
100
AcDbVertex
100
AcDb2dVertex
 10
140.715802
 20
178.196698
 30
0.0
  0
VERTEX
  5
1466
100
AcDbEntity
  8
11000_LEFT
370
    25
390
0
  6
CONTINUOUS
 62
     7
100
AcDbVertex
100
AcDb2dVertex
 10
140.719566
 20
178.255666
 30
0.0
  0
VERTEX
  5
1467
100
AcDbEntity
  8
11000_LEFT
370
    25
390
0
  6
CONTINUOUS
 62
     7
100
AcDbVertex
100
AcDb2dVertex
 10
140.720276
 20
178.316458
 30
0.0
  0
SEQEND
  5
1468
100
AcDbEntity
  8
11000_LEFT
370
    25
390
0
  6
CONTINUOUS
 62
     7
  0
POLYLINE
  5
1469
100
AcDbEntity
  8
11000_LEFT
370
    25
390
0
  6
CONTINUOUS
 62
     7
100
AcDb2dPolyline
 66
     1
 10
0.0
 20
0.0
 30
0.0
  0
VERTEX
  5
146A
100
AcDbEntity
  8
11000_LEFT
370
    25
390
0
  6
CONTINUOUS
 62
     7
100
AcDbVertex
100
AcDb2dVertex
 10
141.045992
 20
129.0
 30
0.0
  0
VERTEX
  5
146B
100
AcDbEntity
  8
11000_LEFT
370
    25
390
0
  6
CONTINUOUS
 62
     7
100
AcDbVertex
100
AcDb2dVertex
 10
141.031865
 20
128.99463
 30
0.0
  0
VERTEX
  5
146C
100
AcDbEntity
  8
11000_LEFT
370
    25
390
0
  6
CONTINUOUS
 62
     7
100
AcDbVertex
100
AcDb2dVertex
 10
141.018244
 20
128.978713
 30
0.0
  0
VERTEX
  5
146D
100
AcDbEntity
  8
11000_LEFT
370
    25
390
0
  6
CONTINUOUS
 62
     7
100
AcDbVertex
100
AcDb2dVertex
 10
141.005617
 20
128.952819
 30
0.0
  0
VERTEX
  5
146E
100
AcDbEntity
  8
11000_LEFT
370
    25
390
0
  6
CONTINUOUS
 62
     7
100
AcDbVertex
100
AcDb2dVertex
 10
140.994434
 20
128.917874
 30
0.0
  0
VERTEX
  5
146F
100
AcDbEntity
  8
11000_LEFT
370
    25
390
0
  6
CONTINUOUS
 62
     7
100
AcDbVertex
100
AcDb2dVertex
 10
140.985098
 20
128.875129
 30
0.0
  0
VERTEX
  5
1470
100
AcDbEntity
  8
11000_LEFT
370
    25
390
0
  6
CONTINUOUS
 62
     7
100
AcDbVertex
100
AcDb2dVertex
 10
140.977941
 20
128.826115
 30
0.0
  0
VERTEX
  5
1471
100
AcDbEntity
  8
11000_LEFT
370
    25
390
0
  6
CONTINUOUS
 62
     7
100
AcDbVertex
100
AcDb2dVertex
 10
140.97322
 20
128.772587
 30
0.0
  0
VERTEX
  5
1472
100
AcDbEntity
  8
11000_LEFT
370
    25
390
0
  6
CONTINUOUS
 62
     7
100
AcDbVertex
100
AcDb2dVertex
 10
140.971105
 20
128.716459
 30
0.0
  0
SEQEND
  5
1473
100
AcDbEntity
  8
11000_LEFT
370
    25
390
0
  6
CONTINUOUS
 62
     7
  0
POLYLINE
  5
1474
100
AcDbEntity
  8
11000_LEFT
370
    25
390
0
  6
CONTINUOUS
 62
     7
100
AcDb2dPolyline
 66
     1
 10
0.0
 20
0.0
 30
0.0
  0
VERTEX
  5
1475
100
AcDbEntity
  8
11000_LEFT
370
    25
390
0
  6
CONTINUOUS
 62
     7
100
AcDbVertex
100
AcDb2dVertex
 10
140.971105
 20
178.283541
 30
0.0
  0
VERTEX
  5
1476
100
AcDbEntity
  8
11000_LEFT
370
    25
390
0
  6
CONTINUOUS
 62
     7
100
AcDbVertex
100
AcDb2dVertex
 10
140.97322
 20
178.227413
 30
0.0
  0
VERTEX
  5
1477
100
AcDbEntity
  8
11000_LEFT
370
    25
390
0
  6
CONTINUOUS
 62
     7
100
AcDbVertex
100
AcDb2dVertex
 10
140.977941
 20
178.173885
 30
0.0
  0
VERTEX
  5
1478
100
AcDbEntity
  8
11000_LEFT
370
    25
390
0
  6
CONTINUOUS
 62
     7
100
AcDbVertex
100
AcDb2dVertex
 10
140.985098
 20
178.124871
 30
0.0
  0
VERTEX
  5
1479
100
AcDbEntity
  8
11000_LEFT
370
    25
390
0
  6
CONTINUOUS
 62
     7
100
AcDbVertex
100
AcDb2dVertex
 10
140.994434
 20
178.082126
 30
0.0
  0
VERTEX
  5
147A
100
AcDbEntity
  8
11000_LEFT
370
    25
390
0
  6
CONTINUOUS
 62
     7
100
AcDbVertex
100
AcDb2dVertex
 10
141.005617
 20
178.047181
 30
0.0
  0
VERTEX
  5
147B
100
AcDbEntity
  8
11000_LEFT
370
    25
390
0
  6
CONTINUOUS
 62
     7
100
AcDbVertex
100
AcDb2dVertex
 10
141.018244
 20
178.021287
 30
0.0
  0
VERTEX
  5
147C
100
AcDbEntity
  8
11000_LEFT
370
    25
390
0
  6
CONTINUOUS
 62
     7
100
AcDbVertex
100
AcDb2dVertex
 10
141.031865
 20
178.00537
 30
0.0
  0
VERTEX
  5
147D
100
AcDbEntity
  8
11000_LEFT
370
    25
390
0
  6
CONTINUOUS
 62
     7
100
AcDbVertex
100
AcDb2dVertex
 10
141.045992
 20
178.0
 30
0.0
  0
SEQEND
  5
147E
100
AcDbEntity
  8
11000_LEFT
370
    25
390
0
  6
CONTINUOUS
 62
     7
  0
POLYLINE
  5
147F
100
AcDbEntity
  8
11000_LEFT
370
    25
390
0
  6
CONTINUOUS
 62
     7
100
AcDb2dPolyline
 66
     1
 10
0.0
 20
0.0
 30
0.0
  0
VERTEX
  5
1480
100
AcDbEntity
  8
11000_LEFT
370
    25
390
0
  6
CONTINUOUS
 62
     7
100
AcDbVertex
100
AcDb2dVertex
 10
140.935405
 20
126.117484
 30
0.0
  0
VERTEX
  5
1481
100
AcDbEntity
  8
11000_LEFT
370
    25
390
0
  6
CONTINUOUS
 62
     7
100
AcDbVertex
100
AcDb2dVertex
 10
140.877623
 20
125.433668
 30
0.0
  0
VERTEX
  5
1482
100
AcDbEntity
  8
11000_LEFT
370
    25
390
0
  6
CONTINUOUS
 62
     7
100
AcDbVertex
100
AcDb2dVertex
 10
140.851506
 20
124.719448
 30
0.0
  0
VERTEX
  5
1483
100
AcDbEntity
  8
11000_LEFT
370
    25
390
0
  6
CONTINUOUS
 62
     7
100
AcDbVertex
100
AcDb2dVertex
 10
140.857904
 20
123.998083
 30
0.0
  0
VERTEX
  5
1484
100
AcDbEntity
  8
11000_LEFT
370
    25
390
0
  6
CONTINUOUS
 62
     7
100
AcDbVertex
100
AcDb2dVertex
 10
140.896608
 20
123.293061
 30
0.0
  0
SEQEND
  5
1485
100
AcDbEntity
  8
11000_LEFT
370
    25
390
0
  6
CONTINUOUS
 62
     7
  0
POLYLINE
  5
1486
100
AcDbEntity
  8
11000_LEFT
370
    25
390
0
  6
CONTINUOUS
 62
     7
100
AcDb2dPolyline
 66
     1
 10
0.0
 20
0.0
 30
0.0
  0
VERTEX
  5
1487
100
AcDbEntity
  8
11000_LEFT
370
    25
390
0
  6
CONTINUOUS
 62
     7
100
AcDbVertex
100
AcDb2dVertex
 10
140.896608
 20
183.706939
 30
0.0
  0
VERTEX
  5
1488
100
AcDbEntity
  8
11000_LEFT
370
    25
390
0
  6
CONTINUOUS
 62
     7
100
AcDbVertex
100
AcDb2dVertex
 10
140.857904
 20
183.001917
 30
0.0
  0
VERTEX
  5
1489
100
AcDbEntity
  8
11000_LEFT
370
    25
390
0
  6
CONTINUOUS
 62
     7
100
AcDbVertex
100
AcDb2dVertex
 10
140.851506
 20
182.280552
 30
0.0
  0
VERTEX
  5
148A
100
AcDbEntity
  8
11000_LEFT
370
    25
390
0
  6
CONTINUOUS
 62
     7
100
AcDbVertex
100
AcDb2dVertex
 10
140.877623
 20
181.566332
 30
0.0
  0
VERTEX
  5
148B
100
AcDbEntity
  8
11000_LEFT
370
    25
390
0
  6
CONTINUOUS
 62
     7
100
AcDbVertex
100
AcDb2dVertex
 10
140.935405
 20
180.882516
 30
0.0
  0
SEQEND
  5
148C
100
AcDbEntity
  8
11000_LEFT
370
    25
390
0
  6
CONTINUOUS
 62
     7
  0
ARC
  5
148D
100
AcDbEntity
  8
11000_LEFT
370
    25
390
0
  6
CONTINUOUS
 62
     7
100
AcDbCircle
 10
142.425
 20
121.7
 30
0.0
 40
0.8
100
AcDbArc
 50
270.00011
 51
0.0
  0
ARC
  5
148E
100
AcDbEntity
  8
11000_LEFT
370
    25
390
0
  6
CONTINUOUS
 62
     7
100
AcDbCircle
 10
142.425
 20
185.3
 30
0.0
 40
0.8
100
AcDbArc
 50
0.0
 51
89.99989
  0
ARC
  5
148F
100
AcDbEntity
  8
11000_LEFT
370
    25
390
0
  6
CONTINUOUS
 62
     7
100
AcDbCircle
 10
142.525
 20
126.8
 30
0.0
 40
0.8
100
AcDbArc
 50
180.0
 51
269.999999
  0
ARC
  5
1490
100
AcDbEntity
  8
11000_LEFT
370
    25
390
0
  6
CONTINUOUS
 62
     7
100
AcDbCircle
 10
142.525
 20
180.2
 30
0.0
 40
0.8
100
AcDbArc
 50
90.000001
 51
180.0
  0
ARC
  5
1491
100
AcDbEntity
  8
11000_LEFT
370
    25
390
0
  6
CONTINUOUS
 62
     7
100
AcDbCircle
 10
143.725
 20
125.5
 30
0.0
 40
0.5
100
AcDbArc
 50
89.999913
 51
179.984044
  0
ARC
  5
1492
100
AcDbEntity
  8
11000_LEFT
370
    25
390
0
  6
CONTINUOUS
 62
     7
100
AcDbCircle
 10
143.725
 20
181.5
 30
0.0
 40
0.5
100
AcDbArc
 50
180.015956
 51
269.713765
  0
ARC
  5
1493
100
AcDbEntity
  8
11000_LEFT
370
    25
390
0
  6
CONTINUOUS
 62
     7
100
AcDbCircle
 10
168.139975
 20
127.5
 30
0.0
 40
1.5
100
AcDbArc
 50
269.999984
 51
358.501123
  0
ARC
  5
1494
100
AcDbEntity
  8
11000_LEFT
370
    25
390
0
  6
CONTINUOUS
 62
     7
100
AcDbCircle
 10
168.139975
 20
179.5
 30
0.0
 40
1.5
100
AcDbArc
 50
1.498877
 51
90.000016
  0
LINE
  5
1495
100
AcDbEntity
  8
11100_LEFT_DIM
370
    13
390
0
  6
CONTINUOUS
 62
     7
100
AcDbLine
 10
99.025
 20
184.5
 30
0.0
 11
99.025
 21
204.5
 31
0.0
  0
LINE
  5
1496
100
AcDbEntity
  8
11100_LEFT_DIM
370
    13
390
0
  6
CONTINUOUS
 62
     7
100
AcDbLine
 10
169.725
 20
204.5
 30
0.0
 11
169.725
 21
173.0
 31
0.0
  0
LINE
  5
1497
100
AcDbEntity
  8
11100_LEFT_DIM
370
    13
390
0
  6
CONTINUOUS
 62
     7
100
AcDbLine
 10
99.025
 20
203.5
 30
0.0
 11
169.725
 21
203.5
 31
0.0
  0
TEXT
  5
1498
100
AcDbEntity
  8
11100_LEFT_DIM
370
    13
390
0
  6
CONTINUOUS
 62
     7
100
AcDbText
 10
131.541667
 20
204.5
 30
0.0
 40
2.0
  1
70.7
 72
     1
 11
134.375
 21
204.5
 31
0.0
100
AcDbText
  0
SOLID
  5
1499
100
AcDbEntity
  8
11100_LEFT_DIM
370
    13
390
0
  6
CONTINUOUS
 62
     7
100
AcDbTrace
 10
104.025
 20
204.158262
 30
0.0
 11
99.025
 21
203.5
 31
0.0
 12
104.025
 22
202.841738
 32
0.0
 13
99.025
 23
203.5
 33
0.0
  0
SOLID
  5
149A
100
AcDbEntity
  8
11100_LEFT_DIM
370
    13
390
0
  6
CONTINUOUS
 62
     7
100
AcDbTrace
 10
164.725
 20
202.841738
 30
0.0
 11
169.725
 21
203.5
 31
0.0
 12
164.725
 22
204.158262
 32
0.0
 13
169.725
 23
203.5
 33
0.0
  0
LINE
  5
149B
100
AcDbEntity
  8
90000_FRAME
370
    13
  6
CONTINUOUS
 62
     7
100
AcDbLine
 10
4.999966
 20
4.999976
 30
0.0
 11
4.999966
 21
291.999976
 31
0.0
  0
LINE
  5
149C
100
AcDbEntity
  8
91000_TIP
370
    13
  6
CONTINUOUS
 62
     7
100
AcDbLine
 10
36.379427
 20
21.210067
 30
0.0
 11
46.379426
 21
23.710067
 31
0.0
  0
LINE
  5
149D
100
AcDbEntity
  8
91000_TIP
370
    13
  6
CONTINUOUS
 62
     7
100
AcDbLine
 10
35.099916
 20
18.710067
 30
0.0
 11
58.701905
 21
18.710067
 31
0.0
  0
LINE
  5
149E
100
AcDbEntity
  8
91000_TIP
370
    13
  6
CONTINUOUS
 62
     7
100
AcDbLine
 10
36.379427
 20
16.210068
 30
0.0
 11
46.379426
 21
13.710068
 31
0.0
  0
LINE
  5
149F
100
AcDbEntity
  8
91000_TIP
370
    13
  6
CONTINUOUS
 62
     7
100
AcDbLine
 10
36.379427
 20
21.210067
 30
0.0
 11
36.379427
 21
16.210068
 31
0.0
  0
LINE
  5
14A0
100
AcDbEntity
  8
91000_TIP
370
    13
  6
CONTINUOUS
 62
     7
100
AcDbLine
 10
46.379426
 20
23.710067
 30
0.0
 11
46.379426
 21
13.710068
 31
0.0
  0
LINE
  5
14A1
100
AcDbEntity
  8
91000_TIP
370
    13
  6
CONTINUOUS
 62
     7
100
AcDbLine
 10
52.879426
 20
12.988586
 30
0.0
 11
52.879426
 21
24.271972
 31
0.0
  0
CIRCLE
  5
14A2
100
AcDbEntity
  8
91000_TIP
370
    13
  6
CONTINUOUS
 62
     7
100
AcDbCircle
 10
52.879426
 20
18.710067
 30
0.0
 40
5.0
  0
CIRCLE
  5
14A3
100
AcDbEntity
  8
91000_TIP
370
    13
  6
CONTINUOUS
 62
     7
100
AcDbCircle
 10
52.879426
 20
18.710067
 30
0.0
 40
2.5
  0
TEXT
  5
14A4
100
AcDbEntity
  8
90000_FRAME
370
    13
  6
CONTINUOUS
 62
     7
100
AcDbText
 10
65.559506
 20
29.777681
 30
0.0
 40
2.2
  1
All dimensions are in millimeters (mm)
 41
0.961374
100
AcDbText
  0
TEXT
  5
14A5
100
AcDbEntity
  8
90000_FRAME
370
    13
  6
CONTINUOUS
 62
     7
100
AcDbText
 10
65.559506
 20
32.906703
 30
0.0
 40
2.2
  1
Alle Bemassungswerte sind in Millimeter (mm) angegeben.
 41
0.825144
100
AcDbText
  0
LINE
  5
14A6
100
AcDbEntity
  8
90000_FRAME
370
    13
  6
CONTINUOUS
 62
     7
100
AcDbLine
 10
204.999966
 20
4.999976
 30
0.0
 11
204.999966
 21
291.999976
 31
0.0
  0
LINE
  5
14A7
100
AcDbEntity
  8
90000_FRAME
370
    13
  6
CONTINUOUS
 62
     7
100
AcDbLine
 10
204.999966
 20
4.999976
 30
0.0
 11
4.999966
 21
4.999976
 31
0.0
  0
TEXT
  5
14A8
100
AcDbEntity
  8
90000_FRAME
370
    13
  6
CONTINUOUS
 62
     7
100
AcDbText
 10
116.448049
 20
22.703118
 30
0.0
 40
3.0
  1
3RH1921-1KA02
 41
0.784213
100
AcDbText
  0
TEXT
  5
14A9
100
AcDbEntity
  8
90000_FRAME
370
    13
  6
CONTINUOUS
 62
     7
100
AcDbText
 10
158.159966
 20
11.899976
 30
0.0
 40
2.2
  1
Massstab/Scale: 1:1
 41
0.9
100
AcDbText
  0
TEXT
  5
14AA
100
AcDbEntity
  8
90000_FRAME
370
    13
  6
CONTINUOUS
 62
     7
100
AcDbText
 10
116.295894
 20
11.899976
 30
0.0
 40
2.2
  1
Format/Size: DIN A4
 41
0.803258
100
AcDbText
  0
LINE
  5
14AB
100
AcDbEntity
  8
90000_FRAME
370
    13
  6
CONTINUOUS
 62
     7
100
AcDbLine
 10
199.999966
 20
9.999976
 30
0.0
 11
199.999966
 21
27.999976
 31
0.0
  0
LINE
  5
14AC
100
AcDbEntity
  8
90000_FRAME
370
    13
  6
CONTINUOUS
 62
     7
100
AcDbLine
 10
157.499966
 20
9.999976
 30
0.0
 11
157.499966
 21
15.999976
 31
0.0
  0
LINE
  5
14AD
100
AcDbEntity
  8
90000_FRAME
370
    13
  6
CONTINUOUS
 62
     7
100
AcDbLine
 10
114.999966
 20
9.999976
 30
0.0
 11
114.999966
 21
27.999976
 31
0.0
  0
LINE
  5
14AE
100
AcDbEntity
  8
90000_FRAME
370
    13
  6
CONTINUOUS
 62
     7
100
AcDbLine
 10
64.999966
 20
27.999976
 30
0.0
 11
199.999966
 21
27.999976
 31
0.0
  0
LINE
  5
14AF
100
AcDbEntity
  8
90000_FRAME
370
    13
  6
CONTINUOUS
 62
     7
100
AcDbLine
 10
114.999966
 20
15.999976
 30
0.0
 11
199.999966
 21
15.999976
 31
0.0
  0
LINE
  5
14B0
100
AcDbEntity
  8
90000_FRAME
370
    13
  6
CONTINUOUS
 62
     7
100
AcDbLine
 10
64.999966
 20
9.999976
 30
0.0
 11
64.999966
 21
27.999976
 31
0.0
  0
LINE
  5
14B1
100
AcDbEntity
  8
90000_FRAME
370
    13
  6
CONTINUOUS
 62
     7
100
AcDbLine
 10
64.999966
 20
9.999976
 30
0.0
 11
199.999966
 21
9.999976
 31
0.0
  0
LINE
  5
14B2
100
AcDbEntity
  8
90000_FRAME
370
    13
  6
CONTINUOUS
 62
     7
100
AcDbLine
 10
79.186166
 20
21.414524
 30
0.0
 11
79.186166
 21
16.661255
 31
0.0
  0
LINE
  5
14B3
100
AcDbEntity
  8
90000_FRAME
370
    13
  6
CONTINUOUS
 62
     7
100
AcDbLine
 10
80.612147
 20
21.414524
 30
0.0
 11
80.612147
 21
16.661255
 31
0.0
  0
LINE
  5
14B4
100
AcDbEntity
  8
90000_FRAME
370
    13
  6
CONTINUOUS
 62
     7
100
AcDbLine
 10
79.186166
 20
16.661255
 30
0.0
 11
80.612147
 21
16.661255
 31
0.0
  0
LINE
  5
14B5
100
AcDbEntity
  8
90000_FRAME
370
    13
  6
CONTINUOUS
 62
     7
100
AcDbLine
 10
79.186166
 20
21.414524
 30
0.0
 11
80.612147
 21
21.414524
 31
0.0
  0
LINE
  5
14B6
100
AcDbEntity
  8
90000_FRAME
370
    13
  6
CONTINUOUS
 62
     7
100
AcDbLine
 10
81.705399
 20
21.414524
 30
0.0
 11
81.705399
 21
16.661255
 31
0.0
  0
LINE
  5
14B7
100
AcDbEntity
  8
90000_FRAME
370
    13
  6
CONTINUOUS
 62
     7
100
AcDbLine
 10
81.705399
 20
16.661255
 30
0.0
 11
85.270351
 21
16.661255
 31
0.0
  0
LINE
  5
14B8
100
AcDbEntity
  8
90000_FRAME
370
    13
  6
CONTINUOUS
 62
     7
100
AcDbLine
 10
85.270351
 20
17.564376
 30
0.0
 11
83.083847
 21
17.564376
 31
0.0
  0
LINE
  5
14B9
100
AcDbEntity
  8
90000_FRAME
370
    13
  6
CONTINUOUS
 62
     7
100
AcDbLine
 10
85.270351
 20
17.564376
 30
0.0
 11
85.270351
 21
16.661255
 31
0.0
  0
LINE
  5
14BA
100
AcDbEntity
  8
90000_FRAME
370
    13
  6
CONTINUOUS
 62
     7
100
AcDbLine
 10
85.222818
 20
21.414524
 30
0.0
 11
81.705399
 21
21.414524
 31
0.0
  0
LINE
  5
14BB
100
AcDbEntity
  8
90000_FRAME
370
    13
  6
CONTINUOUS
 62
     7
100
AcDbLine
 10
85.222818
 20
20.53517
 30
0.0
 11
83.083847
 21
20.53517
 31
0.0
  0
LINE
  5
14BC
100
AcDbEntity
  8
90000_FRAME
370
    13
  6
CONTINUOUS
 62
     7
100
AcDbLine
 10
85.222818
 20
21.414524
 30
0.0
 11
85.222818
 21
20.53517
 31
0.0
  0
LINE
  5
14BD
100
AcDbEntity
  8
90000_FRAME
370
    13
  6
CONTINUOUS
 62
     7
100
AcDbLine
 10
84.937622
 20
18.681395
 30
0.0
 11
83.083847
 21
18.681395
 31
0.0
  0
LINE
  5
14BE
100
AcDbEntity
  8
90000_FRAME
370
    13
  6
CONTINUOUS
 62
     7
100
AcDbLine
 10
84.937622
 20
19.465684
 30
0.0
 11
84.937622
 21
18.681395
 31
0.0
  0
LINE
  5
14BF
100
AcDbEntity
  8
90000_FRAME
370
    13
  6
CONTINUOUS
 62
     7
100
AcDbLine
 10
84.937622
 20
19.465684
 30
0.0
 11
83.083847
 21
19.465684
 31
0.0
  0
LINE
  5
14C0
100
AcDbEntity
  8
90000_FRAME
370
    13
  6
CONTINUOUS
 62
     7
100
AcDbLine
 10
83.083847
 20
20.53517
 30
0.0
 11
83.083847
 21
19.465684
 31
0.0
  0
LINE
  5
14C1
100
AcDbEntity
  8
90000_FRAME
370
    13
  6
CONTINUOUS
 62
     7
100
AcDbLine
 10
83.083847
 20
18.681395
 30
0.0
 11
83.083847
 21
17.564376
 31
0.0
  0
LINE
  5
14C2
100
AcDbEntity
  8
90000_FRAME
370
    13
  6
CONTINUOUS
 62
     7
100
AcDbLine
 10
86.078406
 20
16.661255
 30
0.0
 11
86.078406
 21
21.414524
 31
0.0
  0
LINE
  5
14C3
100
AcDbEntity
  8
90000_FRAME
370
    13
  6
CONTINUOUS
 62
     7
100
AcDbLine
 10
86.078406
 20
16.661255
 30
0.0
 11
87.02906
 21
16.661255
 31
0.0
  0
LINE
  5
14C4
100
AcDbEntity
  8
90000_FRAME
370
    13
  6
CONTINUOUS
 62
     7
100
AcDbLine
 10
91.924927
 20
21.414524
 30
0.0
 11
91.924927
 21
16.661255
 31
0.0
  0
LINE
  5
14C5
100
AcDbEntity
  8
90000_FRAME
370
    13
  6
CONTINUOUS
 62
     7
100
AcDbLine
 10
91.924927
 20
16.661255
 30
0.0
 11
90.546479
 21
16.661255
 31
0.0
  0
LINE
  5
14C6
100
AcDbEntity
  8
90000_FRAME
370
    13
  6
CONTINUOUS
 62
     7
100
AcDbLine
 10
88.359976
 20
16.613723
 30
0.0
 11
89.215564
 21
16.613723
 31
0.0
  0
LINE
  5
14C7
100
AcDbEntity
  8
90000_FRAME
370
    13
  6
CONTINUOUS
 62
     7
100
AcDbLine
 10
88.359976
 20
16.613723
 30
0.0
 11
87.02906
 21
19.703348
 31
0.0
  0
LINE
  5
14C8
100
AcDbEntity
  8
90000_FRAME
370
    13
  6
CONTINUOUS
 62
     7
100
AcDbLine
 10
87.02906
 20
16.661255
 30
0.0
 11
87.02906
 21
19.703348
 31
0.0
  0
LINE
  5
14C9
100
AcDbEntity
  8
90000_FRAME
370
    13
  6
CONTINUOUS
 62
     7
100
AcDbLine
 10
90.546479
 20
19.75088
 30
0.0
 11
89.215564
 21
16.613723
 31
0.0
  0
LINE
  5
14CA
100
AcDbEntity
  8
90000_FRAME
370
    13
  6
CONTINUOUS
 62
     7
100
AcDbLine
 10
87.789583
 20
21.414524
 30
0.0
 11
86.078406
 21
21.414524
 31
0.0
  0
LINE
  5
14CB
100
AcDbEntity
  8
90000_FRAME
370
    13
  6
CONTINUOUS
 62
     7
100
AcDbLine
 10
91.924927
 20
21.414524
 30
0.0
 11
90.213751
 21
21.414524
 31
0.0
  0
LINE
  5
14CC
100
AcDbEntity
  8
90000_FRAME
370
    13
  6
CONTINUOUS
 62
     7
100
AcDbLine
 10
87.789583
 20
21.414524
 30
0.0
 11
89.025433
 21
18.51503
 31
0.0
  0
LINE
  5
14CD
100
AcDbEntity
  8
90000_FRAME
370
    13
  6
CONTINUOUS
 62
     7
100
AcDbLine
 10
90.213751
 20
21.414524
 30
0.0
 11
89.025433
 21
18.51503
 31
0.0
  0
LINE
  5
14CE
100
AcDbEntity
  8
90000_FRAME
370
    13
  6
CONTINUOUS
 62
     7
100
AcDbLine
 10
90.546479
 20
19.75088
 30
0.0
 11
90.546479
 21
16.661255
 31
0.0
  0
LINE
  5
14CF
100
AcDbEntity
  8
90000_FRAME
370
    13
  6
CONTINUOUS
 62
     7
100
AcDbLine
 10
93.018179
 20
21.414524
 30
0.0
 11
93.018179
 21
16.661255
 31
0.0
  0
LINE
  5
14D0
100
AcDbEntity
  8
90000_FRAME
370
    13
  6
CONTINUOUS
 62
     7
100
AcDbLine
 10
93.018179
 20
16.661255
 30
0.0
 11
96.583131
 21
16.661255
 31
0.0
  0
LINE
  5
14D1
100
AcDbEntity
  8
90000_FRAME
370
    13
  6
CONTINUOUS
 62
     7
100
AcDbLine
 10
96.583131
 20
17.564376
 30
0.0
 11
94.396627
 21
17.564376
 31
0.0
  0
LINE
  5
14D2
100
AcDbEntity
  8
90000_FRAME
370
    13
  6
CONTINUOUS
 62
     7
100
AcDbLine
 10
96.583131
 20
17.564376
 30
0.0
 11
96.583131
 21
16.661255
 31
0.0
  0
LINE
  5
14D3
100
AcDbEntity
  8
90000_FRAME
370
    13
  6
CONTINUOUS
 62
     7
100
AcDbLine
 10
96.535598
 20
21.414524
 30
0.0
 11
93.018179
 21
21.414524
 31
0.0
  0
LINE
  5
14D4
100
AcDbEntity
  8
90000_FRAME
370
    13
  6
CONTINUOUS
 62
     7
100
AcDbLine
 10
96.535598
 20
20.53517
 30
0.0
 11
94.396627
 21
20.53517
 31
0.0
  0
LINE
  5
14D5
100
AcDbEntity
  8
90000_FRAME
370
    13
  6
CONTINUOUS
 62
     7
100
AcDbLine
 10
96.535598
 20
21.414524
 30
0.0
 11
96.535598
 21
20.53517
 31
0.0
  0
LINE
  5
14D6
100
AcDbEntity
  8
90000_FRAME
370
    13
  6
CONTINUOUS
 62
     7
100
AcDbLine
 10
96.250402
 20
18.681395
 30
0.0
 11
94.396627
 21
18.681395
 31
0.0
  0
LINE
  5
14D7
100
AcDbEntity
  8
90000_FRAME
370
    13
  6
CONTINUOUS
 62
     7
100
AcDbLine
 10
96.250402
 20
19.465684
 30
0.0
 11
96.250402
 21
18.681395
 31
0.0
  0
LINE
  5
14D8
100
AcDbEntity
  8
90000_FRAME
370
    13
  6
CONTINUOUS
 62
     7
100
AcDbLine
 10
96.250402
 20
19.465684
 30
0.0
 11
94.396627
 21
19.465684
 31
0.0
  0
LINE
  5
14D9
100
AcDbEntity
  8
90000_FRAME
370
    13
  6
CONTINUOUS
 62
     7
100
AcDbLine
 10
94.396627
 20
20.53517
 30
0.0
 11
94.396627
 21
19.465684
 31
0.0
  0
LINE
  5
14DA
100
AcDbEntity
  8
90000_FRAME
370
    13
  6
CONTINUOUS
 62
     7
100
AcDbLine
 10
94.396627
 20
18.681395
 30
0.0
 11
94.396627
 21
17.564376
 31
0.0
  0
LINE
  5
14DB
100
AcDbEntity
  8
90000_FRAME
370
    13
  6
CONTINUOUS
 62
     7
100
AcDbLine
 10
97.367421
 20
16.661255
 30
0.0
 11
97.367421
 21
21.414524
 31
0.0
  0
LINE
  5
14DC
100
AcDbEntity
  8
90000_FRAME
370
    13
  6
CONTINUOUS
 62
     7
100
AcDbLine
 10
101.550297
 20
21.414524
 30
0.0
 11
101.550297
 21
16.661255
 31
0.0
  0
LINE
  5
14DD
100
AcDbEntity
  8
90000_FRAME
370
    13
  6
CONTINUOUS
 62
     7
100
AcDbLine
 10
97.367421
 20
16.661255
 30
0.0
 11
98.318074
 21
16.661255
 31
0.0
  0
LINE
  5
14DE
100
AcDbEntity
  8
90000_FRAME
370
    13
  6
CONTINUOUS
 62
     7
100
AcDbLine
 10
101.550297
 20
21.414524
 30
0.0
 11
100.599643
 21
21.414524
 31
0.0
  0
LINE
  5
14DF
100
AcDbEntity
  8
90000_FRAME
370
    13
  6
CONTINUOUS
 62
     7
100
AcDbLine
 10
98.912233
 20
21.414524
 30
0.0
 11
97.367421
 21
21.414524
 31
0.0
  0
LINE
  5
14E0
100
AcDbEntity
  8
90000_FRAME
370
    13
  6
CONTINUOUS
 62
     7
100
AcDbLine
 10
101.550297
 20
16.661255
 30
0.0
 11
100.029251
 21
16.661255
 31
0.0
  0
LINE
  5
14E1
100
AcDbEntity
  8
90000_FRAME
370
    13
  6
CONTINUOUS
 62
     7
100
AcDbLine
 10
100.029251
 20
16.661255
 30
0.0
 11
98.318074
 21
19.703348
 31
0.0
  0
LINE
  5
14E2
100
AcDbEntity
  8
90000_FRAME
370
    13
  6
CONTINUOUS
 62
     7
100
AcDbLine
 10
98.912233
 20
21.414524
 30
0.0
 11
100.599643
 21
18.467498
 31
0.0
  0
LINE
  5
14E3
100
AcDbEntity
  8
90000_FRAME
370
    13
  6
CONTINUOUS
 62
     7
100
AcDbLine
 10
100.599643
 20
21.414524
 30
0.0
 11
100.599643
 21
18.467498
 31
0.0
  0
LINE
  5
14E4
100
AcDbEntity
  8
90000_FRAME
370
    13
  6
CONTINUOUS
 62
     7
100
AcDbLine
 10
98.318074
 20
16.661255
 30
0.0
 11
98.318074
 21
19.703348
 31
0.0
  0
LINE
  5
14E5
100
AcDbEntity
  8
90000_FRAME
370
    13
  6
CONTINUOUS
 62
     7
100
AcDbLine
 10
102.358353
 20
16.756321
 30
0.0
 11
102.358353
 21
17.706974
 31
0.0
  0
LINE
  5
14E6
100
AcDbEntity
  8
90000_FRAME
370
    13
  6
CONTINUOUS
 62
     7
100
AcDbLine
 10
105.685641
 20
20.416338
 30
0.0
 11
105.685641
 21
21.366992
 31
0.0
  0
ARC
  5
14E7
100
AcDbEntity
  8
90000_FRAME
370
    13
  6
CONTINUOUS
 62
     7
100
AcDbCircle
 10
104.062994
 20
18.618414
 30
0.0
 40
1.111619
100
AcDbArc
 50
277.709996
 51
295.688493
  0
ARC
  5
14E8
100
AcDbEntity
  8
90000_FRAME
370
    13
  6
CONTINUOUS
 62
     7
100
AcDbCircle
 10
104.347304
 20
17.893588
 30
0.0
 40
0.340169
100
AcDbArc
 50
305.503221
 51
72.46529
  0
ARC
  5
14E9
100
AcDbEntity
  8
90000_FRAME
370
    13
  6
CONTINUOUS
 62
     7
100
AcDbCircle
 10
103.78131
 20
21.295295
 30
0.0
 40
4.756795
100
AcDbArc
 50
252.59392
 51
280.98166
  0
ARC
  5
14EA
100
AcDbEntity
  8
90000_FRAME
370
    13
  6
CONTINUOUS
 62
     7
100
AcDbCircle
 10
104.236146
 20
18.677281
 30
0.0
 40
2.100727
100
AcDbArc
 50
282.405836
 51
311.864443
  0
ARC
  5
14EB
100
AcDbEntity
  8
90000_FRAME
370
    13
  6
CONTINUOUS
 62
     7
100
AcDbCircle
 10
103.962581
 20
20.285623
 30
0.0
 40
0.302963
100
AcDbArc
 50
154.440035
 51
221.82017
  0
ARC
  5
14EC
100
AcDbEntity
  8
90000_FRAME
370
    13
  6
CONTINUOUS
 62
     7
100
AcDbCircle
 10
104.041803
 20
20.206402
 30
0.0
 40
0.410309
100
AcDbArc
 50
102.828783
 51
149.225964
  0
ARC
  5
14ED
100
AcDbEntity
  8
90000_FRAME
370
    13
  6
CONTINUOUS
 62
     7
100
AcDbCircle
 10
104.458829
 20
18.464066
 30
0.0
 40
2.201837
100
AcDbArc
 50
84.040006
 51
103.342766
  0
ARC
  5
14EE
100
AcDbEntity
  8
90000_FRAME
370
    13
  6
CONTINUOUS
 62
     7
100
AcDbCircle
 10
104.117866
 20
16.046703
 30
0.0
 40
4.642374
100
AcDbArc
 50
70.262586
 51
82.952419
  0
ARC
  5
14EF
100
AcDbEntity
  8
90000_FRAME
370
    13
  6
CONTINUOUS
 62
     7
100
AcDbCircle
 10
103.603847
 20
20.718325
 30
0.0
 40
3.258756
100
AcDbArc
 50
247.530021
 51
280.757952
  0
ARC
  5
14F0
100
AcDbEntity
  8
90000_FRAME
370
    13
  6
CONTINUOUS
 62
     7
100
AcDbCircle
 10
97.218881
 20
2.466805
 30
0.0
 40
17.331608
100
AcDbArc
 50
65.341467
 51
67.399777
  0
ARC
  5
14F1
100
AcDbEntity
  8
90000_FRAME
370
    13
  6
CONTINUOUS
 62
     7
100
AcDbCircle
 10
108.014743
 20
28.259232
 30
0.0
 40
10.629164
100
AcDbArc
 50
242.86201
 51
247.104203
  0
ARC
  5
14F2
100
AcDbEntity
  8
90000_FRAME
370
    13
  6
CONTINUOUS
 62
     7
100
AcDbCircle
 10
104.159842
 20
20.7253
 30
0.0
 40
2.166292
100
AcDbArc
 50
227.311928
 51
242.704032
  0
ARC
  5
14F3
100
AcDbEntity
  8
90000_FRAME
370
    13
  6
CONTINUOUS
 62
     7
100
AcDbCircle
 10
103.555811
 20
20.019623
 30
0.0
 40
1.238522
100
AcDbArc
 50
194.795219
 51
225.717655
  0
ARC
  5
14F4
100
AcDbEntity
  8
90000_FRAME
370
    13
  6
CONTINUOUS
 62
     7
100
AcDbCircle
 10
103.617969
 20
20.059843
 30
0.0
 40
1.309092
100
AcDbArc
 50
164.197486
 51
195.802514
  0
ARC
  5
14F5
100
AcDbEntity
  8
90000_FRAME
370
    13
  6
CONTINUOUS
 62
     7
100
AcDbCircle
 10
104.174993
 20
19.171576
 30
0.0
 40
2.366925
100
AcDbArc
 50
86.221802
 51
120.42726
  0
ARC
  5
14F6
100
AcDbEntity
  8
90000_FRAME
370
    13
  6
CONTINUOUS
 62
     7
100
AcDbCircle
 10
103.906136
 20
12.475408
 30
0.0
 40
9.067905
100
AcDbArc
 50
78.682705
 51
87.31476
  0
ARC
  5
14F7
100
AcDbEntity
  8
90000_FRAME
370
    13
  6
CONTINUOUS
 62
     7
100
AcDbCircle
 10
103.450067
 20
20.16735
 30
0.0
 40
1.119747
100
AcDbArc
 50
142.813918
 51
167.152295
  0
ARC
  5
14F8
100
AcDbEntity
  8
90000_FRAME
370
    13
  6
CONTINUOUS
 62
     7
100
AcDbCircle
 10
103.795376
 20
19.860769
 30
0.0
 40
1.580547
100
AcDbArc
 50
121.214095
 51
141.525477
  0
ARC
  5
14F9
100
AcDbEntity
  8
90000_FRAME
370
    13
  6
CONTINUOUS
 62
     7
100
AcDbCircle
 10
104.372551
 20
20.671826
 30
0.0
 40
0.866128
100
AcDbArc
 50
222.776039
 51
239.036243
  0
ARC
  5
14FA
100
AcDbEntity
  8
90000_FRAME
370
    13
  6
CONTINUOUS
 62
     7
100
AcDbCircle
 10
101.865841
 20
13.341554
 30
0.0
 40
6.858774
100
AcDbArc
 50
59.902027
 51
68.203648
  0
ARC
  5
14FB
100
AcDbEntity
  8
90000_FRAME
370
    13
  6
CONTINUOUS
 62
     7
100
AcDbCircle
 10
105.274336
 20
22.26744
 30
0.0
 40
2.698741
100
AcDbArc
 50
240.0482
 51
251.377967
  0
ARC
  5
14FC
100
AcDbEntity
  8
90000_FRAME
370
    13
  6
CONTINUOUS
 62
     7
100
AcDbCircle
 10
104.608879
 20
18.110542
 30
0.0
 40
1.433447
100
AcDbArc
 50
315.890455
 51
333.522926
  0
ARC
  5
14FD
100
AcDbEntity
  8
90000_FRAME
370
    13
  6
CONTINUOUS
 62
     7
100
AcDbCircle
 10
104.613517
 20
18.057135
 30
0.0
 40
1.406229
100
AcDbArc
 50
335.386797
 51
24.391512
  0
ARC
  5
14FE
100
AcDbEntity
  8
90000_FRAME
370
    13
  6
CONTINUOUS
 62
     7
100
AcDbCircle
 10
104.541312
 20
17.979278
 30
0.0
 40
1.504703
100
AcDbArc
 50
25.956292
 51
59.483483
  0
LINE
  5
14FF
100
AcDbEntity
  8
90000_FRAME
370
    13
  6
CONTINUOUS
 62
     7
100
AcDbLine
 10
74.765626
 20
16.756321
 30
0.0
 11
74.765626
 21
17.706974
 31
0.0
  0
LINE
  5
1500
100
AcDbEntity
  8
90000_FRAME
370
    13
  6
CONTINUOUS
 62
     7
100
AcDbLine
 10
78.092914
 20
20.416338
 30
0.0
 11
78.092914
 21
21.366992
 31
0.0
  0
ARC
  5
1501
100
AcDbEntity
  8
90000_FRAME
370
    13
  6
CONTINUOUS
 62
     7
100
AcDbCircle
 10
76.470267
 20
18.618414
 30
0.0
 40
1.111619
100
AcDbArc
 50
277.709996
 51
295.688493
  0
ARC
  5
1502
100
AcDbEntity
  8
90000_FRAME
370
    13
  6
CONTINUOUS
 62
     7
100
AcDbCircle
 10
76.754577
 20
17.893588
 30
0.0
 40
0.340169
100
AcDbArc
 50
305.503221
 51
72.46529
  0
ARC
  5
1503
100
AcDbEntity
  8
90000_FRAME
370
    13
  6
CONTINUOUS
 62
     7
100
AcDbCircle
 10
76.188583
 20
21.295295
 30
0.0
 40
4.756795
100
AcDbArc
 50
252.59392
 51
280.98166
  0
ARC
  5
1504
100
AcDbEntity
  8
90000_FRAME
370
    13
  6
CONTINUOUS
 62
     7
100
AcDbCircle
 10
76.643419
 20
18.677281
 30
0.0
 40
2.100727
100
AcDbArc
 50
282.405836
 51
311.864443
  0
ARC
  5
1505
100
AcDbEntity
  8
90000_FRAME
370
    13
  6
CONTINUOUS
 62
     7
100
AcDbCircle
 10
76.369854
 20
20.285623
 30
0.0
 40
0.302963
100
AcDbArc
 50
154.440035
 51
221.82017
  0
ARC
  5
1506
100
AcDbEntity
  8
90000_FRAME
370
    13
  6
CONTINUOUS
 62
     7
100
AcDbCircle
 10
76.449075
 20
20.206402
 30
0.0
 40
0.410309
100
AcDbArc
 50
102.828783
 51
149.225964
  0
ARC
  5
1507
100
AcDbEntity
  8
90000_FRAME
370
    13
  6
CONTINUOUS
 62
     7
100
AcDbCircle
 10
76.866102
 20
18.464066
 30
0.0
 40
2.201837
100
AcDbArc
 50
84.040006
 51
103.342766
  0
ARC
  5
1508
100
AcDbEntity
  8
90000_FRAME
370
    13
  6
CONTINUOUS
 62
     7
100
AcDbCircle
 10
76.525139
 20
16.046703
 30
0.0
 40
4.642374
100
AcDbArc
 50
70.262586
 51
82.952419
  0
ARC
  5
1509
100
AcDbEntity
  8
90000_FRAME
370
    13
  6
CONTINUOUS
 62
     7
100
AcDbCircle
 10
76.01112
 20
20.718325
 30
0.0
 40
3.258756
100
AcDbArc
 50
247.530021
 51
280.757952
  0
ARC
  5
150A
100
AcDbEntity
  8
90000_FRAME
370
    13
  6
CONTINUOUS
 62
     7
100
AcDbCircle
 10
69.626154
 20
2.466805
 30
0.0
 40
17.331608
100
AcDbArc
 50
65.341467
 51
67.399777
  0
ARC
  5
150B
100
AcDbEntity
  8
90000_FRAME
370
    13
  6
CONTINUOUS
 62
     7
100
AcDbCircle
 10
80.422016
 20
28.259232
 30
0.0
 40
10.629164
100
AcDbArc
 50
242.86201
 51
247.104203
  0
ARC
  5
150C
100
AcDbEntity
  8
90000_FRAME
370
    13
  6
CONTINUOUS
 62
     7
100
AcDbCircle
 10
76.567115
 20
20.7253
 30
0.0
 40
2.166292
100
AcDbArc
 50
227.311928
 51
242.704032
  0
ARC
  5
150D
100
AcDbEntity
  8
90000_FRAME
370
    13
  6
CONTINUOUS
 62
     7
100
AcDbCircle
 10
75.963084
 20
20.019623
 30
0.0
 40
1.238522
100
AcDbArc
 50
194.795219
 51
225.717655
  0
ARC
  5
150E
100
AcDbEntity
  8
90000_FRAME
370
    13
  6
CONTINUOUS
 62
     7
100
AcDbCircle
 10
76.582266
 20
19.171576
 30
0.0
 40
2.366925
100
AcDbArc
 50
86.221802
 51
120.42726
  0
ARC
  5
150F
100
AcDbEntity
  8
90000_FRAME
370
    13
  6
CONTINUOUS
 62
     7
100
AcDbCircle
 10
76.313409
 20
12.475408
 30
0.0
 40
9.067905
100
AcDbArc
 50
78.682705
 51
87.31476
  0
ARC
  5
1510
100
AcDbEntity
  8
90000_FRAME
370
    13
  6
CONTINUOUS
 62
     7
100
AcDbCircle
 10
76.202649
 20
19.860769
 30
0.0
 40
1.580547
100
AcDbArc
 50
121.214095
 51
141.525477
  0
ARC
  5
1511
100
AcDbEntity
  8
90000_FRAME
370
    13
  6
CONTINUOUS
 62
     7
100
AcDbCircle
 10
76.779824
 20
20.671826
 30
0.0
 40
0.866128
100
AcDbArc
 50
222.776039
 51
239.036243
  0
ARC
  5
1512
100
AcDbEntity
  8
90000_FRAME
370
    13
  6
CONTINUOUS
 62
     7
100
AcDbCircle
 10
74.273114
 20
13.341554
 30
0.0
 40
6.858774
100
AcDbArc
 50
59.902027
 51
68.203648
  0
ARC
  5
1513
100
AcDbEntity
  8
90000_FRAME
370
    13
  6
CONTINUOUS
 62
     7
100
AcDbCircle
 10
77.681609
 20
22.26744
 30
0.0
 40
2.698741
100
AcDbArc
 50
240.0482
 51
251.377967
  0
ARC
  5
1514
100
AcDbEntity
  8
90000_FRAME
370
    13
  6
CONTINUOUS
 62
     7
100
AcDbCircle
 10
77.016152
 20
18.110542
 30
0.0
 40
1.433447
100
AcDbArc
 50
315.890455
 51
333.522926
  0
ARC
  5
1515
100
AcDbEntity
  8
90000_FRAME
370
    13
  6
CONTINUOUS
 62
     7
100
AcDbCircle
 10
77.02079
 20
18.057135
 30
0.0
 40
1.406229
100
AcDbArc
 50
335.386797
 51
24.391512
  0
ARC
  5
1516
100
AcDbEntity
  8
90000_FRAME
370
    13
  6
CONTINUOUS
 62
     7
100
AcDbCircle
 10
76.948585
 20
17.979278
 30
0.0
 40
1.504703
100
AcDbArc
 50
25.956292
 51
59.483483
  0
LINE
  5
1517
100
AcDbEntity
  8
90000_FRAME
370
    13
  6
CONTINUOUS
 62
     7
100
AcDbLine
 10
74.957455
 20
20.833719
 30
0.0
 11
75.23152
 21
21.107792
 31
0.0
  0
ARC
  5
1518
100
AcDbEntity
  8
90000_FRAME
370
    13
  6
CONTINUOUS
 62
     7
100
AcDbCircle
 10
76.025242
 20
20.059843
 30
0.0
 40
1.309092
100
AcDbArc
 50
164.197486
 51
195.802514
  0
ARC
  5
1519
100
AcDbEntity
  8
90000_FRAME
370
    13
  6
CONTINUOUS
 62
     7
100
AcDbCircle
 10
75.85734
 20
20.16735
 30
0.0
 40
1.119747
100
AcDbArc
 50
142.813918
 51
167.152295
  0
LINE
  5
151A
100
AcDbEntity
  8
90000_FRAME
370
    13
  6
CONTINUOUS
 62
     7
100
AcDbLine
 10
204.999966
 20
291.999976
 30
0.0
 11
4.999966
 21
291.999976
 31
0.0
  0
LINE
  5
151B
100
AcDbEntity
  8
90000_FRAME
370
    13
  6
CONTINUOUS
 62
     7
100
AcDbLine
 10
209.999966
 20
296.999976
 30
0.0
 11
-0.000034
 21
296.999976
 31
0.0
  0
LINE
  5
151C
100
AcDbEntity
  8
90000_FRAME
370
    13
  6
CONTINUOUS
 62
     7
100
AcDbLine
 10
209.999966
 20
-0.000024
 30
0.0
 11
-0.000034
 21
-0.000024
 31
0.0
  0
LINE
  5
151D
100
AcDbEntity
  8
90000_FRAME
370
    13
  6
CONTINUOUS
 62
     7
100
AcDbLine
 10
-0.000034
 20
-0.000024
 30
0.0
 11
-0.000034
 21
296.999976
 31
0.0
  0
LINE
  5
151E
100
AcDbEntity
  8
90000_FRAME
370
    13
  6
CONTINUOUS
 62
     7
100
AcDbLine
 10
209.999966
 20
-0.000024
 30
0.0
 11
209.999966
 21
296.999976
 31
0.0
  0
ENDSEC
  0
SECTION
  2
OBJECTS
  0
DICTIONARY
  5
10CF
100
AcDbDictionary
280
     0
281
     1
  3
ACAD_GROUP
350
10D0
  3
ACAD_MLINESTYLE
350
10D1
  0
DICTIONARY
  5
10D0
102
{ACAD_REACTORS
330
10CF
102
}
100
AcDbDictionary
280
     0
281
     1
  0
DICTIONARY
  5
10D1
102
{ACAD_REACTORS
330
10CF
102
}
100
AcDbDictionary
280
     0
281
     1
  3
Standard
350
10D2
  0
MLINESTYLE
  5
10D2
102
{ACAD_REACTORS
330
10D1
102
}
100
AcDbMlineStyle
  2
Standard
 70
     0
  3

 62
     0
 51
90.0
 52
90.0
 71
     2
 49
0.5
 62
   256
  6
ByLayer
 49
-0.5
 62
   256
  6
ByLayer
  0
ENDSEC
  0
EOF
