  0
SECTION
  2
HEADER
  9
$ACADVER
  1
AC1015
  9
$ACADMAINTVER
 70
     6
  9
$DWGCODEPAGE
  3
ANSI_1252
  9
$INSBASE
 10
0.0
 20
0.0
 30
0.0
  9
$EXTMIN
 10
69.395417
 20
287.976483
 30
-1.0
  9
$EXTMAX
 10
1026.514554
 20
492.804657
 30
0.7
  9
$LIMMIN
 10
0.0
 20
0.0
  9
$LIMMAX
 10
12.0
 20
9.0
  9
$ORTHOMODE
 70
     0
  9
$REGENMODE
 70
     1
  9
$FILLMODE
 70
     1
  9
$QTEXTMODE
 70
     0
  9
$MIRRTEXT
 70
     0
  9
$LTSCALE
 40
10.0
  9
$ATTMODE
 70
     1
  9
$TEXTSIZE
 40
0.2
  9
$TRACEWID
 40
0.05
  9
$TEXTSTYLE
  7
STANDARD
  9
$CLAYER
  8
0
  9
$CELTYPE
  6
ByLayer
  9
$CECOLOR
 62
   256
  9
$CELTSCALE
 40
1.0
  9
$DISPSILH
 70
     0
  9
$DIMSCALE
 40
1.0
  9
$DIMASZ
 40
0.18
  9
$DIMEXO
 40
0.0625
  9
$DIMDLI
 40
0.38
  9
$DIMRND
 40
0.0
  9
$DIMDLE
 40
0.0
  9
$DIMEXE
 40
0.18
  9
$DIMTP
 40
0.0
  9
$DIMTM
 40
0.0
  9
$DIMTXT
 40
0.18
  9
$DIMCEN
 40
0.09
  9
$DIMTSZ
 40
0.0
  9
$DIMTOL
 70
     0
  9
$DIMLIM
 70
     0
  9
$DIMTIH
 70
     1
  9
$DIMTOH
 70
     1
  9
$DIMSE1
 70
     0
  9
$DIMSE2
 70
     0
  9
$DIMTAD
 70
     0
  9
$DIMZIN
 70
     0
  9
$DIMBLK
  1

  9
$DIMASO
 70
     1
  9
$DIMSHO
 70
     1
  9
$DIMPOST
  1

  9
$DIMAPOST
  1

  9
$DIMALT
 70
     0
  9
$DIMALTD
 70
     2
  9
$DIMALTF
 40
25.4
  9
$DIMLFAC
 40
1.0
  9
$DIMTOFL
 70
     0
  9
$DIMTVP
 40
0.0
  9
$DIMTIX
 70
     0
  9
$DIMSOXD
 70
     0
  9
$DIMSAH
 70
     0
  9
$DIMBLK1
  1

  9
$DIMBLK2
  1

  9
$DIMSTYLE
  2
STANDARD
  9
$DIMCLRD
 70
     0
  9
$DIMCLRE
 70
     0
  9
$DIMCLRT
 70
     0
  9
$DIMTFAC
 40
1.0
  9
$DIMGAP
 40
0.09
  9
$DIMJUST
 70
     0
  9
$DIMSD1
 70
     0
  9
$DIMSD2
 70
     0
  9
$DIMTOLJ
 70
     1
  9
$DIMTZIN
 70
     0
  9
$DIMALTZ
 70
     0
  9
$DIMALTTZ
 70
     0
  9
$DIMUPT
 70
     0
  9
$DIMDEC
 70
     4
  9
$DIMTDEC
 70
     4
  9
$DIMALTU
 70
     2
  9
$DIMALTTD
 70
     2
  9
$DIMTXSTY
  7
STANDARD
  9
$DIMAUNIT
 70
     0
  9
$DIMADEC
 70
     0
  9
$DIMALTRND
 40
0.0
  9
$DIMAZIN
 70
     0
  9
$DIMDSEP
 70
     0
  9
$DIMATFIT
 70
     3
  9
$DIMFRAC
 70
     0
  9
$DIMLDRBLK
  1

  9
$DIMLUNIT
 70
     2
  9
$DIMLWD
 70
     0
  9
$DIMLWE
 70
     0
  9
$DIMTMOVE
 70
     0
  9
$LUNITS
 70
     2
  9
$LUPREC
 70
     4
  9
$SKETCHINC
 40
0.1
  9
$FILLETRAD
 40
0.0
  9
$AUNITS
 70
     0
  9
$AUPREC
 70
     0
  9
$MENU
  1
.
  9
$ELEVATION
 40
0.0
  9
$PELEVATION
 40
0.0
  9
$THICKNESS
 40
0.0
  9
$LIMCHECK
 70
     0
  9
$CHAMFERA
 40
0.0
  9
$CHAMFERB
 40
0.0
  9
$CHAMFERC
 40
0.0
  9
$CHAMFERD
 40
0.0
  9
$SKPOLY
 70
     0
  9
$TDCREATE
 40
2453353.758792454
  9
$TDUCREATE
 40
0.000000000
  9
$TDUPDATE
 40
0.000000000
  9
$TDUUPDATE
 40
2447892.958333334
  9
$TDINDWG
 40
19583144.0627810880
  9
$TDUSRTIMER
 40
0.0000000000
  9
$USRTIMER
 70
     1
  9
$ANGBASE
 50
0.0
  9
$ANGDIR
 70
     0
  9
$PDMODE
 70
     0
  9
$PDSIZE
 40
0.0
  9
$PLINEWID
 40
0.0
  9
$SPLFRAME
 70
     0
  9
$SPLINETYPE
 70
     6
  9
$SPLINESEGS
 70
     8
  9
$HANDSEED
  5
123B
  9
$SURFTAB1
 70
     6
  9
$SURFTAB2
 70
     6
  9
$SURFTYPE
 70
     6
  9
$SURFU
 70
     6
  9
$SURFV
 70
     6
  9
$UCSBASE
  2

  9
$UCSNAME
  2

  9
$UCSORG
 10
0.0
 20
0.0
 30
0.0
  9
$UCSXDIR
 10
1.0
 20
0.0
 30
0.0
  9
$UCSYDIR
 10
0.0
 20
1.0
 30
0.0
  9
$UCSORTHOREF
  2

  9
$UCSORTHOVIEW
 70
     0
  9
$UCSORGTOP
 10
0.0
 20
0.0
 30
0.0
  9
$UCSORGBOTTOM
 10
0.0
 20
0.0
 30
0.0
  9
$UCSORGLEFT
 10
0.0
 20
0.0
 30
0.0
  9
$UCSORGRIGHT
 10
0.0
 20
0.0
 30
0.0
  9
$UCSORGFRONT
 10
0.0
 20
0.0
 30
0.0
  9
$UCSORGBACK
 10
0.0
 20
0.0
 30
0.0
  9
$PUCSBASE
  2

  9
$PUCSNAME
  2

  9
$PUCSORG
 10
0.0
 20
0.0
 30
0.0
  9
$PUCSXDIR
 10
1.0
 20
0.0
 30
0.0
  9
$PUCSYDIR
 10
0.0
 20
1.0
 30
0.0
  9
$PUCSORTHOREF
  2

  9
$PUCSORTHOVIEW
 70
     0
  9
$PUCSORGTOP
 10
0.0
 20
0.0
 30
0.0
  9
$PUCSORGBOTTOM
 10
0.0
 20
0.0
 30
0.0
  9
$PUCSORGLEFT
 10
0.0
 20
0.0
 30
0.0
  9
$PUCSORGRIGHT
 10
0.0
 20
0.0
 30
0.0
  9
$PUCSORGFRONT
 10
0.0
 20
0.0
 30
0.0
  9
$PUCSORGBACK
 10
0.0
 20
0.0
 30
0.0
  9
$USERI1
 70
     0
  9
$USERI2
 70
     0
  9
$USERI3
 70
     0
  9
$USERI4
 70
     0
  9
$USERI5
 70
     0
  9
$USERR1
 40
0.0
  9
$USERR2
 40
0.0
  9
$USERR3
 40
0.0
  9
$USERR4
 40
0.0
  9
$USERR5
 40
0.0
  9
$WORLDVIEW
 70
     1
  9
$SHADEDGE
 70
     3
  9
$SHADEDIF
 70
    70
  9
$TILEMODE
 70
     1
  9
$MAXACTVP
 70
    64
  9
$PINSBASE
 10
0.0
 20
0.0
 30
0.0
  9
$PLIMCHECK
 70
     0
  9
$PEXTMIN
 10
0.0
 20
0.0
 30
0.0
  9
$PEXTMAX
 10
0.0
 20
0.0
 30
0.0
  9
$PLIMMIN
 10
0.0
 20
0.0
  9
$PLIMMAX
 10
0.0
 20
0.0
  9
$UNITMODE
 70
     0
  9
$VISRETAIN
 70
     1
  9
$PLINEGEN
 70
     0
  9
$PSLTSCALE
 70
     1
  9
$TREEDEPTH
 70
  3020
  9
$CMLSTYLE
  2
Standard
  9
$CMLJUST
 70
     0
  9
$CMLSCALE
 40
1.0
  9
$PROXYGRAPHICS
 70
     0
  9
$MEASUREMENT
 70
     0
  9
$CELWEIGHT
370
     0
  9
$ENDCAPS
280
     0
  9
$JOINSTYLE
280
     0
  9
$LWDISPLAY
290
     0
  9
$INSUNITS
 70
     0
  9
$HYPERLINKBASE
  1

  9
$STYLESHEET
  1

  9
$XEDIT
290
     1
  9
$CEPSNTYPE
380
     0
  9
$PSTYLEMODE
290
     1
  9
$FINGERPRINTGUID
  2

  9
$VERSIONGUID
  2

  9
$EXTNAMES
290
     1
  9
$PSVPSCALE
 40
0.0
  0
ENDSEC
  0
SECTION
  2
CLASSES
  0
CLASS
  1
LWPOLYLINE
  2
AcDbPolyline
  3
AutoCAD 2000
 90
        0
280
     0
281
     1
  0
CLASS
  1
IMAGE
  2
AcDbRasterImage
  3
ISM
 90
      127
280
     0
281
     1
  0
CLASS
  1
OLE2FRAME
  2
AcDbOle2Frame
  3
AutoCAD 2000
 90
        0
280
     0
281
     1
  0
CLASS
  1
HATCH
  2
AcDbHatch
  3
AutoCAD 2000
 90
        0
280
     0
281
     1
  0
CLASS
  1
DICTIONARYVAR
  2
AcDbDictionaryVar
  3
AutoCAD 2000
 90
        0
280
     0
281
     0
  0
CLASS
  1
RASTERVARIABLES
  2
AcDbRasterVariables
  3
ISM
 90
        0
280
     0
281
     0
  0
CLASS
  1
IMAGEDEF
  2
AcDbRasterImageDef
  3
ISM
 90
        0
280
     0
281
     0
  0
CLASS
  1
IMAGEDEF_REACTOR
  2
AcDbRasterImageDefReactor
  3
ISM
 90
        1
280
     0
281
     0
  0
CLASS
  1
IDBUFFER
  2
AcDbIdBuffer
  3
AutoCAD 2000
 90
        0
280
     0
281
     0
  0
CLASS
  1
SPATIAL_FILTER
  2
AcDbSpatialFilter
  3
AutoCAD 2000
 90
        0
280
     0
281
     0
  0
CLASS
  1
XRECORD
  2
AcDbXrecord
  3
AutoCAD 2000
 90
        0
280
     0
281
     0
  0
CLASS
  1
SORTENTSTABLE
  2
AcDbSortentsTable
  3
AutoCAD 2000
 90
        0
280
     0
281
     0
  0
CLASS
  1
LAYER_INDEX
  2
AcDbLayerIndex
  3
AutoCAD 2000
 90
        0
280
     0
281
     0
  0
CLASS
  1
SPATIAL_INDEX
  2
AcDbSpatialIndex
  3
AutoCAD 2000
 90
        0
280
     0
281
     0
  0
CLASS
  1
OBJECT_PTR
  2
CAseDLPNTableRecord
  3
"ASE-LPNTableRecord"
 90
        1
280
     0
281
     0
  0
CLASS
  1
LAYOUT
  2
AcDbLayout
  3
AutoCAD 2000
 90
        0
280
     0
281
     0
  0
CLASS
  1
PLOTSETTINGS
  2
AcDbPlotSettings
  3
AutoCAD 2000
 90
        0
280
     0
281
     0
  0
CLASS
  1
ACDBDICTIONARYWDFLT
  2
AcDbDictionaryWithDefault
  3
AutoCAD 2000
 90
        0
280
     0
281
     0
  0
CLASS
  1
ACDBPLACEHOLDER
  2
AcDbPlaceHolder
  3
AutoCAD 2000
 90
        0
280
     0
281
     0
  0
CLASS
  1
VBA_PROJECT
  2
AcDbVbaProject
  3
acadvba
 90
        0
280
     0
281
     0
  0
CLASS
  1
WIPEOUT
  2
AcDbWipeout
  3
WipeOut|AutoCAD Express Tool|expresstools@autodesk.com
 90
      127
280
     0
281
     1
  0
CLASS
  1
WIPEOUTVARIABLES
  2
AcDbWipeoutVariables
  3
WipeOut|AutoCAD Express Tool|expresstools@autodesk.com
 90
        0
280
     0
281
     0
  0
CLASS
  1
RTEXT
  2
RText
  3
RText|AutoCAD Express Tool|expresstools@autodesk.com
 90
        0
280
     0
281
     1
  0
CLASS
  1
ARCALIGNEDTEXT
  2
AcDbArcAlignedText
  3
ATEXT|AutoCAD Express Tool|expresstools@autodesk.com
 90
        0
280
     0
281
     1
  0
ENDSEC
  0
SECTION
  2
TABLES
  0
TABLE
  2
VPORT
  5
FB2
100
AcDbSymbolTable
 70
     1
  0
VPORT
  5
FD1
100
AcDbSymbolTableRecord
100
AcDbViewportTableRecord
  2
*ACTIVE
 70
     0
 10
0.0
 20
0.0
 11
1.0
 21
1.0
 12
450.328833
 22
266.374849
 13
0.0
 23
0.0
 14
0.5
 24
0.5
 15
0.5
 25
0.5
 16
0.0
 26
0.0
 36
1.0
 17
0.0
 27
0.0
 37
0.0
 40
620.078606
 41
1.701534
 42
50.0
 43
0.0
 44
0.0
 50
0.0
 51
0.0
 71
    16
 72
  1000
 73
     1
 74
     3
 75
     0
 76
     0
 77
     0
 78
     0
281
     0
 65
     0
110
0.0
120
0.0
130
0.0
111
1.0
121
0.0
131
0.0
112
0.0
122
1.0
132
0.0
345
0
346
0
 79
     0
146
0.0
  0
ENDTAB
  0
TABLE
  2
LTYPE
  5
FAF
100
AcDbSymbolTable
 70
     6
  0
LTYPE
  5
FB8
100
AcDbSymbolTableRecord
100
AcDbLinetypeTableRecord
  2
ByBlock
 70
    64
  3

 72
    65
 73
     0
 40
0.0
  0
LTYPE
  5
FB9
100
AcDbSymbolTableRecord
100
AcDbLinetypeTableRecord
  2
ByLayer
 70
    64
  3

 72
    65
 73
     0
 40
0.0
  0
LTYPE
  5
FBA
100
AcDbSymbolTableRecord
100
AcDbLinetypeTableRecord
  2
CONTINUOUS
 70
     0
  3
Solid line
 72
    65
 73
     0
 40
0.0
  0
LTYPE
  5
FBB
100
AcDbSymbolTableRecord
100
AcDbLinetypeTableRecord
  2
CENTER
 70
     0
  3
____ _ ____ _ ____ _ ____ _ ____ _ ____ _ ____
 72
    65
 73
     4
 40
0.6
 49
0.375
 74
     0
 49
-0.075
 74
     0
 49
0.075
 74
     0
 49
-0.075
 74
     0
  0
LTYPE
  5
FBC
100
AcDbSymbolTableRecord
100
AcDbLinetypeTableRecord
  2
ACAD_ISO02W100
 70
     0
  3
ISO Strichlinie __ __ __ __ __ __ __ __ __ __ _
 72
    65
 73
     2
 40
15.0
 49
12.0
 74
     0
 49
-3.0
 74
     0
  0
LTYPE
  5
FBD
100
AcDbSymbolTableRecord
100
AcDbLinetypeTableRecord
  2
DASHED
 70
     0
  3
_ _ _ _ _ _ _ _ _ _ _ _ _ _ _ _ _ _ _ _ _ _ _ _
 72
    65
 73
     2
 40
0.375
 49
0.25
 74
     0
 49
-0.125
 74
     0
  0
ENDTAB
  0
TABLE
  2
LAYER
  5
FAD
100
AcDbSymbolTable
 70
     8
  0
LAYER
  5
FBE
100
AcDbSymbolTableRecord
100
AcDbLayerTableRecord
  2
0
 70
     0
 62
     7
  6
CONTINUOUS
290
     1
370
    -3
390
0
  0
LAYER
  5
FBF
100
AcDbSymbolTableRecord
100
AcDbLayerTableRecord
  2
90000_FRAME
 70
     0
 62
     7
  6
CONTINUOUS
290
     1
370
    -3
390
0
  0
LAYER
  5
FC0
100
AcDbSymbolTableRecord
100
AcDbLayerTableRecord
  2
91000_TIP
 70
     0
 62
     7
  6
CONTINUOUS
290
     1
370
    -3
390
0
  0
LAYER
  5
FC1
100
AcDbSymbolTableRecord
100
AcDbLayerTableRecord
  2
10000_FRONT
 70
     0
 62
     7
  6
CONTINUOUS
290
     1
370
    -3
390
0
  0
LAYER
  5
FC2
100
AcDbSymbolTableRecord
100
AcDbLayerTableRecord
  2
11000_LEFT
 70
     0
 62
     7
  6
CONTINUOUS
290
     1
370
    -3
390
0
  0
LAYER
  5
FC5
100
AcDbSymbolTableRecord
100
AcDbLayerTableRecord
  2
DEFPOINTS
 70
     0
 62
     7
  6
CONTINUOUS
290
     0
370
    -3
390
0
  0
LAYER
  5
FC6
100
AcDbSymbolTableRecord
100
AcDbLayerTableRecord
  2
10100_FRONT_DIM
 70
     0
 62
     7
  6
CONTINUOUS
290
     1
370
    -3
390
0
  0
LAYER
  5
FC7
100
AcDbSymbolTableRecord
100
AcDbLayerTableRecord
  2
11100_LEFT_DIM
 70
     0
 62
     7
  6
CONTINUOUS
290
     1
370
    -3
390
0
  0
ENDTAB
  0
TABLE
  2
STYLE
  5
FAE
100
AcDbSymbolTable
 70
     1
  0
STYLE
  5
FD5
100
AcDbSymbolTableRecord
100
AcDbTextStyleTableRecord
  2
STANDARD
 70
     0
 40
0.0
 41
1.0
 50
0.0
 71
     0
 42
0.2
  3
txt.shx
  4

  0
ENDTAB
  0
TABLE
  2
VIEW
  5
FB0
100
AcDbSymbolTable
 70
     0
  0
ENDTAB
  0
TABLE
  2
UCS
  5
FB1
100
AcDbSymbolTable
 70
     0
  0
ENDTAB
  0
TABLE
  2
APPID
  5
FB3
100
AcDbSymbolTable
 70
     3
  0
APPID
  5
FD2
100
AcDbSymbolTableRecord
100
AcDbRegAppTableRecord
  2
ACAD
 70
     0
  0
APPID
  5
FD3
100
AcDbSymbolTableRecord
100
AcDbRegAppTableRecord
  2
AUSTER_ANSICHT
 70
     0
  0
APPID
  5
FD4
100
AcDbSymbolTableRecord
100
AcDbRegAppTableRecord
  2
AUSTER_FOLIE
 70
     0
  0
ENDTAB
  0
TABLE
  2
DIMSTYLE
  5
FB4
100
AcDbSymbolTable
 70
     3
100
AcDbDimStyleTable
 71
     0
  0
DIMSTYLE
105
FDF
100
AcDbSymbolTableRecord
100
AcDbDimStyleTableRecord
  2
STANDARD
 70
     0
  3

  4

 40
1.0
 41
0.18
 42
0.0625
 43
0.38
 44
0.18
 45
0.0
 46
0.0
 47
0.0
 48
0.0
 71
     0
 72
     0
 73
     1
 74
     1
 75
     0
 76
     0
 77
     0
 78
     0
 79
     0
140
0.18
141
0.09
142
0.0
143
25.4
144
1.0
145
0.0
146
1.0
147
0.09
148
0.0
170
     0
171
     2
172
     0
173
     0
174
     0
175
     0
176
     0
177
     0
178
     0
179
     0
271
     4
272
     4
273
     2
274
     2
275
     0
276
     0
277
     2
278
    46
279
     0
280
     0
281
     0
282
     0
283
     1
284
     0
285
     0
286
     0
288
     0
289
     3
340
FD5
341
0
342
0
343
0
344
0
371
    -2
372
    -2
  0
DIMSTYLE
105
FE0
100
AcDbSymbolTableRecord
100
AcDbDimStyleTableRecord
  2
DSTYLE1
 70
     0
  3

  4

 40
1.0
 41
3.0
 42
0.0
 43
0.38
 44
1.0
 45
0.0
 46
0.0
 47
0.0
 48
0.0
 71
     0
 72
     0
 73
     0
 74
     0
 75
     0
 76
     0
 77
     1
 78
     3
 79
     0
140
2.5
141
0.09
142
0.0
143
0.03937
144
1.0
145
0.0
146
1.0
147
1.0
148
0.0
170
     0
171
     2
172
     0
173
     0
174
     0
175
     0
176
     0
177
     0
178
     0
179
     0
271
     4
272
     4
273
     2
274
     2
275
     0
276
     0
277
     2
278
    46
279
     0
280
     0
281
     0
282
     0
283
     1
284
     0
285
     0
286
     0
288
     0
289
     3
340
FD5
341
0
342
0
343
0
344
0
371
    -2
372
    -2
  0
DIMSTYLE
105
FE1
100
AcDbSymbolTableRecord
100
AcDbDimStyleTableRecord
  2
H035
 70
     0
  3

  4

 40
0.0
 41
3.5
 42
0.0
 43
3.75
 44
2.0
 45
0.0
 46
0.0
 47
0.0
 48
0.0
 71
     0
 72
     0
 73
     0
 74
     0
 75
     0
 76
     0
 77
     1
 78
     8
 79
     0
140
3.5
141
2.5
142
0.0
143
0.039
144
1.0
145
0.0
146
1.0
147
0.5
148
0.0
170
     0
171
     4
172
     1
173
     0
174
     0
175
     0
176
   256
177
     7
178
     7
179
     0
271
     4
272
     4
273
     2
274
     2
275
     0
276
     0
277
     2
278
    46
279
     0
280
     0
281
     0
282
     0
283
     1
284
     0
285
     0
286
     0
288
     0
289
     3
340
FD5
341
0
342
0
343
0
344
0
371
    -2
372
    -2
  0
ENDTAB
  0
TABLE
  2
BLOCK_RECORD
  5
FDA
100
AcDbSymbolTable
 70
     2
  0
BLOCK_RECORD
  5
FD8
100
AcDbSymbolTableRecord
100
AcDbBlockTableRecord
  2
*Model_Space
340
0
  0
BLOCK_RECORD
  5
FD9
100
AcDbSymbolTableRecord
100
AcDbBlockTableRecord
  2
*Paper_Space
340
0
  0
BLOCK_RECORD
  5
FD6
100
AcDbSymbolTableRecord
100
AcDbBlockTableRecord
  2
$MODEL_SPACE
340
0
  0
BLOCK_RECORD
  5
FD7
100
AcDbSymbolTableRecord
100
AcDbBlockTableRecord
  2
$PAPER_SPACE
340
0
  0
ENDTAB
  0
ENDSEC
  0
SECTION
  2
BLOCKS
  0
BLOCK
  5
FDB
100
AcDbEntity
  8
0
390
0
100
AcDbBlockBegin
  2
*Model_Space
 70
     0
 10
0.0
 20
0.0
 30
0.0
  3
*Model_Space
  1

  0
ENDBLK
  5
FDC
100
AcDbEntity
  8
0
390
0
100
AcDbBlockEnd
  0
BLOCK
  5
FDD
100
AcDbEntity
 67
     1
  8
0
390
0
100
AcDbBlockBegin
  2
*Paper_Space
 70
     0
 10
0.0
 20
0.0
 30
0.0
  3
*Paper_Space
  1

  0
ENDBLK
  5
FDE
100
AcDbEntity
 67
     1
  8
0
390
0
100
AcDbBlockEnd
  0
BLOCK
  5
FE2
100
AcDbEntity
  8
0
100
AcDbBlockBegin
  2
$MODEL_SPACE
 70
     0
 10
0.0
 20
0.0
 30
0.0
  3
$MODEL_SPACE
  1

  0
ENDBLK
  5
21
100
AcDbEntity
  8
0
100
AcDbBlockEnd
  0
BLOCK
  5
FE3
100
AcDbEntity
  8
0
100
AcDbBlockBegin
  2
$PAPER_SPACE
 70
     0
 10
0.0
 20
0.0
 30
0.0
  3
$PAPER_SPACE
  1

  0
ENDBLK
  5
76
100
AcDbEntity
  8
0
100
AcDbBlockEnd
  0
ENDSEC
  0
SECTION
  2
ENTITIES
  0
LINE
  5
FE9
100
AcDbEntity
  8
10000_FRONT
370
    25
390
0
  6
CONTINUOUS
 62
     7
100
AcDbLine
 10
310.271423
 20
466.071424
 30
0.0
 11
310.271423
 21
466.671425
 31
0.0
  0
LINE
  5
FEA
100
AcDbEntity
  8
10000_FRONT
370
    25
390
0
  6
CONTINUOUS
 62
     7
100
AcDbLine
 10
310.271423
 20
446.871424
 30
0.0
 11
310.271423
 21
466.071424
 31
0.0
  0
LINE
  5
FEB
100
AcDbEntity
  8
10000_FRONT
370
    25
390
0
  6
CONTINUOUS
 62
     7
100
AcDbLine
 10
310.271423
 20
446.271424
 30
0.0
 11
310.271423
 21
446.871424
 31
0.0
  0
LINE
  5
FEC
100
AcDbEntity
  8
10000_FRONT
370
    25
390
0
  6
CONTINUOUS
 62
     7
100
AcDbLine
 10
310.271423
 20
440.321424
 30
0.0
 11
310.271423
 21
446.271424
 31
0.0
  0
LINE
  5
FED
100
AcDbEntity
  8
10000_FRONT
370
    25
390
0
  6
CONTINUOUS
 62
     7
100
AcDbLine
 10
289.471427
 20
440.321424
 30
0.0
 11
295.871429
 21
440.321424
 31
0.0
  0
LINE
  5
FEE
100
AcDbEntity
  8
10000_FRONT
370
    25
390
0
  6
CONTINUOUS
 62
     7
100
AcDbLine
 10
295.871429
 20
440.321424
 30
0.0
 11
295.871429
 21
446.271424
 31
0.0
  0
LINE
  5
FEF
100
AcDbEntity
  8
10000_FRONT
370
    25
390
0
  6
CONTINUOUS
 62
     7
100
AcDbLine
 10
289.471427
 20
440.321424
 30
0.0
 11
289.471427
 21
446.271424
 31
0.0
  0
LINE
  5
FF0
100
AcDbEntity
  8
10000_FRONT
370
    25
390
0
  6
CONTINUOUS
 62
     7
100
AcDbLine
 10
289.471427
 20
446.271424
 30
0.0
 11
295.871429
 21
446.271424
 31
0.0
  0
LINE
  5
FF1
100
AcDbEntity
  8
10000_FRONT
370
    25
390
0
  6
CONTINUOUS
 62
     7
100
AcDbLine
 10
295.871429
 20
446.271424
 30
0.0
 11
295.871429
 21
446.871424
 31
0.0
  0
LINE
  5
FF2
100
AcDbEntity
  8
10000_FRONT
370
    25
390
0
  6
CONTINUOUS
 62
     7
100
AcDbLine
 10
289.471427
 20
446.871424
 30
0.0
 11
295.871429
 21
446.871424
 31
0.0
  0
LINE
  5
FF3
100
AcDbEntity
  8
10000_FRONT
370
    25
390
0
  6
CONTINUOUS
 62
     7
100
AcDbLine
 10
289.471427
 20
446.271424
 30
0.0
 11
289.471427
 21
446.871424
 31
0.0
  0
LINE
  5
FF4
100
AcDbEntity
  8
10000_FRONT
370
    25
390
0
  6
CONTINUOUS
 62
     7
100
AcDbLine
 10
295.871429
 20
446.871424
 30
0.0
 11
295.871429
 21
466.071424
 31
0.0
  0
LINE
  5
FF5
100
AcDbEntity
  8
10000_FRONT
370
    25
390
0
  6
CONTINUOUS
 62
     7
100
AcDbLine
 10
289.471427
 20
466.071424
 30
0.0
 11
295.871429
 21
466.071424
 31
0.0
  0
LINE
  5
FF6
100
AcDbEntity
  8
10000_FRONT
370
    25
390
0
  6
CONTINUOUS
 62
     7
100
AcDbLine
 10
289.471427
 20
446.871424
 30
0.0
 11
289.471427
 21
466.071424
 31
0.0
  0
LINE
  5
FF7
100
AcDbEntity
  8
10000_FRONT
370
    25
390
0
  6
CONTINUOUS
 62
     7
100
AcDbLine
 10
295.871429
 20
466.071424
 30
0.0
 11
295.871429
 21
466.671425
 31
0.0
  0
LINE
  5
FF8
100
AcDbEntity
  8
10000_FRONT
370
    25
390
0
  6
CONTINUOUS
 62
     7
100
AcDbLine
 10
289.471427
 20
466.671425
 30
0.0
 11
295.871429
 21
466.671425
 31
0.0
  0
LINE
  5
FF9
100
AcDbEntity
  8
10000_FRONT
370
    25
390
0
  6
CONTINUOUS
 62
     7
100
AcDbLine
 10
289.471427
 20
466.071424
 30
0.0
 11
289.471427
 21
466.671425
 31
0.0
  0
LINE
  5
FFA
100
AcDbEntity
  8
10000_FRONT
370
    25
390
0
  6
CONTINUOUS
 62
     7
100
AcDbLine
 10
289.471427
 20
462.271424
 30
0.0
 11
275.071426
 21
462.271424
 31
0.0
  0
LINE
  5
FFB
100
AcDbEntity
  8
10000_FRONT
370
    25
390
0
  6
CONTINUOUS
 62
     7
100
AcDbLine
 10
275.071426
 20
466.671425
 30
0.0
 11
289.471427
 21
466.671425
 31
0.0
  0
LINE
  5
FFC
100
AcDbEntity
  8
10000_FRONT
370
    25
390
0
  6
CONTINUOUS
 62
     7
100
AcDbLine
 10
303.871429
 20
440.321424
 30
0.0
 11
310.271423
 21
440.321424
 31
0.0
  0
LINE
  5
FFD
100
AcDbEntity
  8
10000_FRONT
370
    25
390
0
  6
CONTINUOUS
 62
     7
100
AcDbLine
 10
303.871429
 20
440.321424
 30
0.0
 11
303.871429
 21
446.271424
 31
0.0
  0
LINE
  5
FFE
100
AcDbEntity
  8
10000_FRONT
370
    25
390
0
  6
CONTINUOUS
 62
     7
100
AcDbLine
 10
303.871429
 20
446.271424
 30
0.0
 11
310.271423
 21
446.271424
 31
0.0
  0
LINE
  5
FFF
100
AcDbEntity
  8
10000_FRONT
370
    25
390
0
  6
CONTINUOUS
 62
     7
100
AcDbLine
 10
303.871429
 20
446.871424
 30
0.0
 11
310.271423
 21
446.871424
 31
0.0
  0
LINE
  5
1000
100
AcDbEntity
  8
10000_FRONT
370
    25
390
0
  6
CONTINUOUS
 62
     7
100
AcDbLine
 10
303.871429
 20
446.271424
 30
0.0
 11
303.871429
 21
446.871424
 31
0.0
  0
LINE
  5
1001
100
AcDbEntity
  8
10000_FRONT
370
    25
390
0
  6
CONTINUOUS
 62
     7
100
AcDbLine
 10
303.871429
 20
466.071424
 30
0.0
 11
310.271423
 21
466.071424
 31
0.0
  0
LINE
  5
1002
100
AcDbEntity
  8
10000_FRONT
370
    25
390
0
  6
CONTINUOUS
 62
     7
100
AcDbLine
 10
303.871429
 20
446.871424
 30
0.0
 11
303.871429
 21
466.071424
 31
0.0
  0
LINE
  5
1003
100
AcDbEntity
  8
10000_FRONT
370
    25
390
0
  6
CONTINUOUS
 62
     7
100
AcDbLine
 10
303.871429
 20
466.671425
 30
0.0
 11
310.271423
 21
466.671425
 31
0.0
  0
LINE
  5
1004
100
AcDbEntity
  8
10000_FRONT
370
    25
390
0
  6
CONTINUOUS
 62
     7
100
AcDbLine
 10
303.871429
 20
466.071424
 30
0.0
 11
303.871429
 21
466.671425
 31
0.0
  0
LINE
  5
1005
100
AcDbEntity
  8
10000_FRONT
370
    25
390
0
  6
CONTINUOUS
 62
     7
100
AcDbLine
 10
295.871429
 20
466.671425
 30
0.0
 11
303.871429
 21
466.671425
 31
0.0
  0
LINE
  5
1006
100
AcDbEntity
  8
10000_FRONT
370
    25
390
0
  6
CONTINUOUS
 62
     7
100
AcDbLine
 10
303.871429
 20
462.271424
 30
0.0
 11
295.871429
 21
462.271424
 31
0.0
  0
LINE
  5
1007
100
AcDbEntity
  8
10000_FRONT
370
    25
390
0
  6
CONTINUOUS
 62
     7
100
AcDbLine
 10
268.671432
 20
440.321424
 30
0.0
 11
275.071426
 21
440.321424
 31
0.0
  0
LINE
  5
1008
100
AcDbEntity
  8
10000_FRONT
370
    25
390
0
  6
CONTINUOUS
 62
     7
100
AcDbLine
 10
275.071426
 20
440.321424
 30
0.0
 11
275.071426
 21
446.271424
 31
0.0
  0
LINE
  5
1009
100
AcDbEntity
  8
10000_FRONT
370
    25
390
0
  6
CONTINUOUS
 62
     7
100
AcDbLine
 10
268.671432
 20
440.321424
 30
0.0
 11
268.671432
 21
446.271424
 31
0.0
  0
LINE
  5
100A
100
AcDbEntity
  8
10000_FRONT
370
    25
390
0
  6
CONTINUOUS
 62
     7
100
AcDbLine
 10
268.671432
 20
446.271424
 30
0.0
 11
275.071426
 21
446.271424
 31
0.0
  0
LINE
  5
100B
100
AcDbEntity
  8
10000_FRONT
370
    25
390
0
  6
CONTINUOUS
 62
     7
100
AcDbLine
 10
275.071426
 20
446.271424
 30
0.0
 11
275.071426
 21
446.871424
 31
0.0
  0
LINE
  5
100C
100
AcDbEntity
  8
10000_FRONT
370
    25
390
0
  6
CONTINUOUS
 62
     7
100
AcDbLine
 10
268.671432
 20
446.871424
 30
0.0
 11
275.071426
 21
446.871424
 31
0.0
  0
LINE
  5
100D
100
AcDbEntity
  8
10000_FRONT
370
    25
390
0
  6
CONTINUOUS
 62
     7
100
AcDbLine
 10
268.671432
 20
446.271424
 30
0.0
 11
268.671432
 21
446.871424
 31
0.0
  0
LINE
  5
100E
100
AcDbEntity
  8
10000_FRONT
370
    25
390
0
  6
CONTINUOUS
 62
     7
100
AcDbLine
 10
275.071426
 20
446.871424
 30
0.0
 11
275.071426
 21
466.071424
 31
0.0
  0
LINE
  5
100F
100
AcDbEntity
  8
10000_FRONT
370
    25
390
0
  6
CONTINUOUS
 62
     7
100
AcDbLine
 10
268.671432
 20
466.071424
 30
0.0
 11
275.071426
 21
466.071424
 31
0.0
  0
LINE
  5
1010
100
AcDbEntity
  8
10000_FRONT
370
    25
390
0
  6
CONTINUOUS
 62
     7
100
AcDbLine
 10
268.671432
 20
446.871424
 30
0.0
 11
268.671432
 21
466.071424
 31
0.0
  0
LINE
  5
1011
100
AcDbEntity
  8
10000_FRONT
370
    25
390
0
  6
CONTINUOUS
 62
     7
100
AcDbLine
 10
275.071426
 20
466.071424
 30
0.0
 11
275.071426
 21
466.671425
 31
0.0
  0
LINE
  5
1012
100
AcDbEntity
  8
10000_FRONT
370
    25
390
0
  6
CONTINUOUS
 62
     7
100
AcDbLine
 10
268.671432
 20
466.671425
 30
0.0
 11
275.071426
 21
466.671425
 31
0.0
  0
LINE
  5
1013
100
AcDbEntity
  8
10000_FRONT
370
    25
390
0
  6
CONTINUOUS
 62
     7
100
AcDbLine
 10
268.671432
 20
466.071424
 30
0.0
 11
268.671432
 21
466.671425
 31
0.0
  0
LINE
  5
1014
100
AcDbEntity
  8
10000_FRONT
370
    25
390
0
  6
CONTINUOUS
 62
     7
100
AcDbLine
 10
291.971427
 20
466.671425
 30
0.0
 11
291.971427
 21
467.221424
 31
0.0
  0
LINE
  5
1015
100
AcDbEntity
  8
10000_FRONT
370
    25
390
0
  6
CONTINUOUS
 62
     7
100
AcDbLine
 10
293.371429
 20
466.671425
 30
0.0
 11
293.371429
 21
467.221424
 31
0.0
  0
LINE
  5
1016
100
AcDbEntity
  8
10000_FRONT
370
    25
390
0
  6
CONTINUOUS
 62
     7
100
AcDbLine
 10
293.371429
 20
467.221424
 30
0.0
 11
291.971427
 21
467.221424
 31
0.0
  0
LINE
  5
1017
100
AcDbEntity
  8
10000_FRONT
370
    25
390
0
  6
CONTINUOUS
 62
     7
100
AcDbLine
 10
296.471427
 20
466.671425
 30
0.0
 11
296.471427
 21
467.221424
 31
0.0
  0
LINE
  5
1018
100
AcDbEntity
  8
10000_FRONT
370
    25
390
0
  6
CONTINUOUS
 62
     7
100
AcDbLine
 10
296.471427
 20
467.221424
 30
0.0
 11
293.371429
 21
467.221424
 31
0.0
  0
LINE
  5
1019
100
AcDbEntity
  8
10000_FRONT
370
    25
390
0
  6
CONTINUOUS
 62
     7
100
AcDbLine
 10
288.871429
 20
466.671425
 30
0.0
 11
288.871429
 21
467.221424
 31
0.0
  0
LINE
  5
101A
100
AcDbEntity
  8
10000_FRONT
370
    25
390
0
  6
CONTINUOUS
 62
     7
100
AcDbLine
 10
291.971427
 20
467.221424
 30
0.0
 11
288.871429
 21
467.221424
 31
0.0
  0
LINE
  5
101B
100
AcDbEntity
  8
10000_FRONT
370
    25
390
0
  6
CONTINUOUS
 62
     7
100
AcDbLine
 10
239.471427
 20
385.971424
 30
0.0
 11
237.471427
 21
385.971424
 31
0.0
  0
LINE
  5
101C
100
AcDbEntity
  8
10000_FRONT
370
    25
390
0
  6
CONTINUOUS
 62
     7
100
AcDbLine
 10
237.471427
 20
385.971424
 30
0.0
 11
237.471427
 21
384.671425
 31
0.0
  0
LINE
  5
101D
100
AcDbEntity
  8
10000_FRONT
370
    25
390
0
  6
CONTINUOUS
 62
     7
100
AcDbLine
 10
239.471427
 20
385.971424
 30
0.0
 11
239.471427
 21
384.671425
 31
0.0
  0
LINE
  5
101E
100
AcDbEntity
  8
10000_FRONT
370
    25
390
0
  6
CONTINUOUS
 62
     7
100
AcDbLine
 10
193.671428
 20
385.971424
 30
0.0
 11
191.671428
 21
385.971424
 31
0.0
  0
LINE
  5
101F
100
AcDbEntity
  8
10000_FRONT
370
    25
390
0
  6
CONTINUOUS
 62
     7
100
AcDbLine
 10
191.671428
 20
385.971424
 30
0.0
 11
191.671428
 21
384.671425
 31
0.0
  0
LINE
  5
1020
100
AcDbEntity
  8
10000_FRONT
370
    25
390
0
  6
CONTINUOUS
 62
     7
100
AcDbLine
 10
193.671428
 20
385.971424
 30
0.0
 11
193.671428
 21
384.671425
 31
0.0
  0
LINE
  5
1021
100
AcDbEntity
  8
10000_FRONT
370
    25
390
0
  6
CONTINUOUS
 62
     7
100
AcDbLine
 10
175.071429
 20
384.671425
 30
0.0
 11
183.071429
 21
384.671425
 31
0.0
  0
LINE
  5
1022
100
AcDbEntity
  8
10000_FRONT
370
    25
390
0
  6
CONTINUOUS
 62
     7
100
AcDbLine
 10
175.071429
 20
380.271427
 30
0.0
 11
183.071429
 21
380.271427
 31
0.0
  0
LINE
  5
1023
100
AcDbEntity
  8
10000_FRONT
370
    25
390
0
  6
CONTINUOUS
 62
     7
100
AcDbLine
 10
189.471429
 20
380.271427
 30
0.0
 11
197.471429
 21
380.271427
 31
0.0
  0
LINE
  5
1024
100
AcDbEntity
  8
10000_FRONT
370
    25
390
0
  6
CONTINUOUS
 62
     7
100
AcDbLine
 10
189.471429
 20
384.671425
 30
0.0
 11
197.471429
 21
384.671425
 31
0.0
  0
LINE
  5
1025
100
AcDbEntity
  8
10000_FRONT
370
    25
390
0
  6
CONTINUOUS
 62
     7
100
AcDbLine
 10
203.871429
 20
384.671425
 30
0.0
 11
214.471427
 21
384.671425
 31
0.0
  0
LINE
  5
1026
100
AcDbEntity
  8
10000_FRONT
370
    25
390
0
  6
CONTINUOUS
 62
     7
100
AcDbLine
 10
203.871429
 20
380.271427
 30
0.0
 11
214.471427
 21
380.271427
 31
0.0
  0
LINE
  5
1027
100
AcDbEntity
  8
10000_FRONT
370
    25
390
0
  6
CONTINUOUS
 62
     7
100
AcDbLine
 10
235.271431
 20
384.671425
 30
0.0
 11
249.671432
 21
384.671425
 31
0.0
  0
LINE
  5
1028
100
AcDbEntity
  8
10000_FRONT
370
    25
390
0
  6
CONTINUOUS
 62
     7
100
AcDbLine
 10
235.271431
 20
380.271427
 30
0.0
 11
249.671432
 21
380.271427
 31
0.0
  0
LINE
  5
1029
100
AcDbEntity
  8
10000_FRONT
370
    25
390
0
  6
CONTINUOUS
 62
     7
100
AcDbLine
 10
220.871429
 20
380.271427
 30
0.0
 11
228.871429
 21
380.271427
 31
0.0
  0
LINE
  5
102A
100
AcDbEntity
  8
10000_FRONT
370
    25
390
0
  6
CONTINUOUS
 62
     7
100
AcDbLine
 10
220.871429
 20
384.671425
 30
0.0
 11
228.871429
 21
384.671425
 31
0.0
  0
LINE
  5
102B
100
AcDbEntity
  8
10000_FRONT
370
    25
390
0
  6
CONTINUOUS
 62
     7
100
AcDbLine
 10
256.071426
 20
400.071422
 30
0.0
 11
249.671432
 21
400.071422
 31
0.0
  0
LINE
  5
102C
100
AcDbEntity
  8
10000_FRONT
370
    25
390
0
  6
CONTINUOUS
 62
     7
100
AcDbLine
 10
249.671432
 20
400.071422
 30
0.0
 11
249.671432
 21
392.397411
 31
0.0
  0
LINE
  5
102D
100
AcDbEntity
  8
10000_FRONT
370
    25
390
0
  6
CONTINUOUS
 62
     7
100
AcDbLine
 10
256.071426
 20
392.397411
 30
0.0
 11
249.671432
 21
392.397411
 31
0.0
  0
LINE
  5
102E
100
AcDbEntity
  8
10000_FRONT
370
    25
390
0
  6
CONTINUOUS
 62
     7
100
AcDbLine
 10
256.071426
 20
392.397411
 30
0.0
 11
256.071426
 21
400.071422
 31
0.0
  0
LINE
  5
102F
100
AcDbEntity
  8
10000_FRONT
370
    25
390
0
  6
CONTINUOUS
 62
     7
100
AcDbLine
 10
249.671432
 20
391.973148
 30
0.0
 11
249.671432
 21
392.397411
 31
0.0
  0
LINE
  5
1030
100
AcDbEntity
  8
10000_FRONT
370
    25
390
0
  6
CONTINUOUS
 62
     7
100
AcDbLine
 10
256.071426
 20
391.973148
 30
0.0
 11
249.671432
 21
391.973148
 31
0.0
  0
LINE
  5
1031
100
AcDbEntity
  8
10000_FRONT
370
    25
390
0
  6
CONTINUOUS
 62
     7
100
AcDbLine
 10
256.071426
 20
391.973148
 30
0.0
 11
256.071426
 21
392.397411
 31
0.0
  0
LINE
  5
1032
100
AcDbEntity
  8
10000_FRONT
370
    25
390
0
  6
CONTINUOUS
 62
     7
100
AcDbLine
 10
249.671432
 20
391.973148
 30
0.0
 11
249.671432
 21
380.447163
 31
0.0
  0
LINE
  5
1033
100
AcDbEntity
  8
10000_FRONT
370
    25
390
0
  6
CONTINUOUS
 62
     7
100
AcDbLine
 10
256.071426
 20
380.447163
 30
0.0
 11
249.671432
 21
380.447163
 31
0.0
  0
LINE
  5
1034
100
AcDbEntity
  8
10000_FRONT
370
    25
390
0
  6
CONTINUOUS
 62
     7
100
AcDbLine
 10
256.071426
 20
380.447163
 30
0.0
 11
256.071426
 21
391.973148
 31
0.0
  0
LINE
  5
1035
100
AcDbEntity
  8
10000_FRONT
370
    25
390
0
  6
CONTINUOUS
 62
     7
100
AcDbLine
 10
249.671432
 20
380.271427
 30
0.0
 11
249.671432
 21
380.447163
 31
0.0
  0
LINE
  5
1036
100
AcDbEntity
  8
10000_FRONT
370
    25
390
0
  6
CONTINUOUS
 62
     7
100
AcDbLine
 10
256.071426
 20
380.271427
 30
0.0
 11
249.671432
 21
380.271427
 31
0.0
  0
LINE
  5
1037
100
AcDbEntity
  8
10000_FRONT
370
    25
390
0
  6
CONTINUOUS
 62
     7
100
AcDbLine
 10
256.071426
 20
380.271427
 30
0.0
 11
256.071426
 21
380.447163
 31
0.0
  0
LINE
  5
1038
100
AcDbEntity
  8
10000_FRONT
370
    25
390
0
  6
CONTINUOUS
 62
     7
100
AcDbLine
 10
256.071426
 20
404.121426
 30
0.0
 11
249.671432
 21
404.121426
 31
0.0
  0
LINE
  5
1039
100
AcDbEntity
  8
10000_FRONT
370
    25
390
0
  6
CONTINUOUS
 62
     7
100
AcDbLine
 10
249.671432
 20
404.121426
 30
0.0
 11
249.671432
 21
400.671425
 31
0.0
  0
LINE
  5
103A
100
AcDbEntity
  8
10000_FRONT
370
    25
390
0
  6
CONTINUOUS
 62
     7
100
AcDbLine
 10
256.071426
 20
400.671425
 30
0.0
 11
256.071426
 21
404.121426
 31
0.0
  0
LINE
  5
103B
100
AcDbEntity
  8
10000_FRONT
370
    25
390
0
  6
CONTINUOUS
 62
     7
100
AcDbLine
 10
256.071426
 20
400.671425
 30
0.0
 11
249.671432
 21
400.671425
 31
0.0
  0
LINE
  5
103C
100
AcDbEntity
  8
10000_FRONT
370
    25
390
0
  6
CONTINUOUS
 62
     7
100
AcDbLine
 10
249.671432
 20
400.071422
 30
0.0
 11
249.671432
 21
400.671425
 31
0.0
  0
LINE
  5
103D
100
AcDbEntity
  8
10000_FRONT
370
    25
390
0
  6
CONTINUOUS
 62
     7
100
AcDbLine
 10
256.071426
 20
400.071422
 30
0.0
 11
256.071426
 21
400.671425
 31
0.0
  0
LINE
  5
103E
100
AcDbEntity
  8
10000_FRONT
370
    25
390
0
  6
CONTINUOUS
 62
     7
100
AcDbLine
 10
220.871429
 20
400.071422
 30
0.0
 11
214.471427
 21
400.071422
 31
0.0
  0
LINE
  5
103F
100
AcDbEntity
  8
10000_FRONT
370
    25
390
0
  6
CONTINUOUS
 62
     7
100
AcDbLine
 10
214.471427
 20
400.071422
 30
0.0
 11
214.471427
 21
392.397411
 31
0.0
  0
LINE
  5
1040
100
AcDbEntity
  8
10000_FRONT
370
    25
390
0
  6
CONTINUOUS
 62
     7
100
AcDbLine
 10
220.871429
 20
392.397411
 30
0.0
 11
214.471427
 21
392.397411
 31
0.0
  0
LINE
  5
1041
100
AcDbEntity
  8
10000_FRONT
370
    25
390
0
  6
CONTINUOUS
 62
     7
100
AcDbLine
 10
220.871429
 20
392.397411
 30
0.0
 11
220.871429
 21
400.071422
 31
0.0
  0
LINE
  5
1042
100
AcDbEntity
  8
10000_FRONT
370
    25
390
0
  6
CONTINUOUS
 62
     7
100
AcDbLine
 10
214.471427
 20
391.973148
 30
0.0
 11
214.471427
 21
392.397411
 31
0.0
  0
LINE
  5
1043
100
AcDbEntity
  8
10000_FRONT
370
    25
390
0
  6
CONTINUOUS
 62
     7
100
AcDbLine
 10
220.871429
 20
391.973148
 30
0.0
 11
214.471427
 21
391.973148
 31
0.0
  0
LINE
  5
1044
100
AcDbEntity
  8
10000_FRONT
370
    25
390
0
  6
CONTINUOUS
 62
     7
100
AcDbLine
 10
220.871429
 20
391.973148
 30
0.0
 11
220.871429
 21
392.397411
 31
0.0
  0
LINE
  5
1045
100
AcDbEntity
  8
10000_FRONT
370
    25
390
0
  6
CONTINUOUS
 62
     7
100
AcDbLine
 10
214.471427
 20
391.973148
 30
0.0
 11
214.471427
 21
380.447163
 31
0.0
  0
LINE
  5
1046
100
AcDbEntity
  8
10000_FRONT
370
    25
390
0
  6
CONTINUOUS
 62
     7
100
AcDbLine
 10
220.871429
 20
380.447163
 30
0.0
 11
214.471427
 21
380.447163
 31
0.0
  0
LINE
  5
1047
100
AcDbEntity
  8
10000_FRONT
370
    25
390
0
  6
CONTINUOUS
 62
     7
100
AcDbLine
 10
220.871429
 20
380.447163
 30
0.0
 11
220.871429
 21
391.973148
 31
0.0
  0
LINE
  5
1048
100
AcDbEntity
  8
10000_FRONT
370
    25
390
0
  6
CONTINUOUS
 62
     7
100
AcDbLine
 10
214.471427
 20
380.271427
 30
0.0
 11
214.471427
 21
380.447163
 31
0.0
  0
LINE
  5
1049
100
AcDbEntity
  8
10000_FRONT
370
    25
390
0
  6
CONTINUOUS
 62
     7
100
AcDbLine
 10
220.871429
 20
380.271427
 30
0.0
 11
214.471427
 21
380.271427
 31
0.0
  0
LINE
  5
104A
100
AcDbEntity
  8
10000_FRONT
370
    25
390
0
  6
CONTINUOUS
 62
     7
100
AcDbLine
 10
220.871429
 20
380.271427
 30
0.0
 11
220.871429
 21
380.447163
 31
0.0
  0
LINE
  5
104B
100
AcDbEntity
  8
10000_FRONT
370
    25
390
0
  6
CONTINUOUS
 62
     7
100
AcDbLine
 10
220.871429
 20
404.121426
 30
0.0
 11
214.471427
 21
404.121426
 31
0.0
  0
LINE
  5
104C
100
AcDbEntity
  8
10000_FRONT
370
    25
390
0
  6
CONTINUOUS
 62
     7
100
AcDbLine
 10
214.471427
 20
404.121426
 30
0.0
 11
214.471427
 21
400.671425
 31
0.0
  0
LINE
  5
104D
100
AcDbEntity
  8
10000_FRONT
370
    25
390
0
  6
CONTINUOUS
 62
     7
100
AcDbLine
 10
220.871429
 20
400.671425
 30
0.0
 11
220.871429
 21
404.121426
 31
0.0
  0
LINE
  5
104E
100
AcDbEntity
  8
10000_FRONT
370
    25
390
0
  6
CONTINUOUS
 62
     7
100
AcDbLine
 10
220.871429
 20
400.671425
 30
0.0
 11
214.471427
 21
400.671425
 31
0.0
  0
LINE
  5
104F
100
AcDbEntity
  8
10000_FRONT
370
    25
390
0
  6
CONTINUOUS
 62
     7
100
AcDbLine
 10
214.471427
 20
400.071422
 30
0.0
 11
214.471427
 21
400.671425
 31
0.0
  0
LINE
  5
1050
100
AcDbEntity
  8
10000_FRONT
370
    25
390
0
  6
CONTINUOUS
 62
     7
100
AcDbLine
 10
220.871429
 20
400.071422
 30
0.0
 11
220.871429
 21
400.671425
 31
0.0
  0
LINE
  5
1051
100
AcDbEntity
  8
10000_FRONT
370
    25
390
0
  6
CONTINUOUS
 62
     7
100
AcDbLine
 10
189.471429
 20
400.071422
 30
0.0
 11
183.071429
 21
400.071422
 31
0.0
  0
LINE
  5
1052
100
AcDbEntity
  8
10000_FRONT
370
    25
390
0
  6
CONTINUOUS
 62
     7
100
AcDbLine
 10
183.071429
 20
400.071422
 30
0.0
 11
183.071429
 21
392.397411
 31
0.0
  0
LINE
  5
1053
100
AcDbEntity
  8
10000_FRONT
370
    25
390
0
  6
CONTINUOUS
 62
     7
100
AcDbLine
 10
189.471429
 20
392.397411
 30
0.0
 11
183.071429
 21
392.397411
 31
0.0
  0
LINE
  5
1054
100
AcDbEntity
  8
10000_FRONT
370
    25
390
0
  6
CONTINUOUS
 62
     7
100
AcDbLine
 10
189.471429
 20
392.397411
 30
0.0
 11
189.471429
 21
400.071422
 31
0.0
  0
LINE
  5
1055
100
AcDbEntity
  8
10000_FRONT
370
    25
390
0
  6
CONTINUOUS
 62
     7
100
AcDbLine
 10
183.071429
 20
391.973148
 30
0.0
 11
183.071429
 21
392.397411
 31
0.0
  0
LINE
  5
1056
100
AcDbEntity
  8
10000_FRONT
370
    25
390
0
  6
CONTINUOUS
 62
     7
100
AcDbLine
 10
189.471429
 20
391.973148
 30
0.0
 11
183.071429
 21
391.973148
 31
0.0
  0
LINE
  5
1057
100
AcDbEntity
  8
10000_FRONT
370
    25
390
0
  6
CONTINUOUS
 62
     7
100
AcDbLine
 10
189.471429
 20
391.973148
 30
0.0
 11
189.471429
 21
392.397411
 31
0.0
  0
LINE
  5
1058
100
AcDbEntity
  8
10000_FRONT
370
    25
390
0
  6
CONTINUOUS
 62
     7
100
AcDbLine
 10
183.071429
 20
391.973148
 30
0.0
 11
183.071429
 21
380.447163
 31
0.0
  0
LINE
  5
1059
100
AcDbEntity
  8
10000_FRONT
370
    25
390
0
  6
CONTINUOUS
 62
     7
100
AcDbLine
 10
189.471429
 20
380.447163
 30
0.0
 11
183.071429
 21
380.447163
 31
0.0
  0
LINE
  5
105A
100
AcDbEntity
  8
10000_FRONT
370
    25
390
0
  6
CONTINUOUS
 62
     7
100
AcDbLine
 10
189.471429
 20
380.447163
 30
0.0
 11
189.471429
 21
391.973148
 31
0.0
  0
LINE
  5
105B
100
AcDbEntity
  8
10000_FRONT
370
    25
390
0
  6
CONTINUOUS
 62
     7
100
AcDbLine
 10
183.071429
 20
380.271427
 30
0.0
 11
183.071429
 21
380.447163
 31
0.0
  0
LINE
  5
105C
100
AcDbEntity
  8
10000_FRONT
370
    25
390
0
  6
CONTINUOUS
 62
     7
100
AcDbLine
 10
189.471429
 20
380.271427
 30
0.0
 11
183.071429
 21
380.271427
 31
0.0
  0
LINE
  5
105D
100
AcDbEntity
  8
10000_FRONT
370
    25
390
0
  6
CONTINUOUS
 62
     7
100
AcDbLine
 10
189.471429
 20
380.271427
 30
0.0
 11
189.471429
 21
380.447163
 31
0.0
  0
LINE
  5
105E
100
AcDbEntity
  8
10000_FRONT
370
    25
390
0
  6
CONTINUOUS
 62
     7
100
AcDbLine
 10
189.471429
 20
404.121426
 30
0.0
 11
183.071429
 21
404.121426
 31
0.0
  0
LINE
  5
105F
100
AcDbEntity
  8
10000_FRONT
370
    25
390
0
  6
CONTINUOUS
 62
     7
100
AcDbLine
 10
183.071429
 20
404.121426
 30
0.0
 11
183.071429
 21
400.671425
 31
0.0
  0
LINE
  5
1060
100
AcDbEntity
  8
10000_FRONT
370
    25
390
0
  6
CONTINUOUS
 62
     7
100
AcDbLine
 10
189.471429
 20
400.671425
 30
0.0
 11
189.471429
 21
404.121426
 31
0.0
  0
LINE
  5
1061
100
AcDbEntity
  8
10000_FRONT
370
    25
390
0
  6
CONTINUOUS
 62
     7
100
AcDbLine
 10
189.471429
 20
400.671425
 30
0.0
 11
183.071429
 21
400.671425
 31
0.0
  0
LINE
  5
1062
100
AcDbEntity
  8
10000_FRONT
370
    25
390
0
  6
CONTINUOUS
 62
     7
100
AcDbLine
 10
183.071429
 20
400.071422
 30
0.0
 11
183.071429
 21
400.671425
 31
0.0
  0
LINE
  5
1063
100
AcDbEntity
  8
10000_FRONT
370
    25
390
0
  6
CONTINUOUS
 62
     7
100
AcDbLine
 10
189.471429
 20
400.071422
 30
0.0
 11
189.471429
 21
400.671425
 31
0.0
  0
LINE
  5
1064
100
AcDbEntity
  8
10000_FRONT
370
    25
390
0
  6
CONTINUOUS
 62
     7
100
AcDbLine
 10
175.071429
 20
400.071422
 30
0.0
 11
168.671429
 21
400.071422
 31
0.0
  0
LINE
  5
1065
100
AcDbEntity
  8
10000_FRONT
370
    25
390
0
  6
CONTINUOUS
 62
     7
100
AcDbLine
 10
168.671429
 20
400.071422
 30
0.0
 11
168.671429
 21
392.397411
 31
0.0
  0
LINE
  5
1066
100
AcDbEntity
  8
10000_FRONT
370
    25
390
0
  6
CONTINUOUS
 62
     7
100
AcDbLine
 10
175.071429
 20
392.397411
 30
0.0
 11
168.671429
 21
392.397411
 31
0.0
  0
LINE
  5
1067
100
AcDbEntity
  8
10000_FRONT
370
    25
390
0
  6
CONTINUOUS
 62
     7
100
AcDbLine
 10
175.071429
 20
392.397411
 30
0.0
 11
175.071429
 21
400.071422
 31
0.0
  0
LINE
  5
1068
100
AcDbEntity
  8
10000_FRONT
370
    25
390
0
  6
CONTINUOUS
 62
     7
100
AcDbLine
 10
168.671429
 20
391.973148
 30
0.0
 11
168.671429
 21
392.397411
 31
0.0
  0
LINE
  5
1069
100
AcDbEntity
  8
10000_FRONT
370
    25
390
0
  6
CONTINUOUS
 62
     7
100
AcDbLine
 10
175.071429
 20
391.973148
 30
0.0
 11
168.671429
 21
391.973148
 31
0.0
  0
LINE
  5
106A
100
AcDbEntity
  8
10000_FRONT
370
    25
390
0
  6
CONTINUOUS
 62
     7
100
AcDbLine
 10
175.071429
 20
391.973148
 30
0.0
 11
175.071429
 21
392.397411
 31
0.0
  0
LINE
  5
106B
100
AcDbEntity
  8
10000_FRONT
370
    25
390
0
  6
CONTINUOUS
 62
     7
100
AcDbLine
 10
168.671429
 20
391.973148
 30
0.0
 11
168.671429
 21
380.447163
 31
0.0
  0
LINE
  5
106C
100
AcDbEntity
  8
10000_FRONT
370
    25
390
0
  6
CONTINUOUS
 62
     7
100
AcDbLine
 10
175.071429
 20
380.447163
 30
0.0
 11
168.671429
 21
380.447163
 31
0.0
  0
LINE
  5
106D
100
AcDbEntity
  8
10000_FRONT
370
    25
390
0
  6
CONTINUOUS
 62
     7
100
AcDbLine
 10
175.071429
 20
380.447163
 30
0.0
 11
175.071429
 21
391.973148
 31
0.0
  0
LINE
  5
106E
100
AcDbEntity
  8
10000_FRONT
370
    25
390
0
  6
CONTINUOUS
 62
     7
100
AcDbLine
 10
168.671429
 20
380.271427
 30
0.0
 11
168.671429
 21
380.447163
 31
0.0
  0
LINE
  5
106F
100
AcDbEntity
  8
10000_FRONT
370
    25
390
0
  6
CONTINUOUS
 62
     7
100
AcDbLine
 10
175.071429
 20
380.271427
 30
0.0
 11
168.671429
 21
380.271427
 31
0.0
  0
LINE
  5
1070
100
AcDbEntity
  8
10000_FRONT
370
    25
390
0
  6
CONTINUOUS
 62
     7
100
AcDbLine
 10
175.071429
 20
380.271427
 30
0.0
 11
175.071429
 21
380.447163
 31
0.0
  0
LINE
  5
1071
100
AcDbEntity
  8
10000_FRONT
370
    25
390
0
  6
CONTINUOUS
 62
     7
100
AcDbLine
 10
175.071429
 20
404.121426
 30
0.0
 11
168.671429
 21
404.121426
 31
0.0
  0
LINE
  5
1072
100
AcDbEntity
  8
10000_FRONT
370
    25
390
0
  6
CONTINUOUS
 62
     7
100
AcDbLine
 10
168.671429
 20
404.121426
 30
0.0
 11
168.671429
 21
400.671425
 31
0.0
  0
LINE
  5
1073
100
AcDbEntity
  8
10000_FRONT
370
    25
390
0
  6
CONTINUOUS
 62
     7
100
AcDbLine
 10
175.071429
 20
400.671425
 30
0.0
 11
175.071429
 21
404.121426
 31
0.0
  0
LINE
  5
1074
100
AcDbEntity
  8
10000_FRONT
370
    25
390
0
  6
CONTINUOUS
 62
     7
100
AcDbLine
 10
175.071429
 20
400.671425
 30
0.0
 11
168.671429
 21
400.671425
 31
0.0
  0
LINE
  5
1075
100
AcDbEntity
  8
10000_FRONT
370
    25
390
0
  6
CONTINUOUS
 62
     7
100
AcDbLine
 10
168.671429
 20
400.071422
 30
0.0
 11
168.671429
 21
400.671425
 31
0.0
  0
LINE
  5
1076
100
AcDbEntity
  8
10000_FRONT
370
    25
390
0
  6
CONTINUOUS
 62
     7
100
AcDbLine
 10
175.071429
 20
400.071422
 30
0.0
 11
175.071429
 21
400.671425
 31
0.0
  0
LINE
  5
1077
100
AcDbEntity
  8
10000_FRONT
370
    25
390
0
  6
CONTINUOUS
 62
     7
100
AcDbLine
 10
203.871429
 20
400.071422
 30
0.0
 11
197.471429
 21
400.071422
 31
0.0
  0
LINE
  5
1078
100
AcDbEntity
  8
10000_FRONT
370
    25
390
0
  6
CONTINUOUS
 62
     7
100
AcDbLine
 10
197.471429
 20
400.071422
 30
0.0
 11
197.471429
 21
392.397411
 31
0.0
  0
LINE
  5
1079
100
AcDbEntity
  8
10000_FRONT
370
    25
390
0
  6
CONTINUOUS
 62
     7
100
AcDbLine
 10
203.871429
 20
392.397411
 30
0.0
 11
197.471429
 21
392.397411
 31
0.0
  0
LINE
  5
107A
100
AcDbEntity
  8
10000_FRONT
370
    25
390
0
  6
CONTINUOUS
 62
     7
100
AcDbLine
 10
203.871429
 20
392.397411
 30
0.0
 11
203.871429
 21
400.071422
 31
0.0
  0
LINE
  5
107B
100
AcDbEntity
  8
10000_FRONT
370
    25
390
0
  6
CONTINUOUS
 62
     7
100
AcDbLine
 10
197.471429
 20
391.973148
 30
0.0
 11
197.471429
 21
392.397411
 31
0.0
  0
LINE
  5
107C
100
AcDbEntity
  8
10000_FRONT
370
    25
390
0
  6
CONTINUOUS
 62
     7
100
AcDbLine
 10
203.871429
 20
391.973148
 30
0.0
 11
197.471429
 21
391.973148
 31
0.0
  0
LINE
  5
107D
100
AcDbEntity
  8
10000_FRONT
370
    25
390
0
  6
CONTINUOUS
 62
     7
100
AcDbLine
 10
203.871429
 20
391.973148
 30
0.0
 11
203.871429
 21
392.397411
 31
0.0
  0
LINE
  5
107E
100
AcDbEntity
  8
10000_FRONT
370
    25
390
0
  6
CONTINUOUS
 62
     7
100
AcDbLine
 10
197.471429
 20
391.973148
 30
0.0
 11
197.471429
 21
380.447163
 31
0.0
  0
LINE
  5
107F
100
AcDbEntity
  8
10000_FRONT
370
    25
390
0
  6
CONTINUOUS
 62
     7
100
AcDbLine
 10
203.871429
 20
380.447163
 30
0.0
 11
197.471429
 21
380.447163
 31
0.0
  0
LINE
  5
1080
100
AcDbEntity
  8
10000_FRONT
370
    25
390
0
  6
CONTINUOUS
 62
     7
100
AcDbLine
 10
203.871429
 20
380.447163
 30
0.0
 11
203.871429
 21
391.973148
 31
0.0
  0
LINE
  5
1081
100
AcDbEntity
  8
10000_FRONT
370
    25
390
0
  6
CONTINUOUS
 62
     7
100
AcDbLine
 10
197.471429
 20
380.271427
 30
0.0
 11
197.471429
 21
380.447163
 31
0.0
  0
LINE
  5
1082
100
AcDbEntity
  8
10000_FRONT
370
    25
390
0
  6
CONTINUOUS
 62
     7
100
AcDbLine
 10
203.871429
 20
380.271427
 30
0.0
 11
197.471429
 21
380.271427
 31
0.0
  0
LINE
  5
1083
100
AcDbEntity
  8
10000_FRONT
370
    25
390
0
  6
CONTINUOUS
 62
     7
100
AcDbLine
 10
203.871429
 20
380.271427
 30
0.0
 11
203.871429
 21
380.447163
 31
0.0
  0
LINE
  5
1084
100
AcDbEntity
  8
10000_FRONT
370
    25
390
0
  6
CONTINUOUS
 62
     7
100
AcDbLine
 10
203.871429
 20
404.121426
 30
0.0
 11
197.471429
 21
404.121426
 31
0.0
  0
LINE
  5
1085
100
AcDbEntity
  8
10000_FRONT
370
    25
390
0
  6
CONTINUOUS
 62
     7
100
AcDbLine
 10
197.471429
 20
404.121426
 30
0.0
 11
197.471429
 21
400.671425
 31
0.0
  0
LINE
  5
1086
100
AcDbEntity
  8
10000_FRONT
370
    25
390
0
  6
CONTINUOUS
 62
     7
100
AcDbLine
 10
203.871429
 20
400.671425
 30
0.0
 11
203.871429
 21
404.121426
 31
0.0
  0
LINE
  5
1087
100
AcDbEntity
  8
10000_FRONT
370
    25
390
0
  6
CONTINUOUS
 62
     7
100
AcDbLine
 10
203.871429
 20
400.671425
 30
0.0
 11
197.471429
 21
400.671425
 31
0.0
  0
LINE
  5
1088
100
AcDbEntity
  8
10000_FRONT
370
    25
390
0
  6
CONTINUOUS
 62
     7
100
AcDbLine
 10
197.471429
 20
400.071422
 30
0.0
 11
197.471429
 21
400.671425
 31
0.0
  0
LINE
  5
1089
100
AcDbEntity
  8
10000_FRONT
370
    25
390
0
  6
CONTINUOUS
 62
     7
100
AcDbLine
 10
203.871429
 20
400.071422
 30
0.0
 11
203.871429
 21
400.671425
 31
0.0
  0
LINE
  5
108A
100
AcDbEntity
  8
10000_FRONT
370
    25
390
0
  6
CONTINUOUS
 62
     7
100
AcDbLine
 10
235.271431
 20
400.071422
 30
0.0
 11
228.871429
 21
400.071422
 31
0.0
  0
LINE
  5
108B
100
AcDbEntity
  8
10000_FRONT
370
    25
390
0
  6
CONTINUOUS
 62
     7
100
AcDbLine
 10
228.871429
 20
400.071422
 30
0.0
 11
228.871429
 21
392.397411
 31
0.0
  0
LINE
  5
108C
100
AcDbEntity
  8
10000_FRONT
370
    25
390
0
  6
CONTINUOUS
 62
     7
100
AcDbLine
 10
235.271431
 20
392.397411
 30
0.0
 11
228.871429
 21
392.397411
 31
0.0
  0
LINE
  5
108D
100
AcDbEntity
  8
10000_FRONT
370
    25
390
0
  6
CONTINUOUS
 62
     7
100
AcDbLine
 10
235.271431
 20
392.397411
 30
0.0
 11
235.271431
 21
400.071422
 31
0.0
  0
LINE
  5
108E
100
AcDbEntity
  8
10000_FRONT
370
    25
390
0
  6
CONTINUOUS
 62
     7
100
AcDbLine
 10
228.871429
 20
391.973148
 30
0.0
 11
228.871429
 21
392.397411
 31
0.0
  0
LINE
  5
108F
100
AcDbEntity
  8
10000_FRONT
370
    25
390
0
  6
CONTINUOUS
 62
     7
100
AcDbLine
 10
235.271431
 20
391.973148
 30
0.0
 11
228.871429
 21
391.973148
 31
0.0
  0
LINE
  5
1090
100
AcDbEntity
  8
10000_FRONT
370
    25
390
0
  6
CONTINUOUS
 62
     7
100
AcDbLine
 10
235.271431
 20
391.973148
 30
0.0
 11
235.271431
 21
392.397411
 31
0.0
  0
LINE
  5
1091
100
AcDbEntity
  8
10000_FRONT
370
    25
390
0
  6
CONTINUOUS
 62
     7
100
AcDbLine
 10
228.871429
 20
391.973148
 30
0.0
 11
228.871429
 21
380.447163
 31
0.0
  0
LINE
  5
1092
100
AcDbEntity
  8
10000_FRONT
370
    25
390
0
  6
CONTINUOUS
 62
     7
100
AcDbLine
 10
235.271431
 20
380.447163
 30
0.0
 11
228.871429
 21
380.447163
 31
0.0
  0
LINE
  5
1093
100
AcDbEntity
  8
10000_FRONT
370
    25
390
0
  6
CONTINUOUS
 62
     7
100
AcDbLine
 10
235.271431
 20
380.447163
 30
0.0
 11
235.271431
 21
391.973148
 31
0.0
  0
LINE
  5
1094
100
AcDbEntity
  8
10000_FRONT
370
    25
390
0
  6
CONTINUOUS
 62
     7
100
AcDbLine
 10
228.871429
 20
380.271427
 30
0.0
 11
228.871429
 21
380.447163
 31
0.0
  0
LINE
  5
1095
100
AcDbEntity
  8
10000_FRONT
370
    25
390
0
  6
CONTINUOUS
 62
     7
100
AcDbLine
 10
235.271431
 20
380.271427
 30
0.0
 11
228.871429
 21
380.271427
 31
0.0
  0
LINE
  5
1096
100
AcDbEntity
  8
10000_FRONT
370
    25
390
0
  6
CONTINUOUS
 62
     7
100
AcDbLine
 10
235.271431
 20
380.271427
 30
0.0
 11
235.271431
 21
380.447163
 31
0.0
  0
LINE
  5
1097
100
AcDbEntity
  8
10000_FRONT
370
    25
390
0
  6
CONTINUOUS
 62
     7
100
AcDbLine
 10
235.271431
 20
404.121426
 30
0.0
 11
228.871429
 21
404.121426
 31
0.0
  0
LINE
  5
1098
100
AcDbEntity
  8
10000_FRONT
370
    25
390
0
  6
CONTINUOUS
 62
     7
100
AcDbLine
 10
228.871429
 20
404.121426
 30
0.0
 11
228.871429
 21
400.671425
 31
0.0
  0
LINE
  5
1099
100
AcDbEntity
  8
10000_FRONT
370
    25
390
0
  6
CONTINUOUS
 62
     7
100
AcDbLine
 10
235.271431
 20
400.671425
 30
0.0
 11
235.271431
 21
404.121426
 31
0.0
  0
LINE
  5
109A
100
AcDbEntity
  8
10000_FRONT
370
    25
390
0
  6
CONTINUOUS
 62
     7
100
AcDbLine
 10
235.271431
 20
400.671425
 30
0.0
 11
228.871429
 21
400.671425
 31
0.0
  0
LINE
  5
109B
100
AcDbEntity
  8
10000_FRONT
370
    25
390
0
  6
CONTINUOUS
 62
     7
100
AcDbLine
 10
228.871429
 20
400.071422
 30
0.0
 11
228.871429
 21
400.671425
 31
0.0
  0
LINE
  5
109C
100
AcDbEntity
  8
10000_FRONT
370
    25
390
0
  6
CONTINUOUS
 62
     7
100
AcDbLine
 10
235.271431
 20
400.071422
 30
0.0
 11
235.271431
 21
400.671425
 31
0.0
  0
LINE
  5
109D
100
AcDbEntity
  8
10000_FRONT
370
    25
390
0
  6
CONTINUOUS
 62
     7
100
AcDbLine
 10
175.071429
 20
469.671425
 30
0.0
 11
183.071429
 21
469.671425
 31
0.0
  0
LINE
  5
109E
100
AcDbEntity
  8
10000_FRONT
370
    25
390
0
  6
CONTINUOUS
 62
     7
100
AcDbLine
 10
175.071429
 20
462.271424
 30
0.0
 11
183.071429
 21
462.271424
 31
0.0
  0
LINE
  5
109F
100
AcDbEntity
  8
10000_FRONT
370
    25
390
0
  6
CONTINUOUS
 62
     7
100
AcDbLine
 10
189.471429
 20
462.271424
 30
0.0
 11
197.471429
 21
462.271424
 31
0.0
  0
LINE
  5
10A0
100
AcDbEntity
  8
10000_FRONT
370
    25
390
0
  6
CONTINUOUS
 62
     7
100
AcDbLine
 10
189.471429
 20
469.671425
 30
0.0
 11
197.471429
 21
469.671425
 31
0.0
  0
LINE
  5
10A1
100
AcDbEntity
  8
10000_FRONT
370
    25
390
0
  6
CONTINUOUS
 62
     7
100
AcDbLine
 10
203.871429
 20
469.671425
 30
0.0
 11
214.471427
 21
469.671425
 31
0.0
  0
LINE
  5
10A2
100
AcDbEntity
  8
10000_FRONT
370
    25
390
0
  6
CONTINUOUS
 62
     7
100
AcDbLine
 10
203.871429
 20
462.271424
 30
0.0
 11
214.471427
 21
462.271424
 31
0.0
  0
LINE
  5
10A3
100
AcDbEntity
  8
10000_FRONT
370
    25
390
0
  6
CONTINUOUS
 62
     7
100
AcDbLine
 10
220.871429
 20
462.271424
 30
0.0
 11
228.871429
 21
462.271424
 31
0.0
  0
LINE
  5
10A4
100
AcDbEntity
  8
10000_FRONT
370
    25
390
0
  6
CONTINUOUS
 62
     7
100
AcDbLine
 10
220.871429
 20
469.671425
 30
0.0
 11
228.871429
 21
469.671425
 31
0.0
  0
LINE
  5
10A5
100
AcDbEntity
  8
10000_FRONT
370
    25
390
0
  6
CONTINUOUS
 62
     7
100
AcDbLine
 10
235.271431
 20
469.671425
 30
0.0
 11
249.671432
 21
469.671425
 31
0.0
  0
LINE
  5
10A6
100
AcDbEntity
  8
10000_FRONT
370
    25
390
0
  6
CONTINUOUS
 62
     7
100
AcDbLine
 10
235.271431
 20
462.271424
 30
0.0
 11
249.671432
 21
462.271424
 31
0.0
  0
LINE
  5
10A7
100
AcDbEntity
  8
10000_FRONT
370
    25
390
0
  6
CONTINUOUS
 62
     7
100
AcDbLine
 10
249.671432
 20
446.271424
 30
0.0
 11
249.671432
 21
440.321424
 31
0.0
  0
LINE
  5
10A8
100
AcDbEntity
  8
10000_FRONT
370
    25
390
0
  6
CONTINUOUS
 62
     7
100
AcDbLine
 10
249.671432
 20
446.271424
 30
0.0
 11
249.671432
 21
446.871424
 31
0.0
  0
LINE
  5
10A9
100
AcDbEntity
  8
10000_FRONT
370
    25
390
0
  6
CONTINUOUS
 62
     7
100
AcDbLine
 10
249.671432
 20
469.071424
 30
0.0
 11
249.671432
 21
446.871424
 31
0.0
  0
LINE
  5
10AA
100
AcDbEntity
  8
10000_FRONT
370
    25
390
0
  6
CONTINUOUS
 62
     7
100
AcDbLine
 10
249.671432
 20
469.071424
 30
0.0
 11
249.671432
 21
469.671425
 31
0.0
  0
LINE
  5
10AB
100
AcDbEntity
  8
10000_FRONT
370
    25
390
0
  6
CONTINUOUS
 62
     7
100
AcDbLine
 10
249.671432
 20
446.271424
 30
0.0
 11
256.071426
 21
446.271424
 31
0.0
  0
LINE
  5
10AC
100
AcDbEntity
  8
10000_FRONT
370
    25
390
0
  6
CONTINUOUS
 62
     7
100
AcDbLine
 10
256.071426
 20
446.271424
 30
0.0
 11
256.071426
 21
446.871424
 31
0.0
  0
LINE
  5
10AD
100
AcDbEntity
  8
10000_FRONT
370
    25
390
0
  6
CONTINUOUS
 62
     7
100
AcDbLine
 10
249.671432
 20
446.871424
 30
0.0
 11
256.071426
 21
446.871424
 31
0.0
  0
LINE
  5
10AE
100
AcDbEntity
  8
10000_FRONT
370
    25
390
0
  6
CONTINUOUS
 62
     7
100
AcDbLine
 10
256.071426
 20
446.871424
 30
0.0
 11
256.071426
 21
469.071424
 31
0.0
  0
LINE
  5
10AF
100
AcDbEntity
  8
10000_FRONT
370
    25
390
0
  6
CONTINUOUS
 62
     7
100
AcDbLine
 10
249.671432
 20
469.071424
 30
0.0
 11
256.071426
 21
469.071424
 31
0.0
  0
LINE
  5
10B0
100
AcDbEntity
  8
10000_FRONT
370
    25
390
0
  6
CONTINUOUS
 62
     7
100
AcDbLine
 10
256.071426
 20
469.071424
 30
0.0
 11
256.071426
 21
469.671425
 31
0.0
  0
LINE
  5
10B1
100
AcDbEntity
  8
10000_FRONT
370
    25
390
0
  6
CONTINUOUS
 62
     7
100
AcDbLine
 10
249.671432
 20
469.671425
 30
0.0
 11
256.071426
 21
469.671425
 31
0.0
  0
LINE
  5
10B2
100
AcDbEntity
  8
10000_FRONT
370
    25
390
0
  6
CONTINUOUS
 62
     7
100
AcDbLine
 10
249.671432
 20
440.321424
 30
0.0
 11
256.071426
 21
440.321424
 31
0.0
  0
LINE
  5
10B3
100
AcDbEntity
  8
10000_FRONT
370
    25
390
0
  6
CONTINUOUS
 62
     7
100
AcDbLine
 10
256.071426
 20
440.321424
 30
0.0
 11
256.071426
 21
446.271424
 31
0.0
  0
LINE
  5
10B4
100
AcDbEntity
  8
10000_FRONT
370
    25
390
0
  6
CONTINUOUS
 62
     7
100
AcDbLine
 10
214.471427
 20
446.271424
 30
0.0
 11
214.471427
 21
440.321424
 31
0.0
  0
LINE
  5
10B5
100
AcDbEntity
  8
10000_FRONT
370
    25
390
0
  6
CONTINUOUS
 62
     7
100
AcDbLine
 10
214.471427
 20
446.271424
 30
0.0
 11
214.471427
 21
446.871424
 31
0.0
  0
LINE
  5
10B6
100
AcDbEntity
  8
10000_FRONT
370
    25
390
0
  6
CONTINUOUS
 62
     7
100
AcDbLine
 10
214.471427
 20
469.071424
 30
0.0
 11
214.471427
 21
446.871424
 31
0.0
  0
LINE
  5
10B7
100
AcDbEntity
  8
10000_FRONT
370
    25
390
0
  6
CONTINUOUS
 62
     7
100
AcDbLine
 10
214.471427
 20
469.071424
 30
0.0
 11
214.471427
 21
469.671425
 31
0.0
  0
LINE
  5
10B8
100
AcDbEntity
  8
10000_FRONT
370
    25
390
0
  6
CONTINUOUS
 62
     7
100
AcDbLine
 10
214.471427
 20
446.271424
 30
0.0
 11
220.871429
 21
446.271424
 31
0.0
  0
LINE
  5
10B9
100
AcDbEntity
  8
10000_FRONT
370
    25
390
0
  6
CONTINUOUS
 62
     7
100
AcDbLine
 10
220.871429
 20
446.271424
 30
0.0
 11
220.871429
 21
446.871424
 31
0.0
  0
LINE
  5
10BA
100
AcDbEntity
  8
10000_FRONT
370
    25
390
0
  6
CONTINUOUS
 62
     7
100
AcDbLine
 10
214.471427
 20
446.871424
 30
0.0
 11
220.871429
 21
446.871424
 31
0.0
  0
LINE
  5
10BB
100
AcDbEntity
  8
10000_FRONT
370
    25
390
0
  6
CONTINUOUS
 62
     7
100
AcDbLine
 10
220.871429
 20
446.871424
 30
0.0
 11
220.871429
 21
469.071424
 31
0.0
  0
LINE
  5
10BC
100
AcDbEntity
  8
10000_FRONT
370
    25
390
0
  6
CONTINUOUS
 62
     7
100
AcDbLine
 10
214.471427
 20
469.071424
 30
0.0
 11
220.871429
 21
469.071424
 31
0.0
  0
LINE
  5
10BD
100
AcDbEntity
  8
10000_FRONT
370
    25
390
0
  6
CONTINUOUS
 62
     7
100
AcDbLine
 10
220.871429
 20
469.071424
 30
0.0
 11
220.871429
 21
469.671425
 31
0.0
  0
LINE
  5
10BE
100
AcDbEntity
  8
10000_FRONT
370
    25
390
0
  6
CONTINUOUS
 62
     7
100
AcDbLine
 10
214.471427
 20
469.671425
 30
0.0
 11
220.871429
 21
469.671425
 31
0.0
  0
LINE
  5
10BF
100
AcDbEntity
  8
10000_FRONT
370
    25
390
0
  6
CONTINUOUS
 62
     7
100
AcDbLine
 10
214.471427
 20
440.321424
 30
0.0
 11
220.871429
 21
440.321424
 31
0.0
  0
LINE
  5
10C0
100
AcDbEntity
  8
10000_FRONT
370
    25
390
0
  6
CONTINUOUS
 62
     7
100
AcDbLine
 10
220.871429
 20
440.321424
 30
0.0
 11
220.871429
 21
446.271424
 31
0.0
  0
LINE
  5
10C1
100
AcDbEntity
  8
10000_FRONT
370
    25
390
0
  6
CONTINUOUS
 62
     7
100
AcDbLine
 10
183.071429
 20
446.271424
 30
0.0
 11
183.071429
 21
440.321424
 31
0.0
  0
LINE
  5
10C2
100
AcDbEntity
  8
10000_FRONT
370
    25
390
0
  6
CONTINUOUS
 62
     7
100
AcDbLine
 10
183.071429
 20
446.271424
 30
0.0
 11
183.071429
 21
446.871424
 31
0.0
  0
LINE
  5
10C3
100
AcDbEntity
  8
10000_FRONT
370
    25
390
0
  6
CONTINUOUS
 62
     7
100
AcDbLine
 10
183.071429
 20
469.071424
 30
0.0
 11
183.071429
 21
446.871424
 31
0.0
  0
LINE
  5
10C4
100
AcDbEntity
  8
10000_FRONT
370
    25
390
0
  6
CONTINUOUS
 62
     7
100
AcDbLine
 10
183.071429
 20
469.071424
 30
0.0
 11
183.071429
 21
469.671425
 31
0.0
  0
LINE
  5
10C5
100
AcDbEntity
  8
10000_FRONT
370
    25
390
0
  6
CONTINUOUS
 62
     7
100
AcDbLine
 10
183.071429
 20
446.271424
 30
0.0
 11
189.471429
 21
446.271424
 31
0.0
  0
LINE
  5
10C6
100
AcDbEntity
  8
10000_FRONT
370
    25
390
0
  6
CONTINUOUS
 62
     7
100
AcDbLine
 10
189.471429
 20
446.271424
 30
0.0
 11
189.471429
 21
446.871424
 31
0.0
  0
LINE
  5
10C7
100
AcDbEntity
  8
10000_FRONT
370
    25
390
0
  6
CONTINUOUS
 62
     7
100
AcDbLine
 10
183.071429
 20
446.871424
 30
0.0
 11
189.471429
 21
446.871424
 31
0.0
  0
LINE
  5
10C8
100
AcDbEntity
  8
10000_FRONT
370
    25
390
0
  6
CONTINUOUS
 62
     7
100
AcDbLine
 10
189.471429
 20
446.871424
 30
0.0
 11
189.471429
 21
469.071424
 31
0.0
  0
LINE
  5
10C9
100
AcDbEntity
  8
10000_FRONT
370
    25
390
0
  6
CONTINUOUS
 62
     7
100
AcDbLine
 10
183.071429
 20
469.071424
 30
0.0
 11
189.471429
 21
469.071424
 31
0.0
  0
LINE
  5
10CA
100
AcDbEntity
  8
10000_FRONT
370
    25
390
0
  6
CONTINUOUS
 62
     7
100
AcDbLine
 10
189.471429
 20
469.071424
 30
0.0
 11
189.471429
 21
469.671425
 31
0.0
  0
LINE
  5
10CB
100
AcDbEntity
  8
10000_FRONT
370
    25
390
0
  6
CONTINUOUS
 62
     7
100
AcDbLine
 10
183.071429
 20
469.671425
 30
0.0
 11
189.471429
 21
469.671425
 31
0.0
  0
LINE
  5
10CC
100
AcDbEntity
  8
10000_FRONT
370
    25
390
0
  6
CONTINUOUS
 62
     7
100
AcDbLine
 10
183.071429
 20
440.321424
 30
0.0
 11
189.471429
 21
440.321424
 31
0.0
  0
LINE
  5
10CD
100
AcDbEntity
  8
10000_FRONT
370
    25
390
0
  6
CONTINUOUS
 62
     7
100
AcDbLine
 10
189.471429
 20
440.321424
 30
0.0
 11
189.471429
 21
446.271424
 31
0.0
  0
LINE
  5
10CE
100
AcDbEntity
  8
10000_FRONT
370
    25
390
0
  6
CONTINUOUS
 62
     7
100
AcDbLine
 10
168.671429
 20
469.071424
 30
0.0
 11
168.671429
 21
469.671425
 31
0.0
  0
LINE
  5
10CF
100
AcDbEntity
  8
10000_FRONT
370
    25
390
0
  6
CONTINUOUS
 62
     7
100
AcDbLine
 10
168.671429
 20
446.271424
 30
0.0
 11
168.671429
 21
440.321424
 31
0.0
  0
LINE
  5
10D0
100
AcDbEntity
  8
10000_FRONT
370
    25
390
0
  6
CONTINUOUS
 62
     7
100
AcDbLine
 10
168.671429
 20
446.271424
 30
0.0
 11
168.671429
 21
446.871424
 31
0.0
  0
LINE
  5
10D1
100
AcDbEntity
  8
10000_FRONT
370
    25
390
0
  6
CONTINUOUS
 62
     7
100
AcDbLine
 10
168.671429
 20
469.071424
 30
0.0
 11
168.671429
 21
446.871424
 31
0.0
  0
LINE
  5
10D2
100
AcDbEntity
  8
10000_FRONT
370
    25
390
0
  6
CONTINUOUS
 62
     7
100
AcDbLine
 10
168.671429
 20
446.271424
 30
0.0
 11
175.071429
 21
446.271424
 31
0.0
  0
LINE
  5
10D3
100
AcDbEntity
  8
10000_FRONT
370
    25
390
0
  6
CONTINUOUS
 62
     7
100
AcDbLine
 10
175.071429
 20
446.271424
 30
0.0
 11
175.071429
 21
446.871424
 31
0.0
  0
LINE
  5
10D4
100
AcDbEntity
  8
10000_FRONT
370
    25
390
0
  6
CONTINUOUS
 62
     7
100
AcDbLine
 10
168.671429
 20
446.871424
 30
0.0
 11
175.071429
 21
446.871424
 31
0.0
  0
LINE
  5
10D5
100
AcDbEntity
  8
10000_FRONT
370
    25
390
0
  6
CONTINUOUS
 62
     7
100
AcDbLine
 10
175.071429
 20
446.871424
 30
0.0
 11
175.071429
 21
469.071424
 31
0.0
  0
LINE
  5
10D6
100
AcDbEntity
  8
10000_FRONT
370
    25
390
0
  6
CONTINUOUS
 62
     7
100
AcDbLine
 10
168.671429
 20
469.071424
 30
0.0
 11
175.071429
 21
469.071424
 31
0.0
  0
LINE
  5
10D7
100
AcDbEntity
  8
10000_FRONT
370
    25
390
0
  6
CONTINUOUS
 62
     7
100
AcDbLine
 10
175.071429
 20
469.071424
 30
0.0
 11
175.071429
 21
469.671425
 31
0.0
  0
LINE
  5
10D8
100
AcDbEntity
  8
10000_FRONT
370
    25
390
0
  6
CONTINUOUS
 62
     7
100
AcDbLine
 10
168.671429
 20
469.671425
 30
0.0
 11
175.071429
 21
469.671425
 31
0.0
  0
LINE
  5
10D9
100
AcDbEntity
  8
10000_FRONT
370
    25
390
0
  6
CONTINUOUS
 62
     7
100
AcDbLine
 10
168.671429
 20
440.321424
 30
0.0
 11
175.071429
 21
440.321424
 31
0.0
  0
LINE
  5
10DA
100
AcDbEntity
  8
10000_FRONT
370
    25
390
0
  6
CONTINUOUS
 62
     7
100
AcDbLine
 10
175.071429
 20
440.321424
 30
0.0
 11
175.071429
 21
446.271424
 31
0.0
  0
LINE
  5
10DB
100
AcDbEntity
  8
10000_FRONT
370
    25
390
0
  6
CONTINUOUS
 62
     7
100
AcDbLine
 10
197.471429
 20
446.271424
 30
0.0
 11
197.471429
 21
440.321424
 31
0.0
  0
LINE
  5
10DC
100
AcDbEntity
  8
10000_FRONT
370
    25
390
0
  6
CONTINUOUS
 62
     7
100
AcDbLine
 10
197.471429
 20
446.271424
 30
0.0
 11
197.471429
 21
446.871424
 31
0.0
  0
LINE
  5
10DD
100
AcDbEntity
  8
10000_FRONT
370
    25
390
0
  6
CONTINUOUS
 62
     7
100
AcDbLine
 10
197.471429
 20
469.071424
 30
0.0
 11
197.471429
 21
446.871424
 31
0.0
  0
LINE
  5
10DE
100
AcDbEntity
  8
10000_FRONT
370
    25
390
0
  6
CONTINUOUS
 62
     7
100
AcDbLine
 10
197.471429
 20
469.071424
 30
0.0
 11
197.471429
 21
469.671425
 31
0.0
  0
LINE
  5
10DF
100
AcDbEntity
  8
10000_FRONT
370
    25
390
0
  6
CONTINUOUS
 62
     7
100
AcDbLine
 10
197.471429
 20
446.271424
 30
0.0
 11
203.871429
 21
446.271424
 31
0.0
  0
LINE
  5
10E0
100
AcDbEntity
  8
10000_FRONT
370
    25
390
0
  6
CONTINUOUS
 62
     7
100
AcDbLine
 10
203.871429
 20
446.271424
 30
0.0
 11
203.871429
 21
446.871424
 31
0.0
  0
LINE
  5
10E1
100
AcDbEntity
  8
10000_FRONT
370
    25
390
0
  6
CONTINUOUS
 62
     7
100
AcDbLine
 10
197.471429
 20
446.871424
 30
0.0
 11
203.871429
 21
446.871424
 31
0.0
  0
LINE
  5
10E2
100
AcDbEntity
  8
10000_FRONT
370
    25
390
0
  6
CONTINUOUS
 62
     7
100
AcDbLine
 10
203.871429
 20
446.871424
 30
0.0
 11
203.871429
 21
469.071424
 31
0.0
  0
LINE
  5
10E3
100
AcDbEntity
  8
10000_FRONT
370
    25
390
0
  6
CONTINUOUS
 62
     7
100
AcDbLine
 10
197.471429
 20
469.071424
 30
0.0
 11
203.871429
 21
469.071424
 31
0.0
  0
LINE
  5
10E4
100
AcDbEntity
  8
10000_FRONT
370
    25
390
0
  6
CONTINUOUS
 62
     7
100
AcDbLine
 10
203.871429
 20
469.071424
 30
0.0
 11
203.871429
 21
469.671425
 31
0.0
  0
LINE
  5
10E5
100
AcDbEntity
  8
10000_FRONT
370
    25
390
0
  6
CONTINUOUS
 62
     7
100
AcDbLine
 10
197.471429
 20
469.671425
 30
0.0
 11
203.871429
 21
469.671425
 31
0.0
  0
LINE
  5
10E6
100
AcDbEntity
  8
10000_FRONT
370
    25
390
0
  6
CONTINUOUS
 62
     7
100
AcDbLine
 10
197.471429
 20
440.321424
 30
0.0
 11
203.871429
 21
440.321424
 31
0.0
  0
LINE
  5
10E7
100
AcDbEntity
  8
10000_FRONT
370
    25
390
0
  6
CONTINUOUS
 62
     7
100
AcDbLine
 10
203.871429
 20
440.321424
 30
0.0
 11
203.871429
 21
446.271424
 31
0.0
  0
LINE
  5
10E8
100
AcDbEntity
  8
10000_FRONT
370
    25
390
0
  6
CONTINUOUS
 62
     7
100
AcDbLine
 10
228.871429
 20
469.671425
 30
0.0
 11
235.271431
 21
469.671425
 31
0.0
  0
LINE
  5
10E9
100
AcDbEntity
  8
10000_FRONT
370
    25
390
0
  6
CONTINUOUS
 62
     7
100
AcDbLine
 10
228.871429
 20
446.271424
 30
0.0
 11
228.871429
 21
440.321424
 31
0.0
  0
LINE
  5
10EA
100
AcDbEntity
  8
10000_FRONT
370
    25
390
0
  6
CONTINUOUS
 62
     7
100
AcDbLine
 10
228.871429
 20
446.271424
 30
0.0
 11
228.871429
 21
446.871424
 31
0.0
  0
LINE
  5
10EB
100
AcDbEntity
  8
10000_FRONT
370
    25
390
0
  6
CONTINUOUS
 62
     7
100
AcDbLine
 10
228.871429
 20
469.071424
 30
0.0
 11
228.871429
 21
446.871424
 31
0.0
  0
LINE
  5
10EC
100
AcDbEntity
  8
10000_FRONT
370
    25
390
0
  6
CONTINUOUS
 62
     7
100
AcDbLine
 10
228.871429
 20
469.071424
 30
0.0
 11
228.871429
 21
469.671425
 31
0.0
  0
LINE
  5
10ED
100
AcDbEntity
  8
10000_FRONT
370
    25
390
0
  6
CONTINUOUS
 62
     7
100
AcDbLine
 10
228.871429
 20
446.271424
 30
0.0
 11
235.271431
 21
446.271424
 31
0.0
  0
LINE
  5
10EE
100
AcDbEntity
  8
10000_FRONT
370
    25
390
0
  6
CONTINUOUS
 62
     7
100
AcDbLine
 10
235.271431
 20
446.271424
 30
0.0
 11
235.271431
 21
446.871424
 31
0.0
  0
LINE
  5
10EF
100
AcDbEntity
  8
10000_FRONT
370
    25
390
0
  6
CONTINUOUS
 62
     7
100
AcDbLine
 10
228.871429
 20
446.871424
 30
0.0
 11
235.271431
 21
446.871424
 31
0.0
  0
LINE
  5
10F0
100
AcDbEntity
  8
10000_FRONT
370
    25
390
0
  6
CONTINUOUS
 62
     7
100
AcDbLine
 10
235.271431
 20
446.871424
 30
0.0
 11
235.271431
 21
469.071424
 31
0.0
  0
LINE
  5
10F1
100
AcDbEntity
  8
10000_FRONT
370
    25
390
0
  6
CONTINUOUS
 62
     7
100
AcDbLine
 10
228.871429
 20
469.071424
 30
0.0
 11
235.271431
 21
469.071424
 31
0.0
  0
LINE
  5
10F2
100
AcDbEntity
  8
10000_FRONT
370
    25
390
0
  6
CONTINUOUS
 62
     7
100
AcDbLine
 10
235.271431
 20
469.071424
 30
0.0
 11
235.271431
 21
469.671425
 31
0.0
  0
LINE
  5
10F3
100
AcDbEntity
  8
10000_FRONT
370
    25
390
0
  6
CONTINUOUS
 62
     7
100
AcDbLine
 10
228.871429
 20
440.321424
 30
0.0
 11
235.271431
 21
440.321424
 31
0.0
  0
LINE
  5
10F4
100
AcDbEntity
  8
10000_FRONT
370
    25
390
0
  6
CONTINUOUS
 62
     7
100
AcDbLine
 10
235.271431
 20
440.321424
 30
0.0
 11
235.271431
 21
446.271424
 31
0.0
  0
LINE
  5
10F5
100
AcDbEntity
  8
10100_FRONT_DIM
370
    13
390
0
  6
CONTINUOUS
 62
     7
100
AcDbLine
 10
168.671429
 20
469.671424
 30
0.0
 11
168.671429
 21
480.671424
 31
0.0
  0
TEXT
  5
10F6
100
AcDbEntity
  8
10100_FRONT_DIM
370
    13
390
0
  6
CONTINUOUS
 62
     7
100
AcDbText
 10
208.085715
 20
480.671424
 30
0.0
 40
2.857143
  1
87.4
 72
     1
 11
212.371429
 21
480.671424
 31
0.0
100
AcDbText
  0
LINE
  5
10F7
100
AcDbEntity
  8
10100_FRONT_DIM
370
    13
390
0
  6
CONTINUOUS
 62
     7
100
AcDbLine
 10
168.671429
 20
479.671424
 30
0.0
 11
256.071429
 21
479.671424
 31
0.0
  0
LINE
  5
10F8
100
AcDbEntity
  8
10100_FRONT_DIM
370
    13
390
0
  6
CONTINUOUS
 62
     7
100
AcDbLine
 10
256.071429
 20
480.671424
 30
0.0
 11
256.071429
 21
469.671424
 31
0.0
  0
LINE
  5
10F9
100
AcDbEntity
  8
10100_FRONT_DIM
370
    13
390
0
  6
CONTINUOUS
 62
     7
100
AcDbLine
 10
171.871429
 20
440.321424
 30
0.0
 11
171.871429
 21
429.321424
 31
0.0
  0
TEXT
  5
10FA
100
AcDbEntity
  8
10100_FRONT_DIM
370
    13
390
0
  6
CONTINUOUS
 62
     7
100
AcDbText
 10
154.561905
 20
431.321424
 30
0.0
 40
2.857143
  1
14.4
 72
     1
 11
158.371429
 21
431.321424
 31
0.0
100
AcDbText
  0
LINE
  5
10FB
100
AcDbEntity
  8
10100_FRONT_DIM
370
    13
390
0
  6
CONTINUOUS
 62
     7
100
AcDbLine
 10
150.871429
 20
430.321424
 30
0.0
 11
192.271429
 21
430.321424
 31
0.0
  0
LINE
  5
10FC
100
AcDbEntity
  8
10100_FRONT_DIM
370
    13
390
0
  6
CONTINUOUS
 62
     7
100
AcDbLine
 10
186.271429
 20
429.321424
 30
0.0
 11
186.271429
 21
440.321424
 31
0.0
  0
LINE
  5
10FD
100
AcDbEntity
  8
10100_FRONT_DIM
370
    13
390
0
  6
CONTINUOUS
 62
     7
100
AcDbLine
 10
171.871429
 20
440.321424
 30
0.0
 11
171.871429
 21
422.321424
 31
0.0
  0
TEXT
  5
10FE
100
AcDbEntity
  8
10100_FRONT_DIM
370
    13
390
0
  6
CONTINUOUS
 62
     7
100
AcDbText
 10
190.485715
 20
424.321424
 30
0.0
 40
2.857143
  1
45.8
 72
     1
 11
194.771429
 21
424.321424
 31
0.0
100
AcDbText
  0
LINE
  5
10FF
100
AcDbEntity
  8
10100_FRONT_DIM
370
    13
390
0
  6
CONTINUOUS
 62
     7
100
AcDbLine
 10
171.871429
 20
423.321424
 30
0.0
 11
217.671429
 21
423.321424
 31
0.0
  0
LINE
  5
1100
100
AcDbEntity
  8
10100_FRONT_DIM
370
    13
390
0
  6
CONTINUOUS
 62
     7
100
AcDbLine
 10
217.671429
 20
422.321424
 30
0.0
 11
217.671429
 21
440.321424
 31
0.0
  0
LINE
  5
1101
100
AcDbEntity
  8
10100_FRONT_DIM
370
    13
390
0
  6
CONTINUOUS
 62
     7
100
AcDbLine
 10
168.671429
 20
404.121424
 30
0.0
 11
168.671429
 21
415.121424
 31
0.0
  0
TEXT
  5
1102
100
AcDbEntity
  8
10100_FRONT_DIM
370
    13
390
0
  6
CONTINUOUS
 62
     7
100
AcDbText
 10
208.085715
 20
415.121424
 30
0.0
 40
2.857143
  1
87.4
 72
     1
 11
212.371429
 21
415.121424
 31
0.0
100
AcDbText
  0
LINE
  5
1103
100
AcDbEntity
  8
10100_FRONT_DIM
370
    13
390
0
  6
CONTINUOUS
 62
     7
100
AcDbLine
 10
168.671429
 20
414.121424
 30
0.0
 11
256.071429
 21
414.121424
 31
0.0
  0
LINE
  5
1104
100
AcDbEntity
  8
10100_FRONT_DIM
370
    13
390
0
  6
CONTINUOUS
 62
     7
100
AcDbLine
 10
256.071429
 20
415.121424
 30
0.0
 11
256.071429
 21
404.121424
 31
0.0
  0
LINE
  5
1105
100
AcDbEntity
  8
10100_FRONT_DIM
370
    13
390
0
  6
CONTINUOUS
 62
     7
100
AcDbLine
 10
171.871429
 20
380.471424
 30
0.0
 11
171.871429
 21
369.471424
 31
0.0
  0
TEXT
  5
1106
100
AcDbEntity
  8
10100_FRONT_DIM
370
    13
390
0
  6
CONTINUOUS
 62
     7
100
AcDbText
 10
154.561905
 20
371.471424
 30
0.0
 40
2.857143
  1
14.4
 72
     1
 11
158.371429
 21
371.471424
 31
0.0
100
AcDbText
  0
LINE
  5
1107
100
AcDbEntity
  8
10100_FRONT_DIM
370
    13
390
0
  6
CONTINUOUS
 62
     7
100
AcDbLine
 10
150.871429
 20
370.471424
 30
0.0
 11
192.271429
 21
370.471424
 31
0.0
  0
LINE
  5
1108
100
AcDbEntity
  8
10100_FRONT_DIM
370
    13
390
0
  6
CONTINUOUS
 62
     7
100
AcDbLine
 10
186.271429
 20
369.471424
 30
0.0
 11
186.271429
 21
380.471424
 31
0.0
  0
LINE
  5
1109
100
AcDbEntity
  8
10100_FRONT_DIM
370
    13
390
0
  6
CONTINUOUS
 62
     7
100
AcDbLine
 10
171.871429
 20
380.471424
 30
0.0
 11
171.871429
 21
362.471424
 31
0.0
  0
TEXT
  5
110A
100
AcDbEntity
  8
10100_FRONT_DIM
370
    13
390
0
  6
CONTINUOUS
 62
     7
100
AcDbText
 10
190.485715
 20
364.471424
 30
0.0
 40
2.857143
  1
45.8
 72
     1
 11
194.771429
 21
364.471424
 31
0.0
100
AcDbText
  0
LINE
  5
110B
100
AcDbEntity
  8
10100_FRONT_DIM
370
    13
390
0
  6
CONTINUOUS
 62
     7
100
AcDbLine
 10
171.871429
 20
363.471424
 30
0.0
 11
217.671429
 21
363.471424
 31
0.0
  0
LINE
  5
110C
100
AcDbEntity
  8
10100_FRONT_DIM
370
    13
390
0
  6
CONTINUOUS
 62
     7
100
AcDbLine
 10
217.671429
 20
362.471424
 30
0.0
 11
217.671429
 21
380.471424
 31
0.0
  0
LINE
  5
110D
100
AcDbEntity
  8
10100_FRONT_DIM
370
    13
390
0
  6
CONTINUOUS
 62
     7
100
AcDbLine
 10
268.671429
 20
466.671424
 30
0.0
 11
268.671429
 21
478.221424
 31
0.0
  0
TEXT
  5
110E
100
AcDbEntity
  8
10100_FRONT_DIM
370
    13
390
0
  6
CONTINUOUS
 62
     7
100
AcDbText
 10
285.661905
 20
478.221424
 30
0.0
 40
2.857143
  1
41.6
 72
     1
 11
289.471429
 21
478.221424
 31
0.0
100
AcDbText
  0
LINE
  5
110F
100
AcDbEntity
  8
10100_FRONT_DIM
370
    13
390
0
  6
CONTINUOUS
 62
     7
100
AcDbLine
 10
268.671429
 20
477.221424
 30
0.0
 11
310.271429
 21
477.221424
 31
0.0
  0
LINE
  5
1110
100
AcDbEntity
  8
10100_FRONT_DIM
370
    13
390
0
  6
CONTINUOUS
 62
     7
100
AcDbLine
 10
310.271429
 20
478.221424
 30
0.0
 11
310.271429
 21
466.671424
 31
0.0
  0
LINE
  5
1111
100
AcDbEntity
  8
10100_FRONT_DIM
370
    13
390
0
  6
CONTINUOUS
 62
     7
100
AcDbLine
 10
268.671429
 20
440.321424
 30
0.0
 11
257.671429
 21
440.321424
 31
0.0
  0
TEXT
  5
1112
100
AcDbEntity
  8
10100_FRONT_DIM
370
    13
390
0
  6
CONTINUOUS
 62
     7
100
AcDbText
 10
257.671429
 20
449.48571
 30
0.0
 40
2.857143
  1
26.9
 50
90.0
 72
     1
 11
257.671429
 21
453.771424
 31
0.0
100
AcDbText
  0
LINE
  5
1113
100
AcDbEntity
  8
10100_FRONT_DIM
370
    13
390
0
  6
CONTINUOUS
 62
     7
100
AcDbLine
 10
258.671429
 20
440.321424
 30
0.0
 11
258.671429
 21
467.221424
 31
0.0
  0
LINE
  5
1114
100
AcDbEntity
  8
10100_FRONT_DIM
370
    13
390
0
  6
CONTINUOUS
 62
     7
100
AcDbLine
 10
257.671429
 20
467.221424
 30
0.0
 11
288.871429
 21
467.221424
 31
0.0
  0
SOLID
  5
1115
100
AcDbEntity
  8
10100_FRONT_DIM
370
    13
390
0
  6
CONTINUOUS
 62
     7
100
AcDbTrace
 10
172.671429
 20
480.198034
 30
0.0
 11
168.671429
 21
479.671424
 31
0.0
 12
172.671429
 22
479.144814
 32
0.0
 13
168.671429
 23
479.671424
 33
0.0
  0
SOLID
  5
1116
100
AcDbEntity
  8
10100_FRONT_DIM
370
    13
390
0
  6
CONTINUOUS
 62
     7
100
AcDbTrace
 10
252.071429
 20
479.144814
 30
0.0
 11
256.071429
 21
479.671424
 31
0.0
 12
252.071429
 22
480.198034
 32
0.0
 13
256.071429
 23
479.671424
 33
0.0
  0
SOLID
  5
1117
100
AcDbEntity
  8
10100_FRONT_DIM
370
    13
390
0
  6
CONTINUOUS
 62
     7
100
AcDbTrace
 10
167.871429
 20
429.794814
 30
0.0
 11
171.871429
 21
430.321424
 31
0.0
 12
167.871429
 22
430.848034
 32
0.0
 13
171.871429
 23
430.321424
 33
0.0
  0
SOLID
  5
1118
100
AcDbEntity
  8
10100_FRONT_DIM
370
    13
390
0
  6
CONTINUOUS
 62
     7
100
AcDbTrace
 10
190.271429
 20
430.848034
 30
0.0
 11
186.271429
 21
430.321424
 31
0.0
 12
190.271429
 22
429.794814
 32
0.0
 13
186.271429
 23
430.321424
 33
0.0
  0
SOLID
  5
1119
100
AcDbEntity
  8
10100_FRONT_DIM
370
    13
390
0
  6
CONTINUOUS
 62
     7
100
AcDbTrace
 10
175.871429
 20
423.848034
 30
0.0
 11
171.871429
 21
423.321424
 31
0.0
 12
175.871429
 22
422.794814
 32
0.0
 13
171.871429
 23
423.321424
 33
0.0
  0
SOLID
  5
111A
100
AcDbEntity
  8
10100_FRONT_DIM
370
    13
390
0
  6
CONTINUOUS
 62
     7
100
AcDbTrace
 10
213.671429
 20
422.794814
 30
0.0
 11
217.671429
 21
423.321424
 31
0.0
 12
213.671429
 22
423.848034
 32
0.0
 13
217.671429
 23
423.321424
 33
0.0
  0
SOLID
  5
111B
100
AcDbEntity
  8
10100_FRONT_DIM
370
    13
390
0
  6
CONTINUOUS
 62
     7
100
AcDbTrace
 10
172.671429
 20
414.648034
 30
0.0
 11
168.671429
 21
414.121424
 31
0.0
 12
172.671429
 22
413.594814
 32
0.0
 13
168.671429
 23
414.121424
 33
0.0
  0
SOLID
  5
111C
100
AcDbEntity
  8
10100_FRONT_DIM
370
    13
390
0
  6
CONTINUOUS
 62
     7
100
AcDbTrace
 10
252.071429
 20
413.594814
 30
0.0
 11
256.071429
 21
414.121424
 31
0.0
 12
252.071429
 22
414.648034
 32
0.0
 13
256.071429
 23
414.121424
 33
0.0
  0
SOLID
  5
111D
100
AcDbEntity
  8
10100_FRONT_DIM
370
    13
390
0
  6
CONTINUOUS
 62
     7
100
AcDbTrace
 10
167.871429
 20
369.944814
 30
0.0
 11
171.871429
 21
370.471424
 31
0.0
 12
167.871429
 22
370.998034
 32
0.0
 13
171.871429
 23
370.471424
 33
0.0
  0
SOLID
  5
111E
100
AcDbEntity
  8
10100_FRONT_DIM
370
    13
390
0
  6
CONTINUOUS
 62
     7
100
AcDbTrace
 10
190.271429
 20
370.998034
 30
0.0
 11
186.271429
 21
370.471424
 31
0.0
 12
190.271429
 22
369.944814
 32
0.0
 13
186.271429
 23
370.471424
 33
0.0
  0
SOLID
  5
111F
100
AcDbEntity
  8
10100_FRONT_DIM
370
    13
390
0
  6
CONTINUOUS
 62
     7
100
AcDbTrace
 10
175.871429
 20
363.998034
 30
0.0
 11
171.871429
 21
363.471424
 31
0.0
 12
175.871429
 22
362.944814
 32
0.0
 13
171.871429
 23
363.471424
 33
0.0
  0
SOLID
  5
1120
100
AcDbEntity
  8
10100_FRONT_DIM
370
    13
390
0
  6
CONTINUOUS
 62
     7
100
AcDbTrace
 10
213.671429
 20
362.944814
 30
0.0
 11
217.671429
 21
363.471424
 31
0.0
 12
213.671429
 22
363.998034
 32
0.0
 13
217.671429
 23
363.471424
 33
0.0
  0
SOLID
  5
1121
100
AcDbEntity
  8
10100_FRONT_DIM
370
    13
390
0
  6
CONTINUOUS
 62
     7
100
AcDbTrace
 10
272.671429
 20
477.748034
 30
0.0
 11
268.671429
 21
477.221424
 31
0.0
 12
272.671429
 22
476.694814
 32
0.0
 13
268.671429
 23
477.221424
 33
0.0
  0
SOLID
  5
1122
100
AcDbEntity
  8
10100_FRONT_DIM
370
    13
390
0
  6
CONTINUOUS
 62
     7
100
AcDbTrace
 10
306.271429
 20
476.694814
 30
0.0
 11
310.271429
 21
477.221424
 31
0.0
 12
306.271429
 22
477.748034
 32
0.0
 13
310.271429
 23
477.221424
 33
0.0
  0
SOLID
  5
1123
100
AcDbEntity
  8
10100_FRONT_DIM
370
    13
390
0
  6
CONTINUOUS
 62
     7
100
AcDbTrace
 10
258.144819
 20
444.321424
 30
0.0
 11
258.671429
 21
440.321424
 31
0.0
 12
259.198039
 22
444.321424
 32
0.0
 13
258.671429
 23
440.321424
 33
0.0
  0
SOLID
  5
1124
100
AcDbEntity
  8
10100_FRONT_DIM
370
    13
390
0
  6
CONTINUOUS
 62
     7
100
AcDbTrace
 10
259.198039
 20
463.221424
 30
0.0
 11
258.671429
 21
467.221424
 31
0.0
 12
258.144819
 22
463.221424
 32
0.0
 13
258.671429
 23
467.221424
 33
0.0
  0
LINE
  5
1125
100
AcDbEntity
  8
11000_LEFT
370
    25
390
0
  6
CONTINUOUS
 62
     7
100
AcDbLine
 10
431.428571
 20
447.471424
 30
0.0
 11
431.428571
 21
447.471439
 31
0.0
  0
LINE
  5
1126
100
AcDbEntity
  8
11000_LEFT
370
    25
390
0
  6
CONTINUOUS
 62
     7
100
AcDbLine
 10
431.428571
 20
447.471424
 30
0.0
 11
431.428571
 21
447.471434
 31
0.0
  0
LINE
  5
1127
100
AcDbEntity
  8
11000_LEFT
370
    25
390
0
  6
CONTINUOUS
 62
     7
100
AcDbLine
 10
419.22857
 20
449.471424
 30
0.0
 11
418.928571
 21
449.171424
 31
0.0
  0
LINE
  5
1128
100
AcDbEntity
  8
11000_LEFT
370
    25
390
0
  6
CONTINUOUS
 62
     7
100
AcDbLine
 10
418.928571
 20
448.471424
 30
0.0
 11
421.073079
 21
447.471424
 31
0.0
  0
LINE
  5
1129
100
AcDbEntity
  8
11000_LEFT
370
    25
390
0
  6
CONTINUOUS
 62
     7
100
AcDbLine
 10
419.22857
 20
449.471424
 30
0.0
 11
431.428571
 21
449.471424
 31
0.0
  0
LINE
  5
112A
100
AcDbEntity
  8
11000_LEFT
370
    25
390
0
  6
CONTINUOUS
 62
     7
100
AcDbLine
 10
418.928571
 20
448.471424
 30
0.0
 11
418.928571
 21
449.171424
 31
0.0
  0
LINE
  5
112B
100
AcDbEntity
  8
11000_LEFT
370
    25
390
0
  6
CONTINUOUS
 62
     7
100
AcDbLine
 10
421.073079
 20
447.471424
 30
0.0
 11
431.428571
 21
447.471424
 31
0.0
  0
LINE
  5
112C
100
AcDbEntity
  8
11000_LEFT
370
    25
390
0
  6
CONTINUOUS
 62
     7
100
AcDbLine
 10
431.428571
 20
447.471424
 30
0.0
 11
431.428571
 21
449.471424
 31
0.0
  0
LINE
  5
112D
100
AcDbEntity
  8
11000_LEFT
370
    25
390
0
  6
CONTINUOUS
 62
     7
100
AcDbLine
 10
432.81421
 20
446.671424
 30
0.0
 11
431.428571
 21
447.471424
 31
0.0
  0
LINE
  5
112E
100
AcDbEntity
  8
11000_LEFT
370
    25
390
0
  6
CONTINUOUS
 62
     7
100
AcDbLine
 10
432.81421
 20
450.271424
 30
0.0
 11
432.81421
 21
446.671424
 31
0.0
  0
LINE
  5
112F
100
AcDbEntity
  8
11000_LEFT
370
    25
390
0
  6
CONTINUOUS
 62
     7
100
AcDbLine
 10
431.428571
 20
449.471424
 30
0.0
 11
432.81421
 21
450.271424
 31
0.0
  0
LINE
  5
1130
100
AcDbEntity
  8
11000_LEFT
370
    25
390
0
  6
CONTINUOUS
 62
     7
100
AcDbLine
 10
432.81421
 20
446.671424
 30
0.0
 11
437.928571
 21
446.671424
 31
0.0
  0
LINE
  5
1131
100
AcDbEntity
  8
11000_LEFT
370
    25
390
0
  6
CONTINUOUS
 62
     7
100
AcDbLine
 10
432.81421
 20
450.271424
 30
0.0
 11
437.928571
 21
450.271424
 31
0.0
  0
ARC
  5
1132
100
AcDbEntity
  8
11000_LEFT
370
    25
390
0
  6
CONTINUOUS
 62
     7
100
AcDbCircle
 10
447.728571
 20
461.271424
 30
0.0
 40
1.0
100
AcDbArc
 50
0.0
 51
89.999825
  0
LINE
  5
1133
100
AcDbEntity
  8
11000_LEFT
370
    25
390
0
  6
CONTINUOUS
 62
     7
100
AcDbLine
 10
448.728574
 20
461.271424
 30
0.0
 11
448.728574
 21
451.671424
 31
0.0
  0
ARC
  5
1134
100
AcDbEntity
  8
11000_LEFT
370
    25
390
0
  6
CONTINUOUS
 62
     7
100
AcDbCircle
 10
447.728571
 20
451.671424
 30
0.0
 40
1.0
100
AcDbArc
 50
270.000175
 51
0.0
  0
LINE
  5
1135
100
AcDbEntity
  8
11000_LEFT
370
    25
390
0
  6
CONTINUOUS
 62
     7
100
AcDbLine
 10
447.728574
 20
450.671424
 30
0.0
 11
437.928571
 21
450.671424
 31
0.0
  0
LINE
  5
1136
100
AcDbEntity
  8
11000_LEFT
370
    25
390
0
  6
CONTINUOUS
 62
     7
100
AcDbLine
 10
437.928571
 20
450.671424
 30
0.0
 11
437.928571
 21
440.321424
 31
0.0
  0
LINE
  5
1137
100
AcDbEntity
  8
11000_LEFT
370
    25
390
0
  6
CONTINUOUS
 62
     7
100
AcDbLine
 10
437.928571
 20
440.321424
 30
0.0
 11
438.928571
 21
440.321424
 31
0.0
  0
LINE
  5
1138
100
AcDbEntity
  8
11000_LEFT
370
    25
390
0
  6
CONTINUOUS
 62
     7
100
AcDbLine
 10
438.928571
 20
440.321424
 30
0.0
 11
438.928571
 21
446.271424
 31
0.0
  0
LINE
  5
1139
100
AcDbEntity
  8
11000_LEFT
370
    25
390
0
  6
CONTINUOUS
 62
     7
100
AcDbLine
 10
438.928571
 20
446.271424
 30
0.0
 11
452.528569
 21
446.271424
 31
0.0
  0
ARC
  5
113A
100
AcDbEntity
  8
11000_LEFT
370
    25
390
0
  6
CONTINUOUS
 62
     7
100
AcDbCircle
 10
452.528571
 20
446.871424
 30
0.0
 40
0.6
100
AcDbArc
 50
269.999854
 51
0.0
  0
LINE
  5
113B
100
AcDbEntity
  8
11000_LEFT
370
    25
390
0
  6
CONTINUOUS
 62
     7
100
AcDbLine
 10
453.128568
 20
446.871424
 30
0.0
 11
453.128568
 21
466.071424
 31
0.0
  0
ARC
  5
113C
100
AcDbEntity
  8
11000_LEFT
370
    25
390
0
  6
CONTINUOUS
 62
     7
100
AcDbCircle
 10
452.528571
 20
466.071424
 30
0.0
 40
0.6
100
AcDbArc
 50
0.0
 51
90.000146
  0
LINE
  5
113D
100
AcDbEntity
  8
11000_LEFT
370
    25
390
0
  6
CONTINUOUS
 62
     7
100
AcDbLine
 10
431.028569
 20
466.671425
 30
0.0
 11
431.028569
 21
467.221424
 31
0.0
  0
LINE
  5
113E
100
AcDbEntity
  8
11000_LEFT
370
    25
390
0
  6
CONTINUOUS
 62
     7
100
AcDbLine
 10
427.928571
 20
466.671425
 30
0.0
 11
427.928571
 21
467.221424
 31
0.0
  0
LINE
  5
113F
100
AcDbEntity
  8
11000_LEFT
370
    25
390
0
  6
CONTINUOUS
 62
     7
100
AcDbLine
 10
431.028569
 20
467.221424
 30
0.0
 11
427.928571
 21
467.221424
 31
0.0
  0
LINE
  5
1140
100
AcDbEntity
  8
11000_LEFT
370
    25
390
0
  6
CONTINUOUS
 62
     7
100
AcDbLine
 10
427.928571
 20
467.221424
 30
0.0
 11
423.72857
 21
467.221424
 31
0.0
  0
LINE
  5
1141
100
AcDbEntity
  8
11000_LEFT
370
    25
390
0
  6
CONTINUOUS
 62
     7
100
AcDbLine
 10
423.72857
 20
462.271424
 30
0.0
 11
423.72857
 21
462.271437
 31
0.0
  0
LINE
  5
1142
100
AcDbEntity
  8
11000_LEFT
370
    25
390
0
  6
CONTINUOUS
 62
     7
100
AcDbLine
 10
423.72857
 20
463.771437
 30
0.0
 11
423.72857
 21
467.221424
 31
0.0
  0
LINE
  5
1143
100
AcDbEntity
  8
11000_LEFT
370
    25
390
0
  6
CONTINUOUS
 62
     7
100
AcDbLine
 10
426.72857
 20
466.671425
 30
0.0
 11
426.72857
 21
462.271424
 31
0.0
  0
LINE
  5
1144
100
AcDbEntity
  8
11000_LEFT
370
    25
390
0
  6
CONTINUOUS
 62
     7
100
AcDbLine
 10
447.728574
 20
462.271424
 30
0.0
 11
426.72857
 21
462.271424
 31
0.0
  0
LINE
  5
1145
100
AcDbEntity
  8
11000_LEFT
370
    25
390
0
  6
CONTINUOUS
 62
     7
100
AcDbLine
 10
426.72857
 20
462.271424
 30
0.0
 11
417.72857
 21
462.271424
 31
0.0
  0
ARC
  5
1146
100
AcDbEntity
  8
11000_LEFT
370
    25
390
0
  6
CONTINUOUS
 62
     7
100
AcDbCircle
 10
424.728571
 20
465.771424
 30
0.0
 40
2.0
100
AcDbArc
 50
269.999978
 51
0.0
  0
LINE
  5
1147
100
AcDbEntity
  8
11000_LEFT
370
    25
390
0
  6
CONTINUOUS
 62
     7
100
AcDbLine
 10
414.22857
 20
463.771424
 30
0.0
 11
424.72857
 21
463.771424
 31
0.0
  0
LINE
  5
1148
100
AcDbEntity
  8
11000_LEFT
370
    25
390
0
  6
CONTINUOUS
 62
     7
100
AcDbLine
 10
414.22857
 20
462.5
 30
0.0
 11
414.22857
 21
463.771424
 31
0.0
  0
LINE
  5
1149
100
AcDbEntity
  8
11000_LEFT
370
    25
390
0
  6
CONTINUOUS
 62
     7
100
AcDbLine
 10
417.22857
 20
460.971424
 30
0.0
 11
414.22857
 21
462.5
 31
0.0
  0
LINE
  5
114A
100
AcDbEntity
  8
11000_LEFT
370
    25
390
0
  6
CONTINUOUS
 62
     7
100
AcDbLine
 10
417.66044
 20
460.971424
 30
0.0
 11
417.22857
 21
460.971424
 31
0.0
  0
LINE
  5
114B
100
AcDbEntity
  8
11000_LEFT
370
    25
390
0
  6
CONTINUOUS
 62
     7
100
AcDbLine
 10
417.72857
 20
462.271424
 30
0.0
 11
417.66044
 21
460.971424
 31
0.0
  0
LINE
  5
114C
100
AcDbEntity
  8
11000_LEFT
370
    25
390
0
  6
CONTINUOUS
 62
     7
100
AcDbLine
 10
452.528569
 20
466.671425
 30
0.0
 11
426.72857
 21
466.671425
 31
0.0
  0
LINE
  5
114D
100
AcDbEntity
  8
11000_LEFT
370
    25
390
0
  6
CONTINUOUS
 62
     7
100
AcDbLine
 10
368.528571
 20
383.171421
 30
0.0
 11
364.118571
 21
383.171421
 31
0.0
  0
LINE
  5
114E
100
AcDbEntity
  8
11000_LEFT
370
    25
390
0
  6
CONTINUOUS
 62
     7
100
AcDbLine
 10
364.118571
 20
383.171421
 30
0.0
 11
364.118571
 21
384.442844
 31
0.0
  0
LINE
  5
114F
100
AcDbEntity
  8
11000_LEFT
370
    25
390
0
  6
CONTINUOUS
 62
     7
100
AcDbLine
 10
364.118571
 20
384.442844
 30
0.0
 11
367.118571
 21
385.971424
 31
0.0
  0
LINE
  5
1150
100
AcDbEntity
  8
11000_LEFT
370
    25
390
0
  6
CONTINUOUS
 62
     7
100
AcDbLine
 10
367.118571
 20
385.971424
 30
0.0
 11
367.550441
 21
385.971424
 31
0.0
  0
LINE
  5
1151
100
AcDbEntity
  8
11000_LEFT
370
    25
390
0
  6
CONTINUOUS
 62
     7
100
AcDbLine
 10
367.550441
 20
385.971424
 30
0.0
 11
367.618571
 21
384.671425
 31
0.0
  0
LINE
  5
1152
100
AcDbEntity
  8
11000_LEFT
370
    25
390
0
  6
CONTINUOUS
 62
     7
100
AcDbLine
 10
367.618571
 20
384.671425
 30
0.0
 11
368.528571
 21
384.671425
 31
0.0
  0
LINE
  5
1153
100
AcDbEntity
  8
11000_LEFT
370
    25
390
0
  6
CONTINUOUS
 62
     7
100
AcDbLine
 10
380.475944
 20
384.671425
 30
0.0
 11
368.528571
 21
384.671425
 31
0.0
  0
LINE
  5
1154
100
AcDbEntity
  8
11000_LEFT
370
    25
390
0
  6
CONTINUOUS
 62
     7
100
AcDbLine
 10
368.528571
 20
384.671425
 30
0.0
 11
368.528571
 21
380.271427
 31
0.0
  0
LINE
  5
1155
100
AcDbEntity
  8
11000_LEFT
370
    25
390
0
  6
CONTINUOUS
 62
     7
100
AcDbLine
 10
381.428571
 20
397.471424
 30
0.0
 11
381.428571
 21
397.471439
 31
0.0
  0
LINE
  5
1156
100
AcDbEntity
  8
11000_LEFT
370
    25
390
0
  6
CONTINUOUS
 62
     7
100
AcDbLine
 10
381.428571
 20
397.471424
 30
0.0
 11
381.428571
 21
397.471435
 31
0.0
  0
LINE
  5
1157
100
AcDbEntity
  8
11000_LEFT
370
    25
390
0
  6
CONTINUOUS
 62
     7
100
AcDbLine
 10
381.428571
 20
397.471424
 30
0.0
 11
381.428571
 21
397.471435
 31
0.0
  0
LINE
  5
1158
100
AcDbEntity
  8
11000_LEFT
370
    25
390
0
  6
CONTINUOUS
 62
     7
100
AcDbLine
 10
387.928571
 20
396.271423
 30
0.0
 11
387.928571
 21
404.121426
 31
0.0
  0
LINE
  5
1159
100
AcDbEntity
  8
11000_LEFT
370
    25
390
0
  6
CONTINUOUS
 62
     7
100
AcDbLine
 10
402.128572
 20
400.071422
 30
0.0
 11
402.128572
 21
392.397411
 31
0.0
  0
ARC
  5
115A
100
AcDbEntity
  8
11000_LEFT
370
    25
390
0
  6
CONTINUOUS
 62
     7
100
AcDbCircle
 10
401.528571
 20
392.397412
 30
0.0
 40
0.6
100
AcDbArc
 50
315.000104
 51
0.0
  0
LINE
  5
115B
100
AcDbEntity
  8
11000_LEFT
370
    25
390
0
  6
CONTINUOUS
 62
     7
100
AcDbLine
 10
401.952836
 20
391.973148
 30
0.0
 11
390.426847
 21
380.447163
 31
0.0
  0
ARC
  5
115C
100
AcDbEntity
  8
11000_LEFT
370
    25
390
0
  6
CONTINUOUS
 62
     7
100
AcDbCircle
 10
390.002583
 20
380.871424
 30
0.0
 40
0.6
100
AcDbArc
 50
270.000031
 51
315.000154
  0
LINE
  5
115D
100
AcDbEntity
  8
11000_LEFT
370
    25
390
0
  6
CONTINUOUS
 62
     7
100
AcDbLine
 10
380.475944
 20
384.671425
 30
0.0
 11
381.428571
 21
385.221424
 31
0.0
  0
LINE
  5
115E
100
AcDbEntity
  8
11000_LEFT
370
    25
390
0
  6
CONTINUOUS
 62
     7
100
AcDbLine
 10
381.428571
 20
385.221424
 30
0.0
 11
388.564357
 21
385.221424
 31
0.0
  0
ARC
  5
115F
100
AcDbEntity
  8
11000_LEFT
370
    25
390
0
  6
CONTINUOUS
 62
     7
100
AcDbCircle
 10
388.564357
 20
386.221424
 30
0.0
 40
1.0
100
AcDbArc
 50
269.999979
 51
315.000002
  0
LINE
  5
1160
100
AcDbEntity
  8
11000_LEFT
370
    25
390
0
  6
CONTINUOUS
 62
     7
100
AcDbLine
 10
389.271465
 20
385.514316
 30
0.0
 11
396.955779
 21
393.198631
 31
0.0
  0
ARC
  5
1161
100
AcDbEntity
  8
11000_LEFT
370
    25
390
0
  6
CONTINUOUS
 62
     7
100
AcDbCircle
 10
395.682987
 20
394.471424
 30
0.0
 40
1.8
100
AcDbArc
 50
314.999989
 51
90.000016
  0
LINE
  5
1162
100
AcDbEntity
  8
11000_LEFT
370
    25
390
0
  6
CONTINUOUS
 62
     7
100
AcDbLine
 10
395.682987
 20
396.271423
 30
0.0
 11
387.928571
 21
396.271423
 31
0.0
  0
LINE
  5
1163
100
AcDbEntity
  8
11000_LEFT
370
    25
390
0
  6
CONTINUOUS
 62
     7
100
AcDbLine
 10
387.928571
 20
404.121426
 30
0.0
 11
388.928571
 21
404.121426
 31
0.0
  0
LINE
  5
1164
100
AcDbEntity
  8
11000_LEFT
370
    25
390
0
  6
CONTINUOUS
 62
     7
100
AcDbLine
 10
388.928571
 20
404.121426
 30
0.0
 11
388.928571
 21
400.671425
 31
0.0
  0
LINE
  5
1165
100
AcDbEntity
  8
11000_LEFT
370
    25
390
0
  6
CONTINUOUS
 62
     7
100
AcDbLine
 10
388.928571
 20
400.671425
 30
0.0
 11
401.528569
 21
400.671425
 31
0.0
  0
ARC
  5
1166
100
AcDbEntity
  8
11000_LEFT
370
    25
390
0
  6
CONTINUOUS
 62
     7
100
AcDbCircle
 10
401.528571
 20
400.071424
 30
0.0
 40
0.6
100
AcDbArc
 50
359.999854
 51
90.000146
  0
LINE
  5
1167
100
AcDbEntity
  8
11000_LEFT
370
    25
390
0
  6
CONTINUOUS
 62
     7
100
AcDbLine
 10
368.528571
 20
380.271427
 30
0.0
 11
390.002584
 21
380.271427
 31
0.0
  0
LINE
  5
1168
100
AcDbEntity
  8
11000_LEFT
370
    25
390
0
  6
CONTINUOUS
 62
     7
100
AcDbLine
 10
368.928571
 20
397.771423
 30
0.0
 11
369.228571
 21
397.471424
 31
0.0
  0
LINE
  5
1169
100
AcDbEntity
  8
11000_LEFT
370
    25
390
0
  6
CONTINUOUS
 62
     7
100
AcDbLine
 10
371.073078
 20
399.471424
 30
0.0
 11
368.928571
 21
398.471424
 31
0.0
  0
LINE
  5
116A
100
AcDbEntity
  8
11000_LEFT
370
    25
390
0
  6
CONTINUOUS
 62
     7
100
AcDbLine
 10
369.228571
 20
397.471424
 30
0.0
 11
381.428571
 21
397.471424
 31
0.0
  0
LINE
  5
116B
100
AcDbEntity
  8
11000_LEFT
370
    25
390
0
  6
CONTINUOUS
 62
     7
100
AcDbLine
 10
368.928571
 20
397.771423
 30
0.0
 11
368.928571
 21
398.471424
 31
0.0
  0
LINE
  5
116C
100
AcDbEntity
  8
11000_LEFT
370
    25
390
0
  6
CONTINUOUS
 62
     7
100
AcDbLine
 10
381.428571
 20
397.471424
 30
0.0
 11
381.428571
 21
399.471424
 31
0.0
  0
LINE
  5
116D
100
AcDbEntity
  8
11000_LEFT
370
    25
390
0
  6
CONTINUOUS
 62
     7
100
AcDbLine
 10
371.073078
 20
399.471424
 30
0.0
 11
381.428571
 21
399.471424
 31
0.0
  0
LINE
  5
116E
100
AcDbEntity
  8
11000_LEFT
370
    25
390
0
  6
CONTINUOUS
 62
     7
100
AcDbLine
 10
382.814212
 20
400.271423
 30
0.0
 11
382.814212
 21
396.671425
 31
0.0
  0
LINE
  5
116F
100
AcDbEntity
  8
11000_LEFT
370
    25
390
0
  6
CONTINUOUS
 62
     7
100
AcDbLine
 10
381.428571
 20
399.471424
 30
0.0
 11
382.814212
 21
400.271423
 31
0.0
  0
LINE
  5
1170
100
AcDbEntity
  8
11000_LEFT
370
    25
390
0
  6
CONTINUOUS
 62
     7
100
AcDbLine
 10
382.814212
 20
396.671425
 30
0.0
 11
381.428571
 21
397.471424
 31
0.0
  0
LINE
  5
1171
100
AcDbEntity
  8
11000_LEFT
370
    25
390
0
  6
CONTINUOUS
 62
     7
100
AcDbLine
 10
382.814212
 20
400.271423
 30
0.0
 11
387.928571
 21
400.271423
 31
0.0
  0
LINE
  5
1172
100
AcDbEntity
  8
11000_LEFT
370
    25
390
0
  6
CONTINUOUS
 62
     7
100
AcDbLine
 10
382.814212
 20
396.671425
 30
0.0
 11
387.928571
 21
396.671425
 31
0.0
  0
LINE
  5
1173
100
AcDbEntity
  8
11000_LEFT
370
    25
390
0
  6
CONTINUOUS
 62
     7
100
AcDbLine
 10
381.428571
 20
397.471424
 30
0.0
 11
381.428571
 21
397.471435
 31
0.0
  0
LINE
  5
1174
100
AcDbEntity
  8
11000_LEFT
370
    25
390
0
  6
CONTINUOUS
 62
     7
100
AcDbLine
 10
381.428571
 20
397.471424
 30
0.0
 11
381.428571
 21
397.471435
 31
0.0
  0
LINE
  5
1175
100
AcDbEntity
  8
11000_LEFT
370
    25
390
0
  6
CONTINUOUS
 62
     7
100
AcDbLine
 10
368.928571
 20
469.671425
 30
0.0
 11
368.928571
 21
462.271424
 31
0.0
  0
LINE
  5
1176
100
AcDbEntity
  8
11000_LEFT
370
    25
390
0
  6
CONTINUOUS
 62
     7
100
AcDbLine
 10
367.660441
 20
460.971424
 30
0.0
 11
367.228571
 21
460.971424
 31
0.0
  0
LINE
  5
1177
100
AcDbEntity
  8
11000_LEFT
370
    25
390
0
  6
CONTINUOUS
 62
     7
100
AcDbLine
 10
367.228571
 20
460.971424
 30
0.0
 11
364.228571
 21
462.5
 31
0.0
  0
LINE
  5
1178
100
AcDbEntity
  8
11000_LEFT
370
    25
390
0
  6
CONTINUOUS
 62
     7
100
AcDbLine
 10
364.228571
 20
462.5
 30
0.0
 11
364.228571
 21
463.771424
 31
0.0
  0
LINE
  5
1179
100
AcDbEntity
  8
11000_LEFT
370
    25
390
0
  6
CONTINUOUS
 62
     7
100
AcDbLine
 10
364.228571
 20
463.771424
 30
0.0
 11
368.928571
 21
463.771424
 31
0.0
  0
LINE
  5
117A
100
AcDbEntity
  8
11000_LEFT
370
    25
390
0
  6
CONTINUOUS
 62
     7
100
AcDbLine
 10
367.728571
 20
462.271424
 30
0.0
 11
367.660441
 21
460.971424
 31
0.0
  0
LINE
  5
117B
100
AcDbEntity
  8
11000_LEFT
370
    25
390
0
  6
CONTINUOUS
 62
     7
100
AcDbLine
 10
368.928571
 20
462.271424
 30
0.0
 11
367.728571
 21
462.271424
 31
0.0
  0
LINE
  5
117C
100
AcDbEntity
  8
11000_LEFT
370
    25
390
0
  6
CONTINUOUS
 62
     7
100
AcDbLine
 10
368.928571
 20
462.271424
 30
0.0
 11
380.04293
 21
462.271424
 31
0.0
  0
LINE
  5
117D
100
AcDbEntity
  8
11000_LEFT
370
    25
390
0
  6
CONTINUOUS
 62
     7
100
AcDbLine
 10
381.428571
 20
447.471424
 30
0.0
 11
381.428571
 21
447.471439
 31
0.0
  0
LINE
  5
117E
100
AcDbEntity
  8
11000_LEFT
370
    25
390
0
  6
CONTINUOUS
 62
     7
100
AcDbLine
 10
381.428571
 20
447.471424
 30
0.0
 11
381.428571
 21
447.471436
 31
0.0
  0
LINE
  5
117F
100
AcDbEntity
  8
11000_LEFT
370
    25
390
0
  6
CONTINUOUS
 62
     7
100
AcDbLine
 10
381.428571
 20
447.471424
 30
0.0
 11
381.428571
 21
447.471434
 31
0.0
  0
ARC
  5
1180
100
AcDbEntity
  8
11000_LEFT
370
    25
390
0
  6
CONTINUOUS
 62
     7
100
AcDbCircle
 10
402.528571
 20
469.071424
 30
0.0
 40
0.6
100
AcDbArc
 50
0.0
 51
90.000146
  0
LINE
  5
1181
100
AcDbEntity
  8
11000_LEFT
370
    25
390
0
  6
CONTINUOUS
 62
     7
100
AcDbLine
 10
402.528569
 20
469.671425
 30
0.0
 11
368.928571
 21
469.671425
 31
0.0
  0
LINE
  5
1182
100
AcDbEntity
  8
11000_LEFT
370
    25
390
0
  6
CONTINUOUS
 62
     7
100
AcDbLine
 10
380.995558
 20
461.721424
 30
0.0
 11
380.04293
 21
462.271424
 31
0.0
  0
LINE
  5
1183
100
AcDbEntity
  8
11000_LEFT
370
    25
390
0
  6
CONTINUOUS
 62
     7
100
AcDbLine
 10
397.72857
 20
461.721424
 30
0.0
 11
380.995558
 21
461.721424
 31
0.0
  0
ARC
  5
1184
100
AcDbEntity
  8
11000_LEFT
370
    25
390
0
  6
CONTINUOUS
 62
     7
100
AcDbCircle
 10
397.728571
 20
460.721424
 30
0.0
 40
1.0
100
AcDbArc
 50
0.0
 51
90.000043
  0
LINE
  5
1185
100
AcDbEntity
  8
11000_LEFT
370
    25
390
0
  6
CONTINUOUS
 62
     7
100
AcDbLine
 10
398.72857
 20
451.671424
 30
0.0
 11
398.72857
 21
460.721424
 31
0.0
  0
ARC
  5
1186
100
AcDbEntity
  8
11000_LEFT
370
    25
390
0
  6
CONTINUOUS
 62
     7
100
AcDbCircle
 10
397.728571
 20
451.671424
 30
0.0
 40
1.0
100
AcDbArc
 50
269.999957
 51
0.0
  0
LINE
  5
1187
100
AcDbEntity
  8
11000_LEFT
370
    25
390
0
  6
CONTINUOUS
 62
     7
100
AcDbLine
 10
387.928571
 20
450.671424
 30
0.0
 11
397.72857
 21
450.671424
 31
0.0
  0
LINE
  5
1188
100
AcDbEntity
  8
11000_LEFT
370
    25
390
0
  6
CONTINUOUS
 62
     7
100
AcDbLine
 10
387.928571
 20
440.321424
 30
0.0
 11
387.928571
 21
450.671424
 31
0.0
  0
LINE
  5
1189
100
AcDbEntity
  8
11000_LEFT
370
    25
390
0
  6
CONTINUOUS
 62
     7
100
AcDbLine
 10
388.928571
 20
440.321424
 30
0.0
 11
387.928571
 21
440.321424
 31
0.0
  0
LINE
  5
118A
100
AcDbEntity
  8
11000_LEFT
370
    25
390
0
  6
CONTINUOUS
 62
     7
100
AcDbLine
 10
388.928571
 20
446.271424
 30
0.0
 11
388.928571
 21
440.321424
 31
0.0
  0
LINE
  5
118B
100
AcDbEntity
  8
11000_LEFT
370
    25
390
0
  6
CONTINUOUS
 62
     7
100
AcDbLine
 10
402.528569
 20
446.271424
 30
0.0
 11
388.928571
 21
446.271424
 31
0.0
  0
ARC
  5
118C
100
AcDbEntity
  8
11000_LEFT
370
    25
390
0
  6
CONTINUOUS
 62
     7
100
AcDbCircle
 10
402.528571
 20
446.871424
 30
0.0
 40
0.6
100
AcDbArc
 50
269.999854
 51
0.0
  0
LINE
  5
118D
100
AcDbEntity
  8
11000_LEFT
370
    25
390
0
  6
CONTINUOUS
 62
     7
100
AcDbLine
 10
403.128572
 20
469.071424
 30
0.0
 11
403.128572
 21
446.871424
 31
0.0
  0
LINE
  5
118E
100
AcDbEntity
  8
11000_LEFT
370
    25
390
0
  6
CONTINUOUS
 62
     7
100
AcDbLine
 10
368.928571
 20
447.771424
 30
0.0
 11
369.228571
 21
447.471424
 31
0.0
  0
LINE
  5
118F
100
AcDbEntity
  8
11000_LEFT
370
    25
390
0
  6
CONTINUOUS
 62
     7
100
AcDbLine
 10
371.073078
 20
449.471424
 30
0.0
 11
368.928571
 21
448.471424
 31
0.0
  0
LINE
  5
1190
100
AcDbEntity
  8
11000_LEFT
370
    25
390
0
  6
CONTINUOUS
 62
     7
100
AcDbLine
 10
369.228571
 20
447.471424
 30
0.0
 11
381.428571
 21
447.471424
 31
0.0
  0
LINE
  5
1191
100
AcDbEntity
  8
11000_LEFT
370
    25
390
0
  6
CONTINUOUS
 62
     7
100
AcDbLine
 10
368.928571
 20
447.771424
 30
0.0
 11
368.928571
 21
448.471424
 31
0.0
  0
LINE
  5
1192
100
AcDbEntity
  8
11000_LEFT
370
    25
390
0
  6
CONTINUOUS
 62
     7
100
AcDbLine
 10
381.428571
 20
447.471424
 30
0.0
 11
381.428571
 21
449.471424
 31
0.0
  0
LINE
  5
1193
100
AcDbEntity
  8
11000_LEFT
370
    25
390
0
  6
CONTINUOUS
 62
     7
100
AcDbLine
 10
371.073078
 20
449.471424
 30
0.0
 11
381.428571
 21
449.471424
 31
0.0
  0
LINE
  5
1194
100
AcDbEntity
  8
11000_LEFT
370
    25
390
0
  6
CONTINUOUS
 62
     7
100
AcDbLine
 10
382.814212
 20
450.271424
 30
0.0
 11
382.814212
 21
446.671424
 31
0.0
  0
LINE
  5
1195
100
AcDbEntity
  8
11000_LEFT
370
    25
390
0
  6
CONTINUOUS
 62
     7
100
AcDbLine
 10
381.428571
 20
449.471424
 30
0.0
 11
382.814212
 21
450.271424
 31
0.0
  0
LINE
  5
1196
100
AcDbEntity
  8
11000_LEFT
370
    25
390
0
  6
CONTINUOUS
 62
     7
100
AcDbLine
 10
382.814212
 20
446.671424
 30
0.0
 11
381.428571
 21
447.471424
 31
0.0
  0
LINE
  5
1197
100
AcDbEntity
  8
11000_LEFT
370
    25
390
0
  6
CONTINUOUS
 62
     7
100
AcDbLine
 10
382.814212
 20
450.271424
 30
0.0
 11
387.928571
 21
450.271424
 31
0.0
  0
LINE
  5
1198
100
AcDbEntity
  8
11000_LEFT
370
    25
390
0
  6
CONTINUOUS
 62
     7
100
AcDbLine
 10
382.814212
 20
446.671424
 30
0.0
 11
387.928571
 21
446.671424
 31
0.0
  0
LINE
  5
1199
100
AcDbEntity
  8
11000_LEFT
370
    25
390
0
  6
CONTINUOUS
 62
     7
100
AcDbLine
 10
381.428571
 20
447.471424
 30
0.0
 11
381.428571
 21
447.471434
 31
0.0
  0
LINE
  5
119A
100
AcDbEntity
  8
11000_LEFT
370
    25
390
0
  6
CONTINUOUS
 62
     7
100
AcDbLine
 10
381.428571
 20
447.471424
 30
0.0
 11
381.428571
 21
447.471434
 31
0.0
  0
LINE
  5
119B
100
AcDbEntity
  8
11100_LEFT_DIM
370
    13
390
0
  6
CONTINUOUS
 62
     7
100
AcDbLine
 10
364.228571
 20
463.771414
 30
0.0
 11
364.228571
 21
480.671424
 31
0.0
  0
TEXT
  5
119C
100
AcDbEntity
  8
11100_LEFT_DIM
370
    13
390
0
  6
CONTINUOUS
 62
     7
100
AcDbText
 10
379.392857
 20
480.671424
 30
0.0
 40
2.857143
  1
38.9
 72
     1
 11
383.678571
 21
480.671424
 31
0.0
100
AcDbText
  0
LINE
  5
119D
100
AcDbEntity
  8
11100_LEFT_DIM
370
    13
390
0
  6
CONTINUOUS
 62
     7
100
AcDbLine
 10
364.228571
 20
479.671424
 30
0.0
 11
403.128571
 21
479.671424
 31
0.0
  0
LINE
  5
119E
100
AcDbEntity
  8
11100_LEFT_DIM
370
    13
390
0
  6
CONTINUOUS
 62
     7
100
AcDbLine
 10
403.128571
 20
480.671424
 30
0.0
 11
403.128571
 21
469.671424
 31
0.0
  0
LINE
  5
119F
100
AcDbEntity
  8
11100_LEFT_DIM
370
    13
390
0
  6
CONTINUOUS
 62
     7
100
AcDbLine
 10
387.928571
 20
440.321424
 30
0.0
 11
353.228571
 21
440.321424
 31
0.0
  0
TEXT
  5
11A0
100
AcDbEntity
  8
11100_LEFT_DIM
370
    13
390
0
  6
CONTINUOUS
 62
     7
100
AcDbText
 10
353.228571
 20
450.71071
 30
0.0
 40
2.857143
  1
29.4
 50
90.0
 72
     1
 11
353.228571
 21
454.996424
 31
0.0
100
AcDbText
  0
LINE
  5
11A1
100
AcDbEntity
  8
11100_LEFT_DIM
370
    13
390
0
  6
CONTINUOUS
 62
     7
100
AcDbLine
 10
354.228571
 20
440.321424
 30
0.0
 11
354.228571
 21
469.671424
 31
0.0
  0
LINE
  5
11A2
100
AcDbEntity
  8
11100_LEFT_DIM
370
    13
390
0
  6
CONTINUOUS
 62
     7
100
AcDbLine
 10
353.228571
 20
469.671424
 30
0.0
 11
368.928571
 21
469.671424
 31
0.0
  0
LINE
  5
11A3
100
AcDbEntity
  8
11100_LEFT_DIM
370
    13
390
0
  6
CONTINUOUS
 62
     7
100
AcDbLine
 10
364.528571
 20
384.421424
 30
0.0
 11
364.528571
 21
415.121424
 31
0.0
  0
TEXT
  5
11A4
100
AcDbEntity
  8
11100_LEFT_DIM
370
    13
390
0
  6
CONTINUOUS
 62
     7
100
AcDbText
 10
381.147619
 20
415.121424
 30
0.0
 40
2.857143
  1
38
 72
     1
 11
383.528571
 21
415.121424
 31
0.0
100
AcDbText
  0
LINE
  5
11A5
100
AcDbEntity
  8
11100_LEFT_DIM
370
    13
390
0
  6
CONTINUOUS
 62
     7
100
AcDbLine
 10
364.528571
 20
414.121424
 30
0.0
 11
402.528571
 21
414.121424
 31
0.0
  0
LINE
  5
11A6
100
AcDbEntity
  8
11100_LEFT_DIM
370
    13
390
0
  6
CONTINUOUS
 62
     7
100
AcDbLine
 10
402.528571
 20
415.121424
 30
0.0
 11
402.528571
 21
400.671424
 31
0.0
  0
LINE
  5
11A7
100
AcDbEntity
  8
11100_LEFT_DIM
370
    13
390
0
  6
CONTINUOUS
 62
     7
100
AcDbLine
 10
368.528571
 20
380.271424
 30
0.0
 11
353.128571
 21
380.271424
 31
0.0
  0
TEXT
  5
11A8
100
AcDbEntity
  8
11100_LEFT_DIM
370
    13
390
0
  6
CONTINUOUS
 62
     7
100
AcDbText
 10
353.128571
 20
387.91071
 30
0.0
 40
2.857143
  1
23.9
 50
90.0
 72
     1
 11
353.128571
 21
392.196424
 31
0.0
100
AcDbText
  0
LINE
  5
11A9
100
AcDbEntity
  8
11100_LEFT_DIM
370
    13
390
0
  6
CONTINUOUS
 62
     7
100
AcDbLine
 10
354.128571
 20
380.271424
 30
0.0
 11
354.128571
 21
404.121424
 31
0.0
  0
LINE
  5
11AA
100
AcDbEntity
  8
11100_LEFT_DIM
370
    13
390
0
  6
CONTINUOUS
 62
     7
100
AcDbLine
 10
353.128571
 20
404.121424
 30
0.0
 11
387.928571
 21
404.121424
 31
0.0
  0
LINE
  5
11AB
100
AcDbEntity
  8
11100_LEFT_DIM
370
    13
390
0
  6
CONTINUOUS
 62
     7
100
AcDbLine
 10
414.228571
 20
463.771424
 30
0.0
 11
414.228571
 21
480.671434
 31
0.0
  0
TEXT
  5
11AC
100
AcDbEntity
  8
11100_LEFT_DIM
370
    13
390
0
  6
CONTINUOUS
 62
     7
100
AcDbText
 10
429.392857
 20
480.671434
 30
0.0
 40
2.857143
  1
38.9
 72
     1
 11
433.678571
 21
480.671434
 31
0.0
100
AcDbText
  0
LINE
  5
11AD
100
AcDbEntity
  8
11100_LEFT_DIM
370
    13
390
0
  6
CONTINUOUS
 62
     7
100
AcDbLine
 10
414.228571
 20
479.671434
 30
0.0
 11
453.128571
 21
479.671434
 31
0.0
  0
LINE
  5
11AE
100
AcDbEntity
  8
11100_LEFT_DIM
370
    13
390
0
  6
CONTINUOUS
 62
     7
100
AcDbLine
 10
453.128571
 20
480.671434
 30
0.0
 11
453.128571
 21
466.671424
 31
0.0
  0
SOLID
  5
11AF
100
AcDbEntity
  8
11100_LEFT_DIM
370
    13
390
0
  6
CONTINUOUS
 62
     7
100
AcDbTrace
 10
368.228571
 20
480.198034
 30
0.0
 11
364.228571
 21
479.671424
 31
0.0
 12
368.228571
 22
479.144814
 32
0.0
 13
364.228571
 23
479.671424
 33
0.0
  0
SOLID
  5
11B0
100
AcDbEntity
  8
11100_LEFT_DIM
370
    13
390
0
  6
CONTINUOUS
 62
     7
100
AcDbTrace
 10
399.128571
 20
479.144814
 30
0.0
 11
403.128571
 21
479.671424
 31
0.0
 12
399.128571
 22
480.198034
 32
0.0
 13
403.128571
 23
479.671424
 33
0.0
  0
SOLID
  5
11B1
100
AcDbEntity
  8
11100_LEFT_DIM
370
    13
390
0
  6
CONTINUOUS
 62
     7
100
AcDbTrace
 10
353.701961
 20
444.321424
 30
0.0
 11
354.228571
 21
440.321424
 31
0.0
 12
354.755181
 22
444.321424
 32
0.0
 13
354.228571
 23
440.321424
 33
0.0
  0
SOLID
  5
11B2
100
AcDbEntity
  8
11100_LEFT_DIM
370
    13
390
0
  6
CONTINUOUS
 62
     7
100
AcDbTrace
 10
354.755181
 20
465.671424
 30
0.0
 11
354.228571
 21
469.671424
 31
0.0
 12
353.701961
 22
465.671424
 32
0.0
 13
354.228571
 23
469.671424
 33
0.0
  0
SOLID
  5
11B3
100
AcDbEntity
  8
11100_LEFT_DIM
370
    13
390
0
  6
CONTINUOUS
 62
     7
100
AcDbTrace
 10
368.528571
 20
414.648034
 30
0.0
 11
364.528571
 21
414.121424
 31
0.0
 12
368.528571
 22
413.594814
 32
0.0
 13
364.528571
 23
414.121424
 33
0.0
  0
SOLID
  5
11B4
100
AcDbEntity
  8
11100_LEFT_DIM
370
    13
390
0
  6
CONTINUOUS
 62
     7
100
AcDbTrace
 10
398.528571
 20
413.594814
 30
0.0
 11
402.528571
 21
414.121424
 31
0.0
 12
398.528571
 22
414.648034
 32
0.0
 13
402.528571
 23
414.121424
 33
0.0
  0
SOLID
  5
11B5
100
AcDbEntity
  8
11100_LEFT_DIM
370
    13
390
0
  6
CONTINUOUS
 62
     7
100
AcDbTrace
 10
353.601961
 20
384.271424
 30
0.0
 11
354.128571
 21
380.271424
 31
0.0
 12
354.655181
 22
384.271424
 32
0.0
 13
354.128571
 23
380.271424
 33
0.0
  0
SOLID
  5
11B6
100
AcDbEntity
  8
11100_LEFT_DIM
370
    13
390
0
  6
CONTINUOUS
 62
     7
100
AcDbTrace
 10
354.655181
 20
400.121424
 30
0.0
 11
354.128571
 21
404.121424
 31
0.0
 12
353.601961
 22
400.121424
 32
0.0
 13
354.128571
 23
404.121424
 33
0.0
  0
SOLID
  5
11B7
100
AcDbEntity
  8
11100_LEFT_DIM
370
    13
390
0
  6
CONTINUOUS
 62
     7
100
AcDbTrace
 10
418.228571
 20
480.198044
 30
0.0
 11
414.228571
 21
479.671434
 31
0.0
 12
418.228571
 22
479.144824
 32
0.0
 13
414.228571
 23
479.671434
 33
0.0
  0
SOLID
  5
11B8
100
AcDbEntity
  8
11100_LEFT_DIM
370
    13
390
0
  6
CONTINUOUS
 62
     7
100
AcDbTrace
 10
449.128571
 20
479.144824
 30
0.0
 11
453.128571
 21
479.671434
 31
0.0
 12
449.128571
 22
480.198044
 32
0.0
 13
453.128571
 23
479.671434
 33
0.0
  0
LINE
  5
11B9
100
AcDbEntity
  8
90000_FRAME
370
    13
  6
CONTINUOUS
 62
     7
100
AcDbLine
 10
101.408144
 20
118.993717
 30
0.0
 11
101.408144
 21
658.993717
 31
0.0
  0
LINE
  5
11BA
100
AcDbEntity
  8
90000_FRAME
370
    13
  6
CONTINUOUS
 62
     7
100
AcDbLine
 10
501.408144
 20
658.993717
 30
0.0
 11
101.408144
 21
658.993717
 31
0.0
  0
LINE
  5
11BB
100
AcDbEntity
  8
91000_TIP
370
    13
  6
CONTINUOUS
 62
     7
100
AcDbLine
 10
164.167065
 20
151.413899
 30
0.0
 11
184.167065
 21
156.413898
 31
0.0
  0
LINE
  5
11BC
100
AcDbEntity
  8
91000_TIP
370
    13
  6
CONTINUOUS
 62
     7
100
AcDbLine
 10
161.608045
 20
146.413899
 30
0.0
 11
208.812023
 21
146.413899
 31
0.0
  0
LINE
  5
11BD
100
AcDbEntity
  8
91000_TIP
370
    13
  6
CONTINUOUS
 62
     7
100
AcDbLine
 10
164.167065
 20
141.413899
 30
0.0
 11
184.167065
 21
136.413899
 31
0.0
  0
LINE
  5
11BE
100
AcDbEntity
  8
91000_TIP
370
    13
  6
CONTINUOUS
 62
     7
100
AcDbLine
 10
164.167065
 20
151.413899
 30
0.0
 11
164.167065
 21
141.413899
 31
0.0
  0
LINE
  5
11BF
100
AcDbEntity
  8
91000_TIP
370
    13
  6
CONTINUOUS
 62
     7
100
AcDbLine
 10
184.167065
 20
156.413898
 30
0.0
 11
184.167065
 21
136.413899
 31
0.0
  0
LINE
  5
11C0
100
AcDbEntity
  8
91000_TIP
370
    13
  6
CONTINUOUS
 62
     7
100
AcDbLine
 10
197.167065
 20
134.970936
 30
0.0
 11
197.167065
 21
157.537708
 31
0.0
  0
CIRCLE
  5
11C1
100
AcDbEntity
  8
91000_TIP
370
    13
  6
CONTINUOUS
 62
     7
100
AcDbCircle
 10
197.167065
 20
146.413899
 30
0.0
 40
10.0
  0
CIRCLE
  5
11C2
100
AcDbEntity
  8
91000_TIP
370
    13
  6
CONTINUOUS
 62
     7
100
AcDbCircle
 10
197.167065
 20
146.413899
 30
0.0
 40
5.0
  0
TEXT
  5
11C3
100
AcDbEntity
  8
90000_FRAME
370
    13
  6
CONTINUOUS
 62
     7
100
AcDbText
 10
222.527225
 20
168.549125
 30
0.0
 40
4.4
  1
All dimensions are in millimeters (mm)
 41
0.961374
100
AcDbText
  0
TEXT
  5
11C4
100
AcDbEntity
  8
90000_FRAME
370
    13
  6
CONTINUOUS
 62
     7
100
AcDbText
 10
222.527225
 20
174.80717
 30
0.0
 40
4.4
  1
Alle Bemassungswerte sind in Millimeter (mm) angegeben.
 41
0.825144
100
AcDbText
  0
LINE
  5
11C5
100
AcDbEntity
  8
90000_FRAME
370
    13
  6
CONTINUOUS
 62
     7
100
AcDbLine
 10
501.408144
 20
118.993717
 30
0.0
 11
501.408144
 21
658.993717
 31
0.0
  0
LINE
  5
11C6
100
AcDbEntity
  8
90000_FRAME
370
    13
  6
CONTINUOUS
 62
     7
100
AcDbLine
 10
501.408144
 20
118.993717
 30
0.0
 11
101.408144
 21
118.993717
 31
0.0
  0
TEXT
  5
11C7
100
AcDbEntity
  8
90000_FRAME
370
    13
  6
CONTINUOUS
 62
     7
100
AcDbText
 10
324.30431
 20
154.4
 30
0.0
 40
6.0
  1
3RA2923-2BB2
 41
0.784213
100
AcDbText
  0
TEXT
  5
11C8
100
AcDbEntity
  8
90000_FRAME
370
    13
  6
CONTINUOUS
 62
     7
100
AcDbText
 10
407.728144
 20
132.793717
 30
0.0
 40
4.4
  1
Massstab/Scale:
 41
0.9
100
AcDbText
  0
TEXT
  5
11C9
100
AcDbEntity
  8
90000_FRAME
370
    13
  6
CONTINUOUS
 62
     7
100
AcDbText
 10
324.0
 20
132.793717
 30
0.0
 40
4.4
  1
Format/Size: DIN A4
 41
0.803258
100
AcDbText
  0
LINE
  5
11CA
100
AcDbEntity
  8
90000_FRAME
370
    13
  6
CONTINUOUS
 62
     7
100
AcDbLine
 10
491.408144
 20
128.993717
 30
0.0
 11
491.408144
 21
164.993717
 31
0.0
  0
LINE
  5
11CB
100
AcDbEntity
  8
90000_FRAME
370
    13
  6
CONTINUOUS
 62
     7
100
AcDbLine
 10
406.408144
 20
128.993717
 30
0.0
 11
406.408144
 21
140.993717
 31
0.0
  0
LINE
  5
11CC
100
AcDbEntity
  8
90000_FRAME
370
    13
  6
CONTINUOUS
 62
     7
100
AcDbLine
 10
321.408144
 20
128.993717
 30
0.0
 11
321.408144
 21
164.993717
 31
0.0
  0
LINE
  5
11CD
100
AcDbEntity
  8
90000_FRAME
370
    13
  6
CONTINUOUS
 62
     7
100
AcDbLine
 10
221.408144
 20
164.993717
 30
0.0
 11
491.408144
 21
164.993717
 31
0.0
  0
LINE
  5
11CE
100
AcDbEntity
  8
90000_FRAME
370
    13
  6
CONTINUOUS
 62
     7
100
AcDbLine
 10
321.408144
 20
140.993717
 30
0.0
 11
491.408144
 21
140.993717
 31
0.0
  0
LINE
  5
11CF
100
AcDbEntity
  8
90000_FRAME
370
    13
  6
CONTINUOUS
 62
     7
100
AcDbLine
 10
221.408144
 20
128.993717
 30
0.0
 11
221.408144
 21
164.993717
 31
0.0
  0
LINE
  5
11D0
100
AcDbEntity
  8
90000_FRAME
370
    13
  6
CONTINUOUS
 62
     7
100
AcDbLine
 10
221.408144
 20
128.993717
 30
0.0
 11
491.408144
 21
128.993717
 31
0.0
  0
LINE
  5
11D1
100
AcDbEntity
  8
90000_FRAME
370
    13
  6
CONTINUOUS
 62
     7
100
AcDbLine
 10
249.780545
 20
151.822812
 30
0.0
 11
249.780545
 21
142.316274
 31
0.0
  0
LINE
  5
11D2
100
AcDbEntity
  8
90000_FRAME
370
    13
  6
CONTINUOUS
 62
     7
100
AcDbLine
 10
252.632506
 20
151.822812
 30
0.0
 11
252.632506
 21
142.316274
 31
0.0
  0
LINE
  5
11D3
100
AcDbEntity
  8
90000_FRAME
370
    13
  6
CONTINUOUS
 62
     7
100
AcDbLine
 10
249.780545
 20
142.316274
 30
0.0
 11
252.632506
 21
142.316274
 31
0.0
  0
LINE
  5
11D4
100
AcDbEntity
  8
90000_FRAME
370
    13
  6
CONTINUOUS
 62
     7
100
AcDbLine
 10
249.780545
 20
151.822812
 30
0.0
 11
252.632506
 21
151.822812
 31
0.0
  0
LINE
  5
11D5
100
AcDbEntity
  8
90000_FRAME
370
    13
  6
CONTINUOUS
 62
     7
100
AcDbLine
 10
254.81901
 20
151.822812
 30
0.0
 11
254.81901
 21
142.316274
 31
0.0
  0
LINE
  5
11D6
100
AcDbEntity
  8
90000_FRAME
370
    13
  6
CONTINUOUS
 62
     7
100
AcDbLine
 10
254.81901
 20
142.316274
 30
0.0
 11
261.948914
 21
142.316274
 31
0.0
  0
LINE
  5
11D7
100
AcDbEntity
  8
90000_FRAME
370
    13
  6
CONTINUOUS
 62
     7
100
AcDbLine
 10
261.948914
 20
144.122516
 30
0.0
 11
257.575906
 21
144.122516
 31
0.0
  0
LINE
  5
11D8
100
AcDbEntity
  8
90000_FRAME
370
    13
  6
CONTINUOUS
 62
     7
100
AcDbLine
 10
261.948914
 20
144.122516
 30
0.0
 11
261.948914
 21
142.316274
 31
0.0
  0
LINE
  5
11D9
100
AcDbEntity
  8
90000_FRAME
370
    13
  6
CONTINUOUS
 62
     7
100
AcDbLine
 10
261.853848
 20
151.822812
 30
0.0
 11
254.81901
 21
151.822812
 31
0.0
  0
LINE
  5
11DA
100
AcDbEntity
  8
90000_FRAME
370
    13
  6
CONTINUOUS
 62
     7
100
AcDbLine
 10
261.853848
 20
150.064103
 30
0.0
 11
257.575906
 21
150.064103
 31
0.0
  0
LINE
  5
11DB
100
AcDbEntity
  8
90000_FRAME
370
    13
  6
CONTINUOUS
 62
     7
100
AcDbLine
 10
261.853848
 20
151.822812
 30
0.0
 11
261.853848
 21
150.064103
 31
0.0
  0
LINE
  5
11DC
100
AcDbEntity
  8
90000_FRAME
370
    13
  6
CONTINUOUS
 62
     7
100
AcDbLine
 10
261.283456
 20
146.356553
 30
0.0
 11
257.575906
 21
146.356553
 31
0.0
  0
LINE
  5
11DD
100
AcDbEntity
  8
90000_FRAME
370
    13
  6
CONTINUOUS
 62
     7
100
AcDbLine
 10
261.283456
 20
147.925132
 30
0.0
 11
261.283456
 21
146.356553
 31
0.0
  0
LINE
  5
11DE
100
AcDbEntity
  8
90000_FRAME
370
    13
  6
CONTINUOUS
 62
     7
100
AcDbLine
 10
261.283456
 20
147.925132
 30
0.0
 11
257.575906
 21
147.925132
 31
0.0
  0
LINE
  5
11DF
100
AcDbEntity
  8
90000_FRAME
370
    13
  6
CONTINUOUS
 62
     7
100
AcDbLine
 10
257.575906
 20
150.064103
 30
0.0
 11
257.575906
 21
147.925132
 31
0.0
  0
LINE
  5
11E0
100
AcDbEntity
  8
90000_FRAME
370
    13
  6
CONTINUOUS
 62
     7
100
AcDbLine
 10
257.575906
 20
146.356553
 30
0.0
 11
257.575906
 21
144.122516
 31
0.0
  0
LINE
  5
11E1
100
AcDbEntity
  8
90000_FRAME
370
    13
  6
CONTINUOUS
 62
     7
100
AcDbLine
 10
263.565025
 20
142.316274
 30
0.0
 11
263.565025
 21
151.822812
 31
0.0
  0
LINE
  5
11E2
100
AcDbEntity
  8
90000_FRAME
370
    13
  6
CONTINUOUS
 62
     7
100
AcDbLine
 10
263.565025
 20
142.316274
 30
0.0
 11
265.466333
 21
142.316274
 31
0.0
  0
LINE
  5
11E3
100
AcDbEntity
  8
90000_FRAME
370
    13
  6
CONTINUOUS
 62
     7
100
AcDbLine
 10
275.258067
 20
151.822812
 30
0.0
 11
275.258067
 21
142.316274
 31
0.0
  0
LINE
  5
11E4
100
AcDbEntity
  8
90000_FRAME
370
    13
  6
CONTINUOUS
 62
     7
100
AcDbLine
 10
275.258067
 20
142.316274
 30
0.0
 11
272.501171
 21
142.316274
 31
0.0
  0
LINE
  5
11E5
100
AcDbEntity
  8
90000_FRAME
370
    13
  6
CONTINUOUS
 62
     7
100
AcDbLine
 10
268.128163
 20
142.221209
 30
0.0
 11
269.83934
 21
142.221209
 31
0.0
  0
LINE
  5
11E6
100
AcDbEntity
  8
90000_FRAME
370
    13
  6
CONTINUOUS
 62
     7
100
AcDbLine
 10
268.128163
 20
142.221209
 30
0.0
 11
265.466333
 21
148.400459
 31
0.0
  0
LINE
  5
11E7
100
AcDbEntity
  8
90000_FRAME
370
    13
  6
CONTINUOUS
 62
     7
100
AcDbLine
 10
265.466333
 20
142.316274
 30
0.0
 11
265.466333
 21
148.400459
 31
0.0
  0
LINE
  5
11E8
100
AcDbEntity
  8
90000_FRAME
370
    13
  6
CONTINUOUS
 62
     7
100
AcDbLine
 10
272.501171
 20
148.495524
 30
0.0
 11
269.83934
 21
142.221209
 31
0.0
  0
LINE
  5
11E9
100
AcDbEntity
  8
90000_FRAME
370
    13
  6
CONTINUOUS
 62
     7
100
AcDbLine
 10
266.987379
 20
151.822812
 30
0.0
 11
263.565025
 21
151.822812
 31
0.0
  0
LINE
  5
11EA
100
AcDbEntity
  8
90000_FRAME
370
    13
  6
CONTINUOUS
 62
     7
100
AcDbLine
 10
275.258067
 20
151.822812
 30
0.0
 11
271.835713
 21
151.822812
 31
0.0
  0
LINE
  5
11EB
100
AcDbEntity
  8
90000_FRAME
370
    13
  6
CONTINUOUS
 62
     7
100
AcDbLine
 10
266.987379
 20
151.822812
 30
0.0
 11
269.459079
 21
146.023824
 31
0.0
  0
LINE
  5
11EC
100
AcDbEntity
  8
90000_FRAME
370
    13
  6
CONTINUOUS
 62
     7
100
AcDbLine
 10
271.835713
 20
151.822812
 30
0.0
 11
269.459079
 21
146.023824
 31
0.0
  0
LINE
  5
11ED
100
AcDbEntity
  8
90000_FRAME
370
    13
  6
CONTINUOUS
 62
     7
100
AcDbLine
 10
272.501171
 20
148.495524
 30
0.0
 11
272.501171
 21
142.316274
 31
0.0
  0
LINE
  5
11EE
100
AcDbEntity
  8
90000_FRAME
370
    13
  6
CONTINUOUS
 62
     7
100
AcDbLine
 10
277.444571
 20
151.822812
 30
0.0
 11
277.444571
 21
142.316274
 31
0.0
  0
LINE
  5
11EF
100
AcDbEntity
  8
90000_FRAME
370
    13
  6
CONTINUOUS
 62
     7
100
AcDbLine
 10
277.444571
 20
142.316274
 30
0.0
 11
284.574475
 21
142.316274
 31
0.0
  0
LINE
  5
11F0
100
AcDbEntity
  8
90000_FRAME
370
    13
  6
CONTINUOUS
 62
     7
100
AcDbLine
 10
284.574475
 20
144.122516
 30
0.0
 11
280.201467
 21
144.122516
 31
0.0
  0
LINE
  5
11F1
100
AcDbEntity
  8
90000_FRAME
370
    13
  6
CONTINUOUS
 62
     7
100
AcDbLine
 10
284.574475
 20
144.122516
 30
0.0
 11
284.574475
 21
142.316274
 31
0.0
  0
LINE
  5
11F2
100
AcDbEntity
  8
90000_FRAME
370
    13
  6
CONTINUOUS
 62
     7
100
AcDbLine
 10
284.479409
 20
151.822812
 30
0.0
 11
277.444571
 21
151.822812
 31
0.0
  0
LINE
  5
11F3
100
AcDbEntity
  8
90000_FRAME
370
    13
  6
CONTINUOUS
 62
     7
100
AcDbLine
 10
284.479409
 20
150.064103
 30
0.0
 11
280.201467
 21
150.064103
 31
0.0
  0
LINE
  5
11F4
100
AcDbEntity
  8
90000_FRAME
370
    13
  6
CONTINUOUS
 62
     7
100
AcDbLine
 10
284.479409
 20
151.822812
 30
0.0
 11
284.479409
 21
150.064103
 31
0.0
  0
LINE
  5
11F5
100
AcDbEntity
  8
90000_FRAME
370
    13
  6
CONTINUOUS
 62
     7
100
AcDbLine
 10
283.909017
 20
146.356553
 30
0.0
 11
280.201467
 21
146.356553
 31
0.0
  0
LINE
  5
11F6
100
AcDbEntity
  8
90000_FRAME
370
    13
  6
CONTINUOUS
 62
     7
100
AcDbLine
 10
283.909017
 20
147.925132
 30
0.0
 11
283.909017
 21
146.356553
 31
0.0
  0
LINE
  5
11F7
100
AcDbEntity
  8
90000_FRAME
370
    13
  6
CONTINUOUS
 62
     7
100
AcDbLine
 10
283.909017
 20
147.925132
 30
0.0
 11
280.201467
 21
147.925132
 31
0.0
  0
LINE
  5
11F8
100
AcDbEntity
  8
90000_FRAME
370
    13
  6
CONTINUOUS
 62
     7
100
AcDbLine
 10
280.201467
 20
150.064103
 30
0.0
 11
280.201467
 21
147.925132
 31
0.0
  0
LINE
  5
11F9
100
AcDbEntity
  8
90000_FRAME
370
    13
  6
CONTINUOUS
 62
     7
100
AcDbLine
 10
280.201467
 20
146.356553
 30
0.0
 11
280.201467
 21
144.122516
 31
0.0
  0
LINE
  5
11FA
100
AcDbEntity
  8
90000_FRAME
370
    13
  6
CONTINUOUS
 62
     7
100
AcDbLine
 10
286.143053
 20
142.316274
 30
0.0
 11
286.143053
 21
151.822812
 31
0.0
  0
LINE
  5
11FB
100
AcDbEntity
  8
90000_FRAME
370
    13
  6
CONTINUOUS
 62
     7
100
AcDbLine
 10
294.508807
 20
151.822812
 30
0.0
 11
294.508807
 21
142.316274
 31
0.0
  0
LINE
  5
11FC
100
AcDbEntity
  8
90000_FRAME
370
    13
  6
CONTINUOUS
 62
     7
100
AcDbLine
 10
286.143053
 20
142.316274
 30
0.0
 11
288.044361
 21
142.316274
 31
0.0
  0
LINE
  5
11FD
100
AcDbEntity
  8
90000_FRAME
370
    13
  6
CONTINUOUS
 62
     7
100
AcDbLine
 10
294.508807
 20
151.822812
 30
0.0
 11
292.607499
 21
151.822812
 31
0.0
  0
LINE
  5
11FE
100
AcDbEntity
  8
90000_FRAME
370
    13
  6
CONTINUOUS
 62
     7
100
AcDbLine
 10
289.232678
 20
151.822812
 30
0.0
 11
286.143053
 21
151.822812
 31
0.0
  0
LINE
  5
11FF
100
AcDbEntity
  8
90000_FRAME
370
    13
  6
CONTINUOUS
 62
     7
100
AcDbLine
 10
294.508807
 20
142.316274
 30
0.0
 11
291.466715
 21
142.316274
 31
0.0
  0
LINE
  5
1200
100
AcDbEntity
  8
90000_FRAME
370
    13
  6
CONTINUOUS
 62
     7
100
AcDbLine
 10
291.466715
 20
142.316274
 30
0.0
 11
288.044361
 21
148.400459
 31
0.0
  0
LINE
  5
1201
100
AcDbEntity
  8
90000_FRAME
370
    13
  6
CONTINUOUS
 62
     7
100
AcDbLine
 10
289.232678
 20
151.822812
 30
0.0
 11
292.607499
 21
145.928759
 31
0.0
  0
LINE
  5
1202
100
AcDbEntity
  8
90000_FRAME
370
    13
  6
CONTINUOUS
 62
     7
100
AcDbLine
 10
292.607499
 20
151.822812
 30
0.0
 11
292.607499
 21
145.928759
 31
0.0
  0
LINE
  5
1203
100
AcDbEntity
  8
90000_FRAME
370
    13
  6
CONTINUOUS
 62
     7
100
AcDbLine
 10
288.044361
 20
142.316274
 30
0.0
 11
288.044361
 21
148.400459
 31
0.0
  0
LINE
  5
1204
100
AcDbEntity
  8
90000_FRAME
370
    13
  6
CONTINUOUS
 62
     7
100
AcDbLine
 10
296.124918
 20
142.506405
 30
0.0
 11
296.124918
 21
144.407713
 31
0.0
  0
LINE
  5
1205
100
AcDbEntity
  8
90000_FRAME
370
    13
  6
CONTINUOUS
 62
     7
100
AcDbLine
 10
302.779495
 20
149.826439
 30
0.0
 11
302.779495
 21
151.727747
 31
0.0
  0
ARC
  5
1206
100
AcDbEntity
  8
90000_FRAME
370
    13
  6
CONTINUOUS
 62
     7
100
AcDbCircle
 10
299.534201
 20
146.230591
 30
0.0
 40
2.223239
100
AcDbArc
 50
277.709996
 51
295.688493
  0
ARC
  5
1207
100
AcDbEntity
  8
90000_FRAME
370
    13
  6
CONTINUOUS
 62
     7
100
AcDbCircle
 10
300.102821
 20
144.78094
 30
0.0
 40
0.680338
100
AcDbArc
 50
305.503221
 51
72.46529
  0
ARC
  5
1208
100
AcDbEntity
  8
90000_FRAME
370
    13
  6
CONTINUOUS
 62
     7
100
AcDbCircle
 10
298.970833
 20
151.584354
 30
0.0
 40
9.513589
100
AcDbArc
 50
252.59392
 51
280.98166
  0
ARC
  5
1209
100
AcDbEntity
  8
90000_FRAME
370
    13
  6
CONTINUOUS
 62
     7
100
AcDbCircle
 10
299.880504
 20
146.348326
 30
0.0
 40
4.201453
100
AcDbArc
 50
282.405836
 51
311.864443
  0
ARC
  5
120A
100
AcDbEntity
  8
90000_FRAME
370
    13
  6
CONTINUOUS
 62
     7
100
AcDbCircle
 10
299.333375
 20
149.56501
 30
0.0
 40
0.605925
100
AcDbArc
 50
154.440035
 51
221.82017
  0
ARC
  5
120B
100
AcDbEntity
  8
90000_FRAME
370
    13
  6
CONTINUOUS
 62
     7
100
AcDbCircle
 10
299.491817
 20
149.406567
 30
0.0
 40
0.820618
100
AcDbArc
 50
102.828783
 51
149.225964
  0
ARC
  5
120C
100
AcDbEntity
  8
90000_FRAME
370
    13
  6
CONTINUOUS
 62
     7
100
AcDbCircle
 10
300.325871
 20
145.921897
 30
0.0
 40
4.403673
100
AcDbArc
 50
84.040006
 51
103.342766
  0
ARC
  5
120D
100
AcDbEntity
  8
90000_FRAME
370
    13
  6
CONTINUOUS
 62
     7
100
AcDbCircle
 10
299.643943
 20
141.087169
 30
0.0
 40
9.284747
100
AcDbArc
 50
70.262586
 51
82.952419
  0
ARC
  5
120E
100
AcDbEntity
  8
90000_FRAME
370
    13
  6
CONTINUOUS
 62
     7
100
AcDbCircle
 10
298.615907
 20
150.430415
 30
0.0
 40
6.517512
100
AcDbArc
 50
247.530021
 51
280.757952
  0
ARC
  5
120F
100
AcDbEntity
  8
90000_FRAME
370
    13
  6
CONTINUOUS
 62
     7
100
AcDbCircle
 10
285.845974
 20
113.927375
 30
0.0
 40
34.663217
100
AcDbArc
 50
65.341467
 51
67.399777
  0
ARC
  5
1210
100
AcDbEntity
  8
90000_FRAME
370
    13
  6
CONTINUOUS
 62
     7
100
AcDbCircle
 10
307.437699
 20
165.512227
 30
0.0
 40
21.258328
100
AcDbArc
 50
242.86201
 51
247.104203
  0
ARC
  5
1211
100
AcDbEntity
  8
90000_FRAME
370
    13
  6
CONTINUOUS
 62
     7
100
AcDbCircle
 10
299.727896
 20
150.444364
 30
0.0
 40
4.332583
100
AcDbArc
 50
227.311928
 51
242.704032
  0
ARC
  5
1212
100
AcDbEntity
  8
90000_FRAME
370
    13
  6
CONTINUOUS
 62
     7
100
AcDbCircle
 10
298.519835
 20
149.033009
 30
0.0
 40
2.477043
100
AcDbArc
 50
194.795219
 51
225.717655
  0
ARC
  5
1213
100
AcDbEntity
  8
90000_FRAME
370
    13
  6
CONTINUOUS
 62
     7
100
AcDbCircle
 10
298.644151
 20
149.113449
 30
0.0
 40
2.618184
100
AcDbArc
 50
164.197486
 51
195.802514
  0
ARC
  5
1214
100
AcDbEntity
  8
90000_FRAME
370
    13
  6
CONTINUOUS
 62
     7
100
AcDbCircle
 10
299.758198
 20
147.336915
 30
0.0
 40
4.73385
100
AcDbArc
 50
86.221802
 51
120.42726
  0
ARC
  5
1215
100
AcDbEntity
  8
90000_FRAME
370
    13
  6
CONTINUOUS
 62
     7
100
AcDbCircle
 10
299.220485
 20
133.944579
 30
0.0
 40
18.13581
100
AcDbArc
 50
78.682705
 51
87.31476
  0
ARC
  5
1216
100
AcDbEntity
  8
90000_FRAME
370
    13
  6
CONTINUOUS
 62
     7
100
AcDbCircle
 10
298.308347
 20
149.328465
 30
0.0
 40
2.239495
100
AcDbArc
 50
142.813918
 51
167.152295
  0
ARC
  5
1217
100
AcDbEntity
  8
90000_FRAME
370
    13
  6
CONTINUOUS
 62
     7
100
AcDbCircle
 10
298.998965
 20
148.715301
 30
0.0
 40
3.161093
100
AcDbArc
 50
121.214095
 51
141.525477
  0
ARC
  5
1218
100
AcDbEntity
  8
90000_FRAME
370
    13
  6
CONTINUOUS
 62
     7
100
AcDbCircle
 10
300.153314
 20
150.337416
 30
0.0
 40
1.732255
100
AcDbArc
 50
222.776039
 51
239.036243
  0
ARC
  5
1219
100
AcDbEntity
  8
90000_FRAME
370
    13
  6
CONTINUOUS
 62
     7
100
AcDbCircle
 10
295.139895
 20
135.676871
 30
0.0
 40
13.717547
100
AcDbArc
 50
59.902027
 51
68.203648
  0
ARC
  5
121A
100
AcDbEntity
  8
90000_FRAME
370
    13
  6
CONTINUOUS
 62
     7
100
AcDbCircle
 10
301.956884
 20
153.528644
 30
0.0
 40
5.397482
100
AcDbArc
 50
240.0482
 51
251.377967
  0
ARC
  5
121B
100
AcDbEntity
  8
90000_FRAME
370
    13
  6
CONTINUOUS
 62
     7
100
AcDbCircle
 10
300.625969
 20
145.214847
 30
0.0
 40
2.866895
100
AcDbArc
 50
315.890455
 51
333.522926
  0
ARC
  5
121C
100
AcDbEntity
  8
90000_FRAME
370
    13
  6
CONTINUOUS
 62
     7
100
AcDbCircle
 10
300.635246
 20
145.108033
 30
0.0
 40
2.812457
100
AcDbArc
 50
335.386797
 51
24.391512
  0
ARC
  5
121D
100
AcDbEntity
  8
90000_FRAME
370
    13
  6
CONTINUOUS
 62
     7
100
AcDbCircle
 10
300.490836
 20
144.95232
 30
0.0
 40
3.009405
100
AcDbArc
 50
25.956292
 51
59.483483
  0
LINE
  5
121E
100
AcDbEntity
  8
90000_FRAME
370
    13
  6
CONTINUOUS
 62
     7
100
AcDbLine
 10
240.939464
 20
142.506405
 30
0.0
 11
240.939464
 21
144.407713
 31
0.0
  0
LINE
  5
121F
100
AcDbEntity
  8
90000_FRAME
370
    13
  6
CONTINUOUS
 62
     7
100
AcDbLine
 10
247.594041
 20
149.826439
 30
0.0
 11
247.594041
 21
151.727747
 31
0.0
  0
ARC
  5
1220
100
AcDbEntity
  8
90000_FRAME
370
    13
  6
CONTINUOUS
 62
     7
100
AcDbCircle
 10
244.348747
 20
146.230591
 30
0.0
 40
2.223239
100
AcDbArc
 50
277.709996
 51
295.688493
  0
ARC
  5
1221
100
AcDbEntity
  8
90000_FRAME
370
    13
  6
CONTINUOUS
 62
     7
100
AcDbCircle
 10
244.917367
 20
144.78094
 30
0.0
 40
0.680338
100
AcDbArc
 50
305.503221
 51
72.46529
  0
ARC
  5
1222
100
AcDbEntity
  8
90000_FRAME
370
    13
  6
CONTINUOUS
 62
     7
100
AcDbCircle
 10
243.785379
 20
151.584354
 30
0.0
 40
9.513589
100
AcDbArc
 50
252.59392
 51
280.98166
  0
ARC
  5
1223
100
AcDbEntity
  8
90000_FRAME
370
    13
  6
CONTINUOUS
 62
     7
100
AcDbCircle
 10
244.69505
 20
146.348326
 30
0.0
 40
4.201453
100
AcDbArc
 50
282.405836
 51
311.864443
  0
ARC
  5
1224
100
AcDbEntity
  8
90000_FRAME
370
    13
  6
CONTINUOUS
 62
     7
100
AcDbCircle
 10
244.147921
 20
149.56501
 30
0.0
 40
0.605925
100
AcDbArc
 50
154.440035
 51
221.82017
  0
ARC
  5
1225
100
AcDbEntity
  8
90000_FRAME
370
    13
  6
CONTINUOUS
 62
     7
100
AcDbCircle
 10
244.306363
 20
149.406567
 30
0.0
 40
0.820618
100
AcDbArc
 50
102.828783
 51
149.225964
  0
ARC
  5
1226
100
AcDbEntity
  8
90000_FRAME
370
    13
  6
CONTINUOUS
 62
     7
100
AcDbCircle
 10
245.140417
 20
145.921897
 30
0.0
 40
4.403673
100
AcDbArc
 50
84.040006
 51
103.342766
  0
ARC
  5
1227
100
AcDbEntity
  8
90000_FRAME
370
    13
  6
CONTINUOUS
 62
     7
100
AcDbCircle
 10
244.458489
 20
141.087169
 30
0.0
 40
9.284747
100
AcDbArc
 50
70.262586
 51
82.952419
  0
ARC
  5
1228
100
AcDbEntity
  8
90000_FRAME
370
    13
  6
CONTINUOUS
 62
     7
100
AcDbCircle
 10
243.430453
 20
150.430415
 30
0.0
 40
6.517512
100
AcDbArc
 50
247.530021
 51
280.757952
  0
ARC
  5
1229
100
AcDbEntity
  8
90000_FRAME
370
    13
  6
CONTINUOUS
 62
     7
100
AcDbCircle
 10
230.66052
 20
113.927375
 30
0.0
 40
34.663217
100
AcDbArc
 50
65.341467
 51
67.399777
  0
ARC
  5
122A
100
AcDbEntity
  8
90000_FRAME
370
    13
  6
CONTINUOUS
 62
     7
100
AcDbCircle
 10
252.252245
 20
165.512227
 30
0.0
 40
21.258328
100
AcDbArc
 50
242.86201
 51
247.104203
  0
ARC
  5
122B
100
AcDbEntity
  8
90000_FRAME
370
    13
  6
CONTINUOUS
 62
     7
100
AcDbCircle
 10
244.542442
 20
150.444364
 30
0.0
 40
4.332583
100
AcDbArc
 50
227.311928
 51
242.704032
  0
ARC
  5
122C
100
AcDbEntity
  8
90000_FRAME
370
    13
  6
CONTINUOUS
 62
     7
100
AcDbCircle
 10
243.334381
 20
149.033009
 30
0.0
 40
2.477043
100
AcDbArc
 50
194.795219
 51
225.717655
  0
ARC
  5
122D
100
AcDbEntity
  8
90000_FRAME
370
    13
  6
CONTINUOUS
 62
     7
100
AcDbCircle
 10
244.572744
 20
147.336915
 30
0.0
 40
4.73385
100
AcDbArc
 50
86.221802
 51
120.42726
  0
ARC
  5
122E
100
AcDbEntity
  8
90000_FRAME
370
    13
  6
CONTINUOUS
 62
     7
100
AcDbCircle
 10
244.035031
 20
133.944579
 30
0.0
 40
18.13581
100
AcDbArc
 50
78.682705
 51
87.31476
  0
ARC
  5
122F
100
AcDbEntity
  8
90000_FRAME
370
    13
  6
CONTINUOUS
 62
     7
100
AcDbCircle
 10
243.813511
 20
148.715301
 30
0.0
 40
3.161093
100
AcDbArc
 50
121.214095
 51
141.525477
  0
ARC
  5
1230
100
AcDbEntity
  8
90000_FRAME
370
    13
  6
CONTINUOUS
 62
     7
100
AcDbCircle
 10
244.96786
 20
150.337416
 30
0.0
 40
1.732255
100
AcDbArc
 50
222.776039
 51
239.036243
  0
ARC
  5
1231
100
AcDbEntity
  8
90000_FRAME
370
    13
  6
CONTINUOUS
 62
     7
100
AcDbCircle
 10
239.954441
 20
135.676871
 30
0.0
 40
13.717547
100
AcDbArc
 50
59.902027
 51
68.203648
  0
ARC
  5
1232
100
AcDbEntity
  8
90000_FRAME
370
    13
  6
CONTINUOUS
 62
     7
100
AcDbCircle
 10
246.77143
 20
153.528644
 30
0.0
 40
5.397482
100
AcDbArc
 50
240.0482
 51
251.377967
  0
ARC
  5
1233
100
AcDbEntity
  8
90000_FRAME
370
    13
  6
CONTINUOUS
 62
     7
100
AcDbCircle
 10
245.440515
 20
145.214847
 30
0.0
 40
2.866895
100
AcDbArc
 50
315.890455
 51
333.522926
  0
ARC
  5
1234
100
AcDbEntity
  8
90000_FRAME
370
    13
  6
CONTINUOUS
 62
     7
100
AcDbCircle
 10
245.449792
 20
145.108033
 30
0.0
 40
2.812457
100
AcDbArc
 50
335.386797
 51
24.391512
  0
ARC
  5
1235
100
AcDbEntity
  8
90000_FRAME
370
    13
  6
CONTINUOUS
 62
     7
100
AcDbCircle
 10
245.305382
 20
144.95232
 30
0.0
 40
3.009405
100
AcDbArc
 50
25.956292
 51
59.483483
  0
LINE
  5
1236
100
AcDbEntity
  8
90000_FRAME
370
    13
  6
CONTINUOUS
 62
     7
100
AcDbLine
 10
241.323121
 20
150.661201
 30
0.0
 11
241.871253
 21
151.209347
 31
0.0
  0
ARC
  5
1237
100
AcDbEntity
  8
90000_FRAME
370
    13
  6
CONTINUOUS
 62
     7
100
AcDbCircle
 10
243.458697
 20
149.113449
 30
0.0
 40
2.618184
100
AcDbArc
 50
164.197486
 51
195.802514
  0
ARC
  5
1238
100
AcDbEntity
  8
90000_FRAME
370
    13
  6
CONTINUOUS
 62
     7
100
AcDbCircle
 10
243.122892
 20
149.328465
 30
0.0
 40
2.239495
100
AcDbArc
 50
142.813918
 51
167.152295
  0
TEXT
  5
1239
100
AcDbEntity
  8
90000_FRAME
370
    13
  6
CONTINUOUS
 62
     7
100
AcDbText
 10
464.0
 20
132.7938
 30
0.0
 40
4.4
  1
1:2
 41
0.9
100
AcDbText
  0
TEXT
  5
123A
100
AcDbEntity
  8
90000_FRAME
370
    13
  6
CONTINUOUS
 62
     7
100
AcDbText
 10
324.0
 20
144.4
 30
0.0
 40
4.4
  1

 41
0.784213
100
AcDbText
  0
ENDSEC
  0
SECTION
  2
OBJECTS
  0
DICTIONARY
  5
FE4
100
AcDbDictionary
280
     0
281
     1
  3
ACAD_GROUP
350
FE5
  3
ACAD_MLINESTYLE
350
FE6
  0
DICTIONARY
  5
FE5
102
{ACAD_REACTORS
330
FE4
102
}
100
AcDbDictionary
280
     0
281
     1
  0
DICTIONARY
  5
FE6
102
{ACAD_REACTORS
330
FE4
102
}
100
AcDbDictionary
280
     0
281
     1
  3
Standard
350
FE7
  0
MLINESTYLE
  5
FE7
102
{ACAD_REACTORS
330
FE6
102
}
100
AcDbMlineStyle
  2
Standard
 70
     0
  3

 62
     0
 51
90.0
 52
90.0
 71
     2
 49
0.5
 62
   256
  6
ByLayer
 49
-0.5
 62
   256
  6
ByLayer
  0
ENDSEC
  0
EOF
